  0
SECTION
  2
HEADER
  9
$ACADVER
  1
AC1009
  9
$INSBASE
 10
0.0
 20
0.0
 30
0.0
  9
$EXTMIN
 10
0.0
 20
-2.960436562073669
 30
0.0
  9
$EXTMAX
 10
157.5243825262306
 20
88.0617801374799
 30
0.0
  9
$LIMMIN
 10
0.0
 20
0.0
  9
$LIMMAX
 10
187.5
 20
135.0
  9
$ORTHOMODE
 70
     1
  9
$REGENMODE
 70
     1
  9
$FILLMODE
 70
     1
  9
$QTEXTMODE
 70
     0
  9
$MIRRTEXT
 70
     0
  9
$DRAGMODE
 70
     2
  9
$LTSCALE
 40
5.0
  9
$OSMODE
 70
  3071
  9
$ATTMODE
 70
     1
  9
$TEXTSIZE
 40
4.000000000000048
  9
$TRACEWID
 40
0.05
  9
$TEXTSTYLE
  7
STANDARD
  9
$CLAYER
  8
0
  9
$CELTYPE
  6
BYLAYER
  9
$CECOLOR
 62
   256
  9
$DIMSCALE
 40
0.5
  9
$DIMASZ
 40
3.0
  9
$DIMEXO
 40
2.0
  9
$DIMDLI
 40
0.38
  9
$DIMRND
 40
0.0
  9
$DIMDLE
 40
0.0
  9
$DIMEXE
 40
2.0
  9
$DIMTP
 40
0.0
  9
$DIMTM
 40
0.0
  9
$DIMTXT
 40
3.0
  9
$DIMCEN
 40
0.0
  9
$DIMTSZ
 40
0.0
  9
$DIMTOL
 70
     0
  9
$DIMLIM
 70
     0
  9
$DIMTIH
 70
     0
  9
$DIMTOH
 70
     0
  9
$DIMSE1
 70
     0
  9
$DIMSE2
 70
     0
  9
$DIMTAD
 70
     1
  9
$DIMZIN
 70
     0
  9
$DIMBLK
  1

  9
$DIMASO
 70
     0
  9
$DIMSHO
 70
     0
  9
$DIMPOST
  1

  9
$DIMAPOST
  1

  9
$DIMALT
 70
     0
  9
$DIMALTD
 70
     2
  9
$DIMALTF
 40
25.399999999999999
  9
$DIMLFAC
 40
1.0
  9
$DIMTOFL
 70
     1
  9
$DIMTVP
 40
1.6000000000000001
  9
$DIMTIX
 70
     1
  9
$DIMSOXD
 70
     0
  9
$DIMSAH
 70
     0
  9
$DIMBLK1
  1

  9
$DIMBLK2
  1

  9
$DIMSTYLE
  2
STANDARD
  9
$DIMCLRD
 70
     0
  9
$DIMCLRE
 70
     0
  9
$DIMCLRT
 70
     0
  9
$DIMTFAC
 40
1.0
  9
$DIMGAP
 40
0.09
  9
$LUNITS
 70
     2
  9
$LUPREC
 70
     4
  9
$SKETCHINC
 40
0.1
  9
$FILLETRAD
 40
0.0
  9
$AUNITS
 70
     0
  9
$AUPREC
 70
     4
  9
$MENU
  1
E:\r13\win\SUPPORT\ACAD
  9
$ELEVATION
 40
0.0
  9
$PELEVATION
 40
0.0
  9
$THICKNESS
 40
0.0
  9
$LIMCHECK
 70
     0
  9
$BLIPMODE
 70
     0
  9
$CHAMFERA
 40
0.0
  9
$CHAMFERB
 40
0.0
  9
$SKPOLY
 70
     0
  9
$TDCREATE
 40
2449839.7858912032
  9
$TDUPDATE
 40
2456597.4859935539
  9
$TDINDWG
 40
0.0058783333
  9
$TDUSRTIMER
 40
0.0058783333
  9
$USRTIMER
 70
     1
  9
$ANGBASE
 50
0.0
  9
$ANGDIR
 70
     0
  9
$PDMODE
 70
     0
  9
$PDSIZE
 40
0.0
  9
$PLINEWID
 40
0.0
  9
$COORDS
 70
     1
  9
$SPLFRAME
 70
     0
  9
$SPLINETYPE
 70
     6
  9
$SPLINESEGS
 70
     8
  9
$ATTDIA
 70
     0
  9
$ATTREQ
 70
     1
  9
$HANDLING
 70
     1
  9
$HANDSEED
  5
B07
  9
$SURFTAB1
 70
     6
  9
$SURFTAB2
 70
     6
  9
$SURFTYPE
 70
     6
  9
$SURFU
 70
     6
  9
$SURFV
 70
     6
  9
$UCSNAME
  2

  9
$UCSORG
 10
0.0
 20
0.0
 30
0.0
  9
$UCSXDIR
 10
1.0
 20
0.0
 30
0.0
  9
$UCSYDIR
 10
0.0
 20
1.0
 30
0.0
  9
$PUCSNAME
  2

  9
$PUCSORG
 10
0.0
 20
0.0
 30
0.0
  9
$PUCSXDIR
 10
1.0
 20
0.0
 30
0.0
  9
$PUCSYDIR
 10
0.0
 20
1.0
 30
0.0
  9
$USERI1
 70
     0
  9
$USERI2
 70
     1
  9
$USERI3
 70
     1
  9
$USERI4
 70
     0
  9
$USERI5
 70
     0
  9
$USERR1
 40
0.0
  9
$USERR2
 40
0.0
  9
$USERR3
 40
0.0
  9
$USERR4
 40
0.0
  9
$USERR5
 40
0.0
  9
$WORLDVIEW
 70
     1
  9
$SHADEDGE
 70
     3
  9
$SHADEDIF
 70
    70
  9
$TILEMODE
 70
     1
  9
$MAXACTVP
 70
    16
  9
$PLIMCHECK
 70
     0
  9
$PEXTMIN
 10
1.0000000000000000E+020
 20
1.0000000000000000E+020
 30
1.0000000000000000E+020
  9
$PEXTMAX
 10
-1.0000000000000000E+020
 20
-1.0000000000000000E+020
 30
-1.0000000000000000E+020
  9
$PLIMMIN
 10
0.0
 20
0.0
  9
$PLIMMAX
 10
12.0
 20
9.0
  9
$UNITMODE
 70
     0
  9
$VISRETAIN
 70
     0
  9
$PLINEGEN
 70
     0
  9
$PSLTSCALE
 70
     0
  0
ENDSEC
  0
SECTION
  2
TABLES
  0
TABLE
  2
VPORT
 70
     1
  0
VPORT
  2
*ACTIVE
 70
     0
 10
0.0
 20
0.0
 11
1.0
 21
1.0
 12
93.74713919532617
 22
80.848703909439024
 13
0.0
 23
0.0
 14
5.0
 24
5.0
 15
5.0
 25
5.0
 16
0.0
 26
0.0
 36
1.0
 17
0.0
 27
0.0
 37
0.0
 40
169.22413112104309
 41
1.9089595375722539
 42
50.0
 43
0.0
 44
0.0
 50
0.0
 51
0.0
 71
     0
 72
   500
 73
     1
 74
     0
 75
     0
 76
     0
 77
     0
 78
     2
  0
ENDTAB
  0
TABLE
  2
LTYPE
 70
     4
  0
LTYPE
  2
CONTINUOUS
 70
     0
  3
Solid Line
 72
    65
 73
     0
 40
0.0
  0
LTYPE
  2
CENTER
 70
     0
  3
____ _ ____ _ ____ _ ____ _ ____ _ ____ _ ____
 72
    65
 73
     4
 40
2.0
 49
1.25
 49
-0.25
 49
0.25
 49
-0.25
  0
LTYPE
  2
HIDDEN
 70
     0
  3
_ _ _ _ _ _ _ _ _ _ _ _ _ _ _ _ _ _ _ _ _ _ _
 72
    65
 73
     2
 40
0.375
 49
0.25
 49
-0.125
  0
LTYPE
  2
PHANTOM2
 70
     0
  3
___ _ _ ___ _ _ ___ _ _ ___ _ _
 72
    65
 73
     6
 40
1.25
 49
0.625
 49
-0.125
 49
0.125
 49
-0.125
 49
0.125
 49
-0.125
  0
ENDTAB
  0
TABLE
  2
LAYER
 70
     4
  0
LAYER
  2
0
 70
     0
 62
     7
  6
CONTINUOUS
  0
LAYER
  2
1
 70
     0
 62
     1
  6
CENTER
  0
LAYER
  2
3
 70
     0
 62
     3
  6
CONTINUOUS
  0
LAYER
  2
2
 70
     0
 62
     2
  6
HIDDEN
  0
ENDTAB
  0
TABLE
  2
STYLE
 70
     2
  0
STYLE
  2
STANDARD
 70
     0
 40
0.0
 41
1.0
 50
0.0
 71
     0
 42
4.000000000000048
  3
TXT
  4
BIGFONT
  0
STYLE
  2
STANDARD1
 70
     0
 40
0.0
 41
1.0
 50
0.0
 71
     0
 42
3.0
  3
txt
  4

  0
ENDTAB
  0
TABLE
  2
VIEW
 70
     1
  0
VIEW
  2
ALL
 70
     0
 40
135.0
 10
110.4957983193277
 20
67.5
 41
0.0
 11
0.0
 21
0.0
 31
1.0
 12
0.0
 22
0.0
 32
0.0
 42
0.0
 43
0.0
 44
0.0
 50
0.0
 71
     0
  0
ENDTAB
  0
TABLE
  2
UCS
 70
     0
  0
ENDTAB
  0
TABLE
  2
APPID
 70
     3
  0
APPID
  2
ACAD
 70
     0
  0
APPID
  2
ACAD_MLEADERVER
 70
     0
  0
APPID
  2
ACAD_NAV_VCDISPLAY
 70
     0
  0
ENDTAB
  0
TABLE
  2
DIMSTYLE
 70
     1
  0
DIMSTYLE
  2
STANDARD
 70
     0
  3

  4

  5

  6

  7

 40
1.0
 41
0.18
 42
0.0625
 43
0.38
 44
0.18
 45
0.0
 46
0.0
 47
0.0
 48
0.0
140
0.18
141
0.09
142
0.0
143
25.399999999999999
144
1.0
145
0.0
146
1.0
147
0.09
 71
     0
 72
     0
 73
     1
 74
     1
 75
     0
 76
     0
 77
     0
 78
     0
170
     0
171
     2
172
     0
173
     0
174
     0
175
     0
176
     0
177
     0
178
     0
  0
ENDTAB
  0
ENDSEC
  0
SECTION
  2
BLOCKS
  0
BLOCK
  8
0
  2
$MODEL_SPACE
 70
     0
 10
0.0
 20
0.0
 30
0.0
  3
$MODEL_SPACE
  1

  0
ENDBLK
  5
686
  8
0
  0
BLOCK
 67
     1
  8
0
  2
$PAPER_SPACE
 70
     0
 10
0.0
 20
0.0
 30
0.0
  3
$PAPER_SPACE
  1

  0
ENDBLK
  5
684
 67
     1
  8
0
  0
ENDSEC
  0
SECTION
  2
ENTITIES
  0
LINE
  5
807
  8
0
 10
86.792124668227686
 20
83.811780137479843
 30
0.0
 11
93.142124668227481
 21
83.811780137479786
 31
0.0
  0
LINE
  5
808
  8
0
 10
86.792124668227686
 20
83.492735108194765
 30
0.0
 11
93.142124668227481
 21
83.492735108194765
 31
0.0
  0
LINE
  5
809
  8
0
 10
86.790142517628894
 20
82.549543819063103
 30
0.0
 11
93.142124668227481
 21
82.549543819063047
 31
0.0
  0
LINE
  5
80A
  8
0
 10
86.042124668227785
 20
81.399311553952771
 30
0.0
 11
93.142124668227481
 21
81.399311553952771
 31
0.0
  0
LINE
  5
80B
  8
0
 10
86.78373641635811
 20
81.023428255355199
 30
0.0
 11
93.142124668227481
 21
81.023428255355199
 31
0.0
  0
LINE
  5
80C
  8
0
 10
86.042124668227743
 20
79.698921675418774
 30
0.0
 11
93.142124668227481
 21
79.698921675418717
 31
0.0
  0
LINE
  5
80D
  8
0
 10
86.768104139361498
 20
78.981086990320136
 30
0.0
 11
93.142124668227481
 21
78.981086990320136
 31
0.0
  0
LINE
  5
80E
  8
0
 10
86.042124668227743
 20
77.500859070109357
 30
0.0
 11
93.142124668227481
 21
77.500859070109357
 31
0.0
  0
LINE
  5
80F
  8
0
 10
86.734628943797972
 20
76.511780137480571
 30
0.0
 11
93.142124668227481
 21
76.511780137480571
 31
0.0
  0
LINE
  5
810
  8
0
 10
86.042124668227686
 20
74.901189621351193
 30
0.0
 11
93.142124668227481
 21
74.901189621351193
 31
0.0
  0
LINE
  5
811
  8
0
 10
86.042124668227686
 20
73.723428255354577
 30
0.0
 11
93.142124668227481
 21
73.72342825535452
 31
0.0
  0
LINE
  5
812
  8
0
 10
86.042124668227686
 20
72.013531358652926
 30
0.0
 11
93.142124668227481
 21
72.013531358652926
 31
0.0
  0
LINE
  5
813
  8
0
 10
86.042124668227686
 20
70.737423043258218
 30
0.0
 11
93.142124668227481
 21
70.737423043258218
 31
0.0
  0
LINE
  5
814
  8
0
 10
86.042124668227629
 20
68.964088804616381
 30
0.0
 11
93.142124668227481
 21
68.964088804616381
 31
0.0
  0
LINE
  5
815
  8
0
 10
86.042124668227629
 20
67.659471470343476
 30
0.0
 11
93.142124668227481
 21
67.659471470343476
 31
0.0
  0
LINE
  5
816
  8
2
 10
100.74212466822721
 20
75.8117801374799
 30
0.0
 11
86.042124668227231
 21
75.8117801374799
 31
0.0
  0
LINE
  5
817
  8
2
 10
101.0421246682273
 20
72.3117801374799
 30
0.0
 11
86.042124668227686
 21
72.311780137480127
 31
0.0
  0
LINE
  5
818
  8
2
 10
100.42868966822731
 20
71.698345137479919
 30
0.0
 11
86.655559668227667
 21
71.698345137480146
 31
0.0
  0
LINE
  5
819
  8
1
 10
106.0421246682272
 20
68.3117801374799
 30
0.0
 11
78.042124668227231
 21
68.311780137479886
 31
0.0
  0
LINE
  5
81A
  8
0
 10
86.042124668227686
 20
65.886137231701639
 30
0.0
 11
93.142124668227481
 21
65.886137231701639
 31
0.0
  0
LINE
  5
81B
  8
0
 10
86.042124668227686
 20
64.610028916306874
 30
0.0
 11
93.142124668227481
 21
64.610028916306931
 31
0.0
  0
LINE
  5
81C
  8
0
 10
86.042124668227686
 20
62.90013201960528
 30
0.0
 11
93.142124668227481
 21
62.90013201960528
 31
0.0
  0
LINE
  5
81D
  8
0
 10
86.042124668227686
 20
61.722370653608657
 30
0.0
 11
93.142124668227481
 21
61.722370653608657
 31
0.0
  0
LINE
  5
81E
  8
0
 10
86.734628943797972
 20
60.111780137479293
 30
0.0
 11
93.142124668227481
 21
60.111780137479293
 31
0.0
  0
LINE
  5
81F
  8
0
 10
86.042124668227743
 20
59.1227012048505
 30
0.0
 11
93.142124668227481
 21
59.1227012048505
 31
0.0
  0
LINE
  5
820
  8
0
 10
86.768104139361498
 20
57.642473284639721
 30
0.0
 11
93.142124668227481
 21
57.642473284639721
 31
0.0
  0
LINE
  5
821
  8
0
 10
86.042124668227743
 20
56.924638599541083
 30
0.0
 11
93.142124668227481
 21
56.92463859954114
 31
0.0
  0
LINE
  5
822
  8
0
 10
86.78373641635811
 20
55.600132019604636
 30
0.0
 11
93.142124668227481
 21
55.600132019604636
 31
0.0
  0
LINE
  5
823
  8
0
 10
86.042124668227785
 20
55.224248721007029
 30
0.0
 11
93.142124668227481
 21
55.224248721007079
 31
0.0
  0
LINE
  5
824
  8
0
 10
86.790142517628894
 20
54.074016455896761
 30
0.0
 11
93.142124668227481
 21
54.074016455896761
 31
0.0
  0
LINE
  5
825
  8
0
 10
86.792124668227686
 20
53.130825166765078
 30
0.0
 11
93.142124668227481
 21
53.130825166765078
 31
0.0
  0
LINE
  5
826
  8
0
 10
86.792124668227686
 20
52.811780137480007
 30
0.0
 11
93.142124668227481
 21
52.811780137480007
 31
0.0
  0
LINE
  5
827
  8
2
 10
101.0421246682271
 20
64.3117801374799
 30
0.0
 11
86.042124668227558
 21
64.311780137480127
 31
0.0
  0
LINE
  5
828
  8
2
 10
100.42868966822719
 20
64.925215137479881
 30
0.0
 11
86.655559668227554
 21
64.925215137480109
 31
0.0
  0
LINE
  5
829
  8
2
 10
100.74212466822721
 20
60.8117801374799
 30
0.0
 11
86.042124668227231
 21
60.8117801374799
 31
0.0
  0
ARC
  5
82A
  8
0
 10
93.142124668227481
 20
63.800132019605257
 30
0.0
 40
0.8999999999999772
 50
337.50000000000591
 51
0.0000000000056996
  0
LINE
  5
82B
  8
0
 10
95.042124668227459
 20
82.461780137479934
 30
0.0
 11
95.042124668227459
 21
54.161779183805614
 31
0.0
  0
LINE
  5
82C
  8
0
 10
100.74212466822721
 20
79.3117801374799
 30
0.0
 11
100.74212466822721
 21
57.311780137480007
 31
0.0
  0
LINE
  5
82D
  8
0
 10
99.742124668227163
 20
80.3117801374799
 30
0.0
 11
99.742124668227163
 21
56.31178013747995
 31
0.0
  0
LINE
  5
82E
  8
0
 10
101.0421246682272
 20
75.811780137479886
 30
0.0
 11
101.0421246682272
 21
60.8117801374799
 31
0.0
  0
ARC
  5
830
  8
0
 10
123.88895738832019
 20
63.800132019605257
 30
0.0
 40
0.9
 50
115.85698697766639
 51
280.143013022334
  0
ARC
  5
831
  8
0
 10
151.659807664141
 20
63.800132019605307
 30
0.0
 40
0.9
 50
259.856986977666
 51
64.143013022333605
  0
CIRCLE
  5
832
  8
0
 10
137.7743825262306
 20
68.3117801374799
 30
0.0
 40
14.75
  0
ARC
  5
834
  8
0
 10
146.35604720970139
 20
56.500132019604678
 30
0.0
 40
0.9
 50
223.85698697766639
 51
28.143013022333118
  0
ARC
  5
835
  8
0
 10
148.6242969782015
 20
58.542473284639748
 30
0.0
 40
0.9
 50
235.85698697766719
 51
40.143013022333157
  0
ARC
  5
836
  8
0
 10
150.41835342148451
 20
61.011780137479263
 30
0.0
 40
0.9
 50
247.8569869776673
 51
52.143013022333591
  0
ARC
  5
837
  8
0
 10
134.7388718402911
 20
54.030825166765112
 30
0.0
 40
0.9
 50
175.85698697766639
 51
340.14301302233309
  0
ARC
  5
838
  8
0
 10
140.8098932121701
 20
54.030825166765112
 30
0.0
 40
0.9
 50
199.85698697766679
 51
4.1430130223335286
  0
ARC
  5
839
  8
0
 10
143.7127375151378
 20
54.974016455896788
 30
0.0
 40
0.9
 50
211.85698697766711
 51
16.143013022333172
  0
ARC
  5
83A
  8
0
 10
137.7743825262306
 20
53.71178013747862
 30
0.0
 40
0.9
 50
187.85698697766651
 51
352.14301302233338
  0
ARC
  5
83B
  8
0
 10
129.19271784275969
 20
56.500132019604678
 30
0.0
 40
0.9
 50
151.85698697766691
 51
316.14301302233372
  0
ARC
  5
83C
  8
0
 10
131.83602753732339
 20
54.974016455896731
 30
0.0
 40
0.9
 50
163.85698697766679
 51
328.14301302233292
  0
ARC
  5
83D
  8
0
 10
126.92446807425971
 20
58.542473284639748
 30
0.0
 40
0.9
 50
139.8569869776675
 51
304.14301302233281
  0
ARC
  5
83E
  8
0
 10
125.1304116309767
 20
61.011780137479263
 30
0.0
 40
0.9
 50
127.85698697766639
 51
292.1430130223327
  0
LINE
  5
83F
  8
0
 10
99.74212466822722
 20
56.311780137480021
 30
0.0
 11
100.74212466822721
 21
57.311780137480007
 31
0.0
  0
LINE
  5
840
  8
0
 10
101.0421246682272
 20
60.8117801374799
 30
0.0
 11
100.74212466822721
 21
60.8117801374799
 31
0.0
  0
ARC
  5
841
  8
0
 10
94.442124668227436
 20
54.161780137479923
 30
0.0
 40
0.6
 50
270.0
 51
0.0
  0
ARC
  5
842
  8
0
 10
93.973505958127916
 20
54.98562869446755
 30
0.0
 40
0.0695943349617375
 50
350.39492452295309
 51
56.128990066100847
  0
ARC
  5
843
  8
0
 10
93.562174327590625
 20
54.372833114571158
 30
0.0
 40
0.8076404941015379
 50
56.128990076415207
 51
74.462162662585939
  0
ARC
  5
844
  8
0
 10
93.313340982057625
 20
53.47786455054154
 30
0.0
 40
1.73655747879414
 50
74.462162662584149
 51
83.430404382397938
  0
ARC
  5
845
  8
0
 10
93.142124668227481
 20
51.991175885148607
 30
0.0
 40
3.2330728358584788
 50
83.430404382417635
 51
90.0
  0
ARC
  5
846
  8
0
 10
93.142124668227481
 20
54.974016455874342
 30
0.0
 40
0.89999999997752
 50
270.0
 51
292.50000000025102
  0
ARC
  5
847
  8
0
 10
93.142124668222706
 20
54.974016455885312
 30
0.0
 40
0.8999999999894924
 50
292.500000000265
 51
315.00000000036391
  0
ARC
  5
848
  8
0
 10
93.142124668215544
 20
54.974016455892297
 30
0.0
 40
0.8999999999995175
 50
315.0000000003696
 51
337.50000000025409
  0
ARC
  5
849
  8
0
 10
93.142124668204232
 20
54.974016455896837
 30
0.0
 40
0.900000000011687
 50
337.5000000002658
 51
359.99999999999841
  0
LINE
  5
84A
  8
0
 10
94.033625936089294
 20
54.045420422053098
 30
0.0
 11
94.042124668227459
 21
54.030825166765112
 31
0.0
  0
ARC
  5
84B
  8
0
 10
93.594263779155185
 20
51.52639922130674
 30
0.0
 40
2.5570504325795751
 50
80.106123609882218
 51
85.867775834163893
  0
ARC
  5
84C
  8
0
 10
93.327489349981334
 20
47.833826477584807
 30
0.0
 40
6.2592473565342441
 50
85.867775834157399
 51
88.285914440763818
  0
ARC
  5
84D
  8
0
 10
93.142124668226444
 20
41.639593505922782
 30
0.0
 40
12.45625326039354
 50
88.285914440765453
 51
89.124083735290114
  0
ARC
  5
84E
  8
0
 10
93.142124668227481
 20
54.030825166765169
 30
0.0
 40
0.8999999999999772
 50
337.4999999999942
 51
359.99999999999591
  0
LINE
  5
84F
  8
0
 10
93.926069144440177
 20
53.588749315562147
 30
0.0
 11
94.033675797922555
 21
53.588749315562147
 31
0.0
  0
LINE
  5
850
  8
0
 10
94.029536635694157
 20
53.5617801374799
 30
0.0
 11
94.442124668227436
 21
53.5617801374799
 31
0.0
  0
ARC
  5
851
  8
0
 10
93.142124668227481
 20
54.030825166764998
 30
0.0
 40
0.8999999999998676
 50
270.0
 51
292.5000000000025
  0
ARC
  5
852
  8
0
 10
93.142124668227538
 20
54.030825166764998
 30
0.0
 40
0.8999999999998424
 50
292.49999999999881
 51
315.00000000000119
  0
ARC
  5
853
  8
0
 10
93.142124668227424
 20
54.030825166765112
 30
0.0
 40
0.9000000000000206
 50
315.0
 51
337.4999999999971
  0
ARC
  5
854
  8
0
 10
93.142124668227481
 20
53.711780137480041
 30
0.0
 40
0.9
 50
270.0
 51
352.14301302225522
  0
LINE
  5
855
  8
0
 10
95.042124668227459
 20
56.311780137480021
 30
0.0
 11
99.74212466822722
 21
56.311780137480021
 31
0.0
  0
ARC
  5
856
  8
0
 10
93.736421851470411
 20
58.570329762831363
 30
0.0
 40
0.3069693723241012
 50
354.79343049062152
 51
32.720449003984008
  0
ARC
  5
857
  8
0
 10
93.387402781604735
 20
58.346087556421821
 30
0.0
 40
0.7218173905974572
 50
32.720449006648877
 51
57.190217833882159
  0
ARC
  5
858
  8
0
 10
93.248847677320825
 20
58.131172710872193
 30
0.0
 40
0.9775240736558682
 50
57.190217833891637
 51
75.048479245225607
  0
ARC
  5
859
  8
0
 10
93.142124668227481
 20
57.731524720321652
 30
0.0
 40
1.391176484528841
 50
75.048479245230538
 51
90.0
  0
ARC
  5
85A
  8
0
 10
93.142124668223218
 20
58.542473284629068
 30
0.0
 40
0.8999999999901756
 50
292.50000000023857
 51
315.00000000033509
  0
ARC
  5
85B
  8
0
 10
93.142124668217022
 20
58.542473284635257
 30
0.0
 40
0.8999999999989379
 50
315.00000000033509
 51
337.50000000024897
  0
ARC
  5
85C
  8
0
 10
93.142124668206975
 20
58.542473284639691
 30
0.0
 40
0.9000000000099248
 50
337.500000000233
 51
0.0000000000032569
  0
ARC
  5
85D
  8
0
 10
93.870532612014273
 20
56.519376439684663
 30
0.0
 40
0.1726678356334996
 50
353.60089459908392
 51
41.288881088054858
  0
ARC
  5
85E
  8
0
 10
93.487256710223434
 20
56.182792095096367
 30
0.0
 40
0.6827555123279413
 50
41.288881084563172
 51
64.747967792498201
  0
ARC
  5
85F
  8
0
 10
93.285326298083746
 20
55.754677715920252
 30
0.0
 40
1.1561029671687419
 50
64.747967792496382
 51
78.945162124566735
  0
ARC
  5
860
  8
0
 10
93.142124668227424
 20
55.021715260299167
 30
0.0
 40
1.9029233392419931
 50
78.945162124563538
 51
89.999999999998366
  0
ARC
  5
861
  8
0
 10
93.142124668227481
 20
56.50013201960661
 30
0.0
 40
0.9000000000019586
 50
270.0
 51
292.49999999997948
  0
ARC
  5
862
  8
0
 10
93.142124668227865
 20
56.500132019605651
 30
0.0
 40
0.9000000000009077
 50
292.49999999997948
 51
314.99999999996891
  0
ARC
  5
863
  8
0
 10
93.142124668228504
 20
56.500132019604962
 30
0.0
 40
0.8999999999999918
 50
314.99999999997237
 51
337.49999999998249
  0
ARC
  5
864
  8
0
 10
93.142124668229528
 20
56.500132019604727
 30
0.0
 40
0.899999999998954
 50
337.4999999999709
 51
359.99999999999591
  0
ARC
  5
865
  8
0
 10
93.142124668227353
 20
58.542473284618893
 30
0.0
 40
0.8999999999791862
 50
270.00000000000648
 51
292.50000000024193
  0
ARC
  5
866
  8
0
 10
93.142124668227481
 20
63.800132019605201
 30
0.0
 40
0.8999999999998676
 50
270.0
 51
292.5000000000025
  0
ARC
  5
867
  8
0
 10
93.142124668227595
 20
63.800132019605201
 30
0.0
 40
0.8999999999998223
 50
292.49999999999551
 51
315.0000000000029
  0
ARC
  5
868
  8
0
 10
93.142124668227481
 20
63.800132019605307
 30
0.0
 40
0.899999999999988
 50
315.0000000000029
 51
337.50000000000227
  0
ARC
  5
869
  8
0
 10
93.594602607263525
 20
61.048212828639578
 30
0.0
 40
0.4490026013644404
 50
355.34582464116511
 51
27.682541823872992
  0
ARC
  5
86A
  8
0
 10
93.280436851823424
 20
60.883394213124006
 30
0.0
 40
0.8037775975405092
 50
27.68254182453364
 51
51.707319061434362
  0
ARC
  5
86B
  8
0
 10
93.210388746004526
 20
60.794674628769712
 30
0.0
 40
0.9168169790710834
 50
51.707319061440707
 51
71.890171666916714
  0
ARC
  5
86C
  8
0
 10
93.142124668227353
 20
60.585941676688087
 30
0.0
 40
1.1364289769206259
 50
71.890171666909765
 51
89.999999999993491
  0
ARC
  5
86D
  8
0
 10
93.142124668227481
 20
61.011780137479263
 30
0.0
 40
0.8999999999999202
 50
270.0
 51
292.50000000000063
  0
ARC
  5
86E
  8
0
 10
93.142124668227481
 20
61.01178013747937
 30
0.0
 40
0.9000000000000232
 50
292.49999999999881
 51
315.0
  0
ARC
  5
86F
  8
0
 10
93.142124668227197
 20
61.011780137479541
 30
0.0
 40
0.9000000000003595
 50
315.00000000000341
 51
337.4999999999921
  0
ARC
  5
870
  8
0
 10
93.142124668227154
 20
61.011780137479263
 30
0.0
 40
0.9000000000003183
 50
337.50000000000892
 51
0.0000000000016284
  0
ARC
  5
871
  8
0
 10
146.3560472097015
 20
80.123428255355165
 30
0.0
 40
0.9
 50
331.85698697766691
 51
136.14301302233361
  0
ARC
  5
873
  8
0
 10
151.659807664141
 20
72.823428255354543
 30
0.0
 40
0.9
 50
295.85698697766639
 51
100.143013022334
  0
ARC
  5
874
  8
0
 10
152.29440219860871
 20
66.785664573772067
 30
0.0
 40
0.9
 50
271.85698697766622
 51
76.143013022333577
  0
ARC
  5
875
  8
0
 10
152.29440219860871
 20
69.83789570118779
 30
0.0
 40
0.9
 50
283.85698697766639
 51
88.143013022333804
  0
ARC
  5
876
  8
0
 10
150.41835342148451
 20
75.611780137480537
 30
0.0
 40
0.9
 50
307.85698697766639
 51
112.1430130223327
  0
ARC
  5
877
  8
0
 10
148.6242969782015
 20
78.081086990320159
 30
0.0
 40
0.9
 50
319.85698697766679
 51
124.1430130223327
  0
ARC
  5
878
  8
0
 10
123.2543628538525
 20
69.83789570118779
 30
0.0
 40
0.9
 50
91.856986977666196
 51
256.14301302233349
  0
ARC
  5
879
  8
0
 10
123.2543628538525
 20
66.785664573772067
 30
0.0
 40
0.9
 50
103.85698697766639
 51
268.14301302233378
  0
ARC
  5
87A
  8
0
 10
129.19271784275969
 20
80.123428255355165
 30
0.0
 40
0.9
 50
43.856986977666352
 51
208.14301302233309
  0
ARC
  5
87E
  8
0
 10
123.88895738832019
 20
72.823428255354543
 30
0.0
 40
0.9
 50
79.856986977665969
 51
244.14301302233361
  0
ARC
  5
87F
  8
0
 10
125.1304116309766
 20
75.611780137480594
 30
0.0
 40
0.9
 50
67.856986977667262
 51
232.14301302233361
  0
ARC
  5
880
  8
0
 10
126.92446807425971
 20
78.081086990320102
 30
0.0
 40
0.9
 50
55.856986977667262
 51
220.14301302233321
  0
ARC
  5
881
  8
0
 10
134.7388718402911
 20
82.592735108194745
 30
0.0
 40
0.9
 50
19.85698697766691
 51
184.14301302233349
  0
ARC
  5
882
  8
0
 10
140.8098932121701
 20
82.592735108194745
 30
0.0
 40
0.9
 50
355.85698697766651
 51
160.14301302233309
  0
ARC
  5
883
  8
0
 10
143.7127375151378
 20
81.649543819063069
 30
0.0
 40
0.9
 50
343.85698697766679
 51
148.14301302233289
  0
ARC
  5
884
  8
0
 10
137.7743825262306
 20
82.91178013748123
 30
0.0
 40
0.9
 50
7.8569869776665522
 51
172.14301302233341
  0
ARC
  5
885
  8
0
 10
131.83602753732339
 20
81.649543819063069
 30
0.0
 40
0.9
 50
31.856986977667059
 51
196.14301302233309
  0
ARC
  5
886
  8
0
 10
93.142124668229528
 20
80.123428255355122
 30
0.0
 40
0.899999999998954
 50
0.0000000000032569
 51
22.500000000029068
  0
LINE
  5
887
  8
0
 10
99.74212466822722
 20
80.3117801374799
 30
0.0
 11
100.74212466822721
 21
79.3117801374799
 31
0.0
  0
LINE
  5
888
  8
2
 10
101.0421246682273
 20
72.3117801374799
 30
0.0
 11
100.42868966822731
 21
71.698345137479919
 31
0.0
  0
LINE
  5
889
  8
2
 10
100.42868966822719
 20
64.925215137479881
 30
0.0
 11
101.0421246682271
 21
64.3117801374799
 31
0.0
  0
LINE
  5
88B
  8
0
 10
101.0421246682272
 20
75.8117801374799
 30
0.0
 11
100.74212466822721
 21
75.8117801374799
 31
0.0
  0
ARC
  5
88C
  8
0
 10
93.142124668227353
 20
73.01181093101269
 30
0.0
 40
0.9982795723597632
 50
270.00000000000648
 51
290.44267598914769
  0
LINE
  5
88D
  8
2
 10
100.42868966822731
 20
71.698345137479919
 30
0.0
 11
100.42868966822719
 21
64.925215137479881
 31
0.0
  0
ARC
  5
88E
  8
0
 10
93.193151569114704
 20
66.78566457377201
 30
0.0
 40
0.8489730991127598
 50
0.0000000000040711
 51
23.104547864297711
  0
ARC
  5
88F
  8
0
 10
93.16835875700103
 20
66.775087217195605
 30
0.0
 40
0.8759279503393591
 50
23.10454786428231
 51
45.84600258057521
  0
ARC
  5
890
  8
0
 10
93.152424390564519
 20
66.758675204599456
 30
0.0
 40
0.8988027878511251
 50
45.846002580590181
 51
68.092054371724331
  0
ARC
  5
891
  8
0
 10
93.142124668227481
 20
66.733064103900915
 30
0.0
 40
0.9264073664425893
 50
68.092054371720707
 51
90.0
  0
ARC
  5
892
  8
0
 10
93.142604656488444
 20
66.785852948171112
 30
0.0
 40
0.8995574999255365
 50
314.98495087945872
 51
337.48935668795519
  0
ARC
  5
893
  8
0
 10
93.143059193680685
 20
66.785664573772067
 30
0.0
 40
0.8990654745467736
 50
337.48935668794348
 51
0.0
  0
ARC
  5
894
  8
0
 10
93.469173504942347
 20
63.843802975176168
 30
0.0
 40
0.5746130766578292
 50
355.64128173685748
 51
24.716420708124328
  0
ARC
  5
895
  8
0
 10
93.184592830816811
 20
63.712811662862862
 30
0.0
 40
0.8878939155026602
 50
24.71642070885661
 51
48.01641409740671
  0
ARC
  5
896
  8
0
 10
93.176402621787062
 20
63.70371027210939
 30
0.0
 40
0.9001378869824676
 50
48.016414097413069
 51
69.557324010861336
  0
ARC
  5
897
  8
0
 10
93.142124668227353
 20
63.611749343947167
 30
0.0
 40
0.9982795723597632
 50
69.557324010850763
 51
89.999999999993491
  0
ARC
  5
898
  8
0
 10
93.142124668227481
 20
66.786599604191963
 30
0.0
 40
0.9004623724903165
 50
270.0
 51
292.48936064068738
  0
ARC
  5
899
  8
0
 10
93.142312953533576
 20
66.786144804401715
 30
0.0
 40
0.8999701385970451
 50
292.48936064071188
 51
314.98495087945872
  0
ARC
  5
89A
  8
0
 10
93.142124668227481
 20
69.836960670767894
 30
0.0
 40
0.9004623724903165
 50
67.510639359312577
 51
90.0
  0
ARC
  5
89B
  8
0
 10
93.142312953533576
 20
69.837415470558142
 30
0.0
 40
0.8999701385970451
 50
45.015049120541264
 51
67.510639359288078
  0
ARC
  5
89C
  8
0
 10
93.142604656488444
 20
69.837707326788745
 30
0.0
 40
0.8995574999255365
 50
22.510643312044831
 51
45.015049120541264
  0
ARC
  5
89D
  8
0
 10
93.193151569114704
 20
69.837895701187847
 30
0.0
 40
0.8489730991127598
 50
336.89545213570233
 51
359.99999999999591
  0
ARC
  5
89E
  8
0
 10
93.16835875700103
 20
69.848473057764224
 30
0.0
 40
0.8759279503393591
 50
314.1539974194236
 51
336.89545213571768
  0
ARC
  5
89F
  8
0
 10
93.152424390564519
 20
69.864885070360401
 30
0.0
 40
0.8988027878511251
 50
291.90794562827568
 51
314.15399741940922
  0
ARC
  5
8A0
  8
0
 10
93.142124668227481
 20
69.890496171058999
 30
0.0
 40
0.9264073664425893
 50
270.0
 51
291.90794562827932
  0
ARC
  5
8A1
  8
0
 10
93.143059193680685
 20
69.83789570118779
 30
0.0
 40
0.8990654745467736
 50
0.0
 51
22.51064331205648
  0
LINE
  5
8A2
  8
0
 10
95.042124668227459
 20
80.3117801374799
 30
0.0
 11
99.74212466822722
 21
80.3117801374799
 31
0.0
  0
ARC
  5
8A3
  8
0
 10
93.142124668227197
 20
75.611780137480309
 30
0.0
 40
0.9000000000003595
 50
22.500000000007901
 51
44.99999999999654
  0
ARC
  5
8A4
  8
0
 10
93.142124668227154
 20
75.611780137480537
 30
0.0
 40
0.9000000000003183
 50
359.99999999999841
 51
22.499999999991111
  0
ARC
  5
8A5
  8
0
 10
93.594602607263525
 20
75.575347446320279
 30
0.0
 40
0.4490026013644404
 50
332.3174581761271
 51
4.6541753588349142
  0
ARC
  5
8A6
  8
0
 10
93.280436851823424
 20
75.740166061835851
 30
0.0
 40
0.8037775975405092
 50
308.29268093856558
 51
332.31745817546641
  0
ARC
  5
8A7
  8
0
 10
93.210388746004526
 20
75.828885646190145
 30
0.0
 40
0.9168169790710834
 50
288.10982833308333
 51
308.29268093855927
  0
ARC
  5
8A8
  8
0
 10
93.142124668227353
 20
76.037618598271763
 30
0.0
 40
1.1364289769206259
 50
270.00000000000489
 51
288.10982833309032
  0
ARC
  5
8A9
  8
0
 10
93.142124668227481
 20
72.823428255354656
 30
0.0
 40
0.8999999999998676
 50
67.499999999997556
 51
90.0
  0
ARC
  5
8AA
  8
0
 10
93.142124668227595
 20
72.823428255354656
 30
0.0
 40
0.8999999999998223
 50
44.999999999997122
 51
67.500000000004505
  0
ARC
  5
8AB
  8
0
 10
93.142124668227481
 20
72.823428255354543
 30
0.0
 40
0.899999999999988
 50
22.499999999997751
 51
44.999999999997122
  0
ARC
  5
8AC
  8
0
 10
93.142124668227481
 20
72.8234282553546
 30
0.0
 40
0.8999999999999772
 50
359.99999999999432
 51
22.49999999999412
  0
ARC
  5
8AD
  8
0
 10
93.469173504942347
 20
72.779757299783682
 30
0.0
 40
0.5746130766578292
 50
335.2835792918757
 51
4.358718263142447
  0
ARC
  5
8AE
  8
0
 10
93.184592830816811
 20
72.910748612096995
 30
0.0
 40
0.8878939155026602
 50
311.98358590259329
 51
335.28357929114338
  0
ARC
  5
8AF
  8
0
 10
93.176402621787062
 20
72.919850002850467
 30
0.0
 40
0.9001378869824676
 50
290.44267598913871
 51
311.98358590258692
  0
ARC
  5
8B0
  8
0
 10
93.870532612014273
 20
80.104183835275194
 30
0.0
 40
0.1726678356334996
 50
318.71111891194522
 51
6.3991054009160742
  0
ARC
  5
8B1
  8
0
 10
93.487256710223434
 20
80.440768179863497
 30
0.0
 40
0.6827555123279413
 50
295.25203220750183
 51
318.71111891543683
  0
ARC
  5
8B2
  8
0
 10
93.285326298083746
 20
80.868882559039605
 30
0.0
 40
1.1561029671687419
 50
281.05483787543329
 51
295.25203220750359
  0
ARC
  5
8B3
  8
0
 10
93.142124668227424
 20
81.601845014660739
 30
0.0
 40
1.9029233392419931
 50
270.00000000000171
 51
281.05483787543483
  0
ARC
  5
8B4
  8
0
 10
93.142124668227353
 20
78.081086990340964
 30
0.0
 40
0.8999999999791862
 50
67.499999999757733
 51
89.999999999991857
  0
ARC
  5
8B5
  8
0
 10
93.142124668223218
 20
78.081086990330789
 30
0.0
 40
0.8999999999901756
 50
44.999999999664922
 51
67.499999999761371
  0
ARC
  5
8B6
  8
0
 10
93.142124668217022
 20
78.081086990324593
 30
0.0
 40
0.8999999999989379
 50
22.49999999975099
 51
44.999999999664922
  0
ARC
  5
8B7
  8
0
 10
93.736421851470411
 20
78.053230512128494
 30
0.0
 40
0.3069693723241012
 50
327.27955099601598
 51
5.2065695093785269
  0
ARC
  5
8B8
  8
0
 10
93.387402781604735
 20
78.277472718538093
 30
0.0
 40
0.7218173905974572
 50
302.80978216611783
 51
327.27955099335043
  0
ARC
  5
8B9
  8
0
 10
93.248847677320825
 20
78.492387564087664
 30
0.0
 40
0.9775240736558682
 50
284.95152075477438
 51
302.80978216610828
  0
ARC
  5
8BA
  8
0
 10
93.142124668227481
 20
78.892035554638198
 30
0.0
 40
1.391176484528841
 50
270.0
 51
284.95152075476949
  0
ARC
  5
8BB
  8
0
 10
93.142124668227481
 20
75.61178013748065
 30
0.0
 40
0.8999999999999202
 50
67.499999999999361
 51
90.0
  0
ARC
  5
8BC
  8
0
 10
93.142124668227481
 20
75.611780137480537
 30
0.0
 40
0.9000000000000232
 50
45.0
 51
67.50000000000118
  0
ARC
  5
8BD
  8
0
 10
93.142124668206975
 20
78.081086990320159
 30
0.0
 40
0.9000000000099248
 50
359.99999999999591
 51
22.499999999767009
  0
ARC
  5
8BE
  8
0
 10
94.442124668227436
 20
82.461780137479934
 30
0.0
 40
0.6
 50
0.0
 51
90.0
  0
ARC
  5
8BF
  8
0
 10
93.142124668227481
 20
82.592735108194859
 30
0.0
 40
0.8999999999998676
 50
67.499999999997556
 51
90.0
  0
ARC
  5
8C0
  8
0
 10
93.142124668227538
 20
82.592735108194859
 30
0.0
 40
0.8999999999998424
 50
44.999999999998849
 51
67.50000000000118
  0
ARC
  5
8C1
  8
0
 10
93.142124668227424
 20
82.592735108194674
 30
0.0
 40
0.9000000000000206
 50
22.500000000002888
 51
45.0
  0
ARC
  5
8C2
  8
0
 10
93.142124668227481
 20
82.592735108194674
 30
0.0
 40
0.8999999999999772
 50
0.0000000000032569
 51
22.50000000000577
  0
LINE
  5
8C3
  8
0
 10
94.033625936089294
 20
82.578139852906702
 30
0.0
 11
94.042124668227459
 21
82.592735108194745
 31
0.0
  0
LINE
  5
8C4
  8
0
 10
94.029536635694157
 20
83.0617801374799
 30
0.0
 11
94.442124668227436
 21
83.0617801374799
 31
0.0
  0
ARC
  5
8C5
  8
0
 10
93.142124668227481
 20
82.911780137479795
 30
0.0
 40
0.9
 50
7.8569869777447341
 51
90.0
  0
LINE
  5
8C6
  8
0
 10
93.926069144440177
 20
83.03481095939776
 30
0.0
 11
94.033675797922555
 21
83.03481095939776
 31
0.0
  0
ARC
  5
8C7
  8
0
 10
93.327489349981334
 20
88.78973379737505
 30
0.0
 40
6.2592473565342441
 50
271.71408555923608
 51
274.13222416584262
  0
ARC
  5
8C8
  8
0
 10
93.142124668226444
 20
94.983966769037067
 30
0.0
 40
12.45625326039354
 50
270.87591626470987
 51
271.71408555923449
  0
ARC
  5
8C9
  8
0
 10
93.142124668227481
 20
81.649543819085523
 30
0.0
 40
0.89999999997752
 50
67.499999999748965
 51
90.0
  0
ARC
  5
8CA
  8
0
 10
93.142124668222706
 20
81.649543819074538
 30
0.0
 40
0.8999999999894924
 50
44.999999999636131
 51
67.499999999735053
  0
ARC
  5
8CB
  8
0
 10
93.142124668215544
 20
81.649543819067503
 30
0.0
 40
0.8999999999995175
 50
22.49999999974585
 51
44.999999999630369
  0
ARC
  5
8CC
  8
0
 10
93.142124668204232
 20
81.649543819063069
 30
0.0
 40
0.900000000011687
 50
0.0000000000016284
 51
22.4999999997342
  0
ARC
  5
8CD
  8
0
 10
93.973505958127916
 20
81.637931580492307
 30
0.0
 40
0.0695943349617375
 50
303.87100993389919
 51
9.6050754770468476
  0
ARC
  5
8CE
  8
0
 10
93.562174327590625
 20
82.250727160388692
 30
0.0
 40
0.8076404941015379
 50
285.53783733741409
 51
303.87100992358478
  0
ARC
  5
8CF
  8
0
 10
93.313340982057625
 20
83.145695724418303
 30
0.0
 40
1.73655747879414
 50
276.56959561760209
 51
285.53783733741591
  0
ARC
  5
8D0
  8
0
 10
93.142124668227481
 20
84.63238438981125
 30
0.0
 40
3.2330728358584788
 50
270.0
 51
276.56959561758242
  0
ARC
  5
8D1
  8
0
 10
93.142124668227481
 20
80.123428255353247
 30
0.0
 40
0.9000000000019586
 50
67.500000000020549
 51
90.0
  0
ARC
  5
8D2
  8
0
 10
93.142124668227865
 20
80.123428255354213
 30
0.0
 40
0.9000000000009077
 50
45.000000000029942
 51
67.500000000020549
  0
ARC
  5
8D3
  8
0
 10
93.142124668228504
 20
80.123428255354895
 30
0.0
 40
0.8999999999999918
 50
22.500000000017419
 51
45.000000000027633
  0
ARC
  5
8D4
  8
0
 10
93.594263779155185
 20
85.097161053653039
 30
0.0
 40
2.5570504325795751
 50
274.13222416583608
 51
279.89387639011619
  0
ARC
  5
8D5
  8
0
 10
85.613090146576724
 20
63.593121782396047
 30
0.0
 40
1.181176672847581
 50
356.5487937267456
 51
15.935635990930541
  0
LINE
  5
8D6
  8
0
 10
86.042124668227785
 20
83.0617801374799
 30
0.0
 11
86.042124668227459
 21
53.561780137479957
 31
0.0
  0
LINE
  5
8D7
  8
0
 10
84.813247753101308
 20
83.061780137480284
 30
0.0
 11
84.813247753100967
 21
53.5617801374799
 31
0.0
  0
LINE
  5
8D8
  8
0
 10
86.042124668227231
 20
60.8117801374799
 30
0.0
 11
86.042124668227231
 21
68.3117801374799
 31
0.0
  0
LINE
  5
8D9
  8
0
 10
83.042124668227217
 20
61.58903524930264
 30
0.0
 11
83.042124668227245
 21
75.03452502565716
 31
0.0
  0
ARC
  5
8DA
  8
0
 10
132.58811039026619
 20
68.3117801374799
 30
0.0
 40
50.0
 50
187.72710045834859
 51
197.15753737169831
  0
ARC
  5
8DB
  8
0
 10
85.263940301586047
 20
54.151825544017868
 30
0.0
 40
1.528184366641653
 50
357.08152005217448
 51
0.0000000000211698
  0
ARC
  5
8DC
  8
0
 10
85.644925524603806
 20
54.221537566702523
 30
0.0
 40
1.149315292353698
 50
356.52257485374099
 51
16.155276094662678
  0
ARC
  5
8DD
  8
0
 10
85.547438877416809
 20
54.193297577851858
 30
0.0
 40
1.2508098407296919
 50
16.155276094662678
 51
34.967048300902427
  0
ARC
  5
8DE
  8
0
 10
85.888936405506854
 20
54.432124145165169
 30
0.0
 40
0.8340860821722236
 50
34.967048300905361
 51
59.362463446040117
  0
ARC
  5
8DF
  8
0
 10
86.042124668227785
 20
54.690764476747511
 30
0.0
 40
0.5334842442595118
 50
59.362463446040117
 51
90.0
  0
ARC
  5
8E0
  8
0
 10
86.292728551354443
 20
54.498995693762701
 30
0.0
 40
0.2506038831266429
 50
179.99999999998701
 51
216.16683437927591
  0
ARC
  5
8E1
  8
0
 10
86.530604109845555
 20
54.672882922311032
 30
0.0
 40
0.54525885012987
 50
216.1668343792841
 51
240.46241834274511
  0
ARC
  5
8E2
  8
0
 10
86.688391040498558
 20
54.951344050397772
 30
0.0
 40
0.8653171500382438
 50
240.46241834273201
 51
256.79122034156649
  0
ARC
  5
8E3
  8
0
 10
86.792124668227686
 20
55.393309990066257
 30
0.0
 40
1.319293534169498
 50
256.79122034155978
 51
269.91392017447401
  0
ARC
  5
8E4
  8
0
 10
85.743428672791808
 20
53.161248340833481
 30
0.0
 40
1.058237861913101
 50
18.191436852850671
 51
38.426839670175312
  0
ARC
  5
8E5
  8
0
 10
85.955201362757563
 20
53.329258888749102
 30
0.0
 40
0.787913581786011
 50
38.426839670171752
 51
62.4307206443697
  0
ARC
  5
8E6
  8
0
 10
86.042124668227785
 20
53.495745193271318
 30
0.0
 40
0.6001015730450093
 50
62.430720644365692
 51
90.0
  0
ARC
  5
8E7
  8
0
 10
86.517095285450466
 20
53.725118960666009
 30
0.0
 40
0.4749706172226468
 50
179.9999999999967
 51
207.59779544299229
  0
ARC
  5
8E8
  8
0
 10
86.042124668227117
 20
52.864165070696743
 30
0.0
 40
0.7245842448654117
 50
88.411899138176807
 51
89.999999999946255
  0
LINE
  5
8E9
  8
0
 10
86.042124668227785
 20
54.095846766316299
 30
0.0
 11
86.553117111192407
 21
54.095846766316299
 31
0.0
  0
LINE
  5
8EA
  8
0
 10
86.042124668227785
 20
53.5617801374799
 30
0.0
 11
86.093351807801966
 21
53.510552997905791
 31
0.0
  0
LINE
  5
8EB
  8
0
 10
84.813247753101024
 20
53.5617801374799
 30
0.0
 11
86.042124668227785
 21
53.5617801374799
 31
0.0
  0
ARC
  5
8EC
  8
0
 10
86.73592654786755
 20
53.903245312455908
 30
0.0
 40
0.7634333325243713
 50
231.606986112122
 51
251.82916065446321
  0
ARC
  5
8ED
  8
0
 10
86.792124668227686
 20
54.07446651535178
 30
0.0
 40
0.9436413485866808
 50
251.82916065447361
 51
270.0
  0
ARC
  5
8EE
  8
0
 10
86.168964497726208
 20
52.856164424651972
 30
0.0
 40
0.6247387958547617
 50
355.9260150398801
 51
21.793303726059371
  0
ARC
  5
8EF
  8
0
 10
85.964648656293775
 20
52.774471615993441
 30
0.0
 40
0.8447812418663563
 50
21.793303726260309
 51
25.105240465745879
  0
LINE
  5
8F0
  8
0
 10
86.371494711181327
 20
53.232410094526408
 30
0.0
 11
86.792124668227686
 21
52.811780137480007
 31
0.0
  0
ARC
  5
8F1
  8
0
 10
85.888796112358506
 20
53.209018649856368
 30
0.0
 40
0.9052225198381307
 50
356.29300873865662
 51
18.19143685297708
  0
ARC
  5
8F2
  8
0
 10
86.649712584568917
 20
53.794443112033491
 30
0.0
 40
0.6246141469467859
 50
207.5977954429982
 51
231.60698611213289
  0
ARC
  5
8F3
  8
0
 10
84.934310121828034
 20
57.940255738916562
 30
0.0
 40
1.857814546399652
 50
350.77896309601857
 51
0.0000000000056996
  0
ARC
  5
8F4
  8
0
 10
85.411281287534152
 20
58.01987083853998
 30
0.0
 40
1.3831366548874211
 50
356.70015834133068
 51
14.72046285699961
  0
ARC
  5
8F5
  8
0
 10
85.357473230768207
 20
58.005734017316961
 30
0.0
 40
1.4387707872812869
 50
14.72046285699289
 51
32.386086890672587
  0
ARC
  5
8F6
  8
0
 10
85.825346938414356
 20
58.302496355068797
 30
0.0
 40
0.8847187216642574
 50
32.386086890674143
 51
56.853591639630231
  0
ARC
  5
8F7
  8
0
 10
86.042124668227785
 20
58.63444468825633
 30
0.0
 40
0.4882565165941628
 50
56.853591639637912
 51
90.000000000006509
  0
LINE
  5
8F8
  8
0
 10
86.068551616458166
 20
57.754863567649068
 30
0.0
 11
86.042124668227743
 21
57.797597987489333
 31
0.0
  0
ARC
  5
8F9
  8
0
 10
86.422078970272963
 20
58.462854406293502
 30
0.0
 40
0.7913486068097578
 50
243.46526025411291
 51
258.31412609880613
  0
ARC
  5
8FA
  8
0
 10
86.643815728423974
 20
59.534911696707582
 30
0.0
 40
1.886096990615501
 50
258.31412609880772
 51
265.10325536093831
  0
ARC
  5
8FB
  8
0
 10
86.792124668227572
 20
61.266016320848671
 30
0.0
 40
3.6235430362089609
 50
265.10325536093831
 51
269.62038670076288
  0
ARC
  5
8FC
  8
0
 10
86.158864149002085
 20
55.87655738814351
 30
0.0
 40
0.1167394807742909
 50
179.9999999999861
 51
228.33731766155731
  0
ARC
  5
8FD
  8
0
 10
86.457559012929934
 20
56.21224509375498
 30
0.0
 40
0.5660777246792647
 50
228.3373176616156
 51
249.7677701576051
  0
ARC
  5
8FE
  8
0
 10
86.658917515131222
 20
56.758572941481482
 30
0.0
 40
1.148331418192821
 50
249.76777015759461
 51
261.31993096932251
  0
ARC
  5
8FF
  8
0
 10
86.792124668227814
 20
57.63111545804491
 30
0.0
 40
2.0309834384403
 50
261.31993096930108
 51
269.76340735841688
  0
ARC
  5
900
  8
0
 10
85.026875181974944
 20
55.772016724666969
 30
0.0
 40
1.765249486252741
 50
354.41274427596773
 51
0.0000000000081422
  0
ARC
  5
901
  8
0
 10
85.476678424114013
 20
55.848932313385149
 30
0.0
 40
1.317692994950117
 50
356.65366284651247
 51
15.08419472091192
  0
ARC
  5
902
  8
0
 10
85.410827767849966
 20
55.831183928912189
 30
0.0
 40
1.3858935380697031
 50
15.084194720927339
 51
33.051667263159644
  0
ARC
  5
903
  8
0
 10
85.843156149752403
 20
56.11249586086069
 30
0.0
 40
0.8700987796095288
 50
33.051667263157377
 51
57.52016916316353
  0
ARC
  5
904
  8
0
 10
86.042124668227785
 20
56.425056623149537
 30
0.0
 40
0.4995819763915108
 50
57.520169163163963
 51
90.000000000006509
  0
ARC
  5
905
  8
0
 10
86.042124668227558
 20
63.802190236743847
 30
0.0
 40
0.9020582171385752
 50
270.00000000000648
 51
288.95541534688442
  0
ARC
  5
906
  8
0
 10
86.089222645535116
 20
63.665061230373567
 30
0.0
 40
0.7570665489139473
 50
288.95541534687561
 51
309.66483016044498
  0
ARC
  5
907
  8
0
 10
86.161595018599016
 20
63.577779328509557
 30
0.0
 40
0.643682728304926
 50
309.66483016044089
 51
333.4557510072712
  0
ARC
  5
908
  8
0
 10
86.273221527542134
 20
63.522016724667878
 30
0.0
 40
0.5189031406872573
 50
333.45575100728138
 51
0.0
  0
ARC
  5
909
  8
0
 10
85.002376296778536
 20
60.561780137479332
 30
0.0
 40
1.7897483714491489
 50
345.44417464719629
 51
0.0
  0
ARC
  5
90A
  8
0
 10
85.459355136224517
 20
60.639416043585129
 30
0.0
 40
1.3350288234164911
 50
356.6661987816301
 51
14.98530008872037
  0
ARC
  5
90B
  8
0
 10
85.39670737638157
 20
60.62264685276034
 30
0.0
 40
1.399882100698812
 50
14.98530008872115
 51
32.871464106793027
  0
ARC
  5
90C
  8
0
 10
85.838439404898097
 20
60.908104140911007
 30
0.0
 40
0.8739419440500977
 50
32.871464106783542
 51
57.341085210668787
  0
ARC
  5
90D
  8
0
 10
86.042124668227686
 20
61.225877540541489
 30
0.0
 40
0.4964931130671744
 50
57.34108521066922
 51
90.0
  0
LINE
  5
90E
  8
0
 10
86.054903228375665
 20
60.162361402916872
 30
0.0
 11
86.042124668227686
 21
60.17815879943339
 31
0.0
  0
ARC
  5
90F
  8
0
 10
86.412793629931841
 20
61.837331797812787
 30
0.0
 40
1.7127788424965811
 50
257.93899332164852
 51
264.94222233790288
  0
ARC
  5
910
  8
0
 10
86.638084184386386
 20
64.382847342516015
 30
0.0
 40
4.2682445969632727
 50
264.94222233789969
 51
267.90048136382268
  0
ARC
  5
911
  8
0
 10
86.792124668227686
 20
68.584724281976833
 30
0.0
 40
8.4729441444975162
 50
267.90048136384058
 51
269.61154119600712
  0
ARC
  5
913
  8
0
 10
85.410827767849966
 20
80.792376346047703
 30
0.0
 40
1.3858935380697031
 50
326.94833273683969
 51
344.91580527907257
  0
ARC
  5
914
  8
0
 10
132.58811039026619
 20
68.3117801374799
 30
0.0
 40
50.0
 50
162.84246262830081
 51
172.27289954165141
  0
ARC
  5
915
  8
0
 10
86.042124668227686
 20
72.539997570758032
 30
0.0
 40
0.5264662121050776
 50
270.0
 51
301.00134381164457
  0
LINE
  5
916
  8
2
 10
86.042124668227686
 20
72.311780137480127
 30
0.0
 11
86.655559668227667
 21
71.698345137480146
 31
0.0
  0
LINE
  5
918
  8
2
 10
86.655559668227667
 20
71.698345137480146
 30
0.0
 11
86.655559668227554
 21
64.925215137480109
 31
0.0
  0
ARC
  5
919
  8
0
 10
85.847590760892714
 20
66.752072993347213
 30
0.0
 40
0.9464684996243752
 50
356.33601845816219
 51
17.795014000668719
  0
ARC
  5
91A
  8
0
 10
85.710508347551624
 20
66.70807380390147
 30
0.0
 40
1.0904390407753419
 50
17.79501400047122
 51
37.77165478691601
  0
ARC
  5
91B
  8
0
 10
85.944012405909945
 20
66.889013165160804
 30
0.0
 40
0.7950355917048146
 50
37.7716547869043
 51
61.873412843943527
  0
ARC
  5
91C
  8
0
 10
86.042124668227629
 20
67.072556067591506
 30
0.0
 40
0.5869154027519699
 50
61.87341284393807
 51
90.0
  0
ARC
  5
91D
  8
0
 10
85.983796200113019
 20
66.670180642777325
 30
0.0
 40
0.8043429936081235
 50
317.04172513143578
 51
338.90853144161719
  0
ARC
  5
91E
  8
0
 10
85.928290650791311
 20
66.691588956831197
 30
0.0
 40
0.8638340174363747
 50
338.90853144163401
 51
0.0
  0
ARC
  5
91F
  8
0
 10
86.042124668227686
 20
66.585805615425784
 30
0.0
 40
0.6996683837241263
 50
270.0
 51
293.98134955930112
  0
ARC
  5
920
  8
0
 10
85.521667651725636
 20
63.567017913180841
 30
0.0
 40
1.2762528767726491
 50
15.935635990934911
 51
34.579680766966888
  0
ARC
  5
921
  8
0
 10
85.880278044446285
 20
63.814218998432857
 30
0.0
 40
0.8406960029696426
 50
34.579680766963278
 51
58.998656188347717
  0
ARC
  5
922
  8
0
 10
86.042124668227686
 20
64.083562704201825
 30
0.0
 40
0.5264662121050776
 50
58.998656188355412
 51
90.0
  0
LINE
  5
923
  8
2
 10
86.655559668227554
 20
64.925215137480109
 30
0.0
 11
86.042124668227558
 21
64.311780137480127
 31
0.0
  0
ARC
  5
924
  8
0
 10
86.019295810412686
 20
66.637125020827455
 30
0.0
 40
0.7558363293863835
 50
293.98134955927969
 51
317.04172513143578
  0
ARC
  5
925
  8
0
 10
86.042124668227686
 20
70.037754659534073
 30
0.0
 40
0.6996683837241263
 50
66.018650440698821
 51
90.0
  0
ARC
  5
926
  8
0
 10
86.019295810412686
 20
69.986435254132402
 30
0.0
 40
0.7558363293863835
 50
42.95827486856421
 51
66.018650440720322
  0
ARC
  5
927
  8
0
 10
85.983796200113019
 20
69.953379632182532
 30
0.0
 40
0.8043429936081235
 50
21.0914685583828
 51
42.95827486856421
  0
ARC
  5
928
  8
0
 10
85.847590760892714
 20
69.871487281612644
 30
0.0
 40
0.9464684996243752
 50
342.2049859993312
 51
3.663981541837718
  0
ARC
  5
929
  8
0
 10
85.710508347551624
 20
69.915486471058387
 30
0.0
 40
1.0904390407753419
 50
322.22834521308403
 51
342.20498599952879
  0
ARC
  5
92A
  8
0
 10
85.944012405909945
 20
69.734547109798996
 30
0.0
 40
0.7950355917048146
 50
298.12658715605647
 51
322.22834521309568
  0
ARC
  5
92B
  8
0
 10
86.042124668227629
 20
69.551004207368351
 30
0.0
 40
0.5869154027519699
 50
270.0
 51
298.12658715606187
  0
ARC
  5
92C
  8
0
 10
85.928290650791311
 20
69.93197131812866
 30
0.0
 40
0.8638340174363747
 50
0.0
 51
21.091468558366021
  0
ARC
  5
92D
  8
0
 10
85.002376296778536
 20
76.061780137480525
 30
0.0
 40
1.7897483714491489
 50
0.0
 51
14.55582535280363
  0
ARC
  5
92E
  8
0
 10
85.459355136224517
 20
75.984144231374671
 30
0.0
 40
1.3350288234164911
 50
345.01469991127971
 51
3.333801218369902
  0
ARC
  5
92F
  8
0
 10
85.39670737638157
 20
76.000913422199517
 30
0.0
 40
1.399882100698812
 50
327.12853589320611
 51
345.01469991127891
  0
ARC
  5
930
  8
0
 10
85.838439404898097
 20
75.71545613404885
 30
0.0
 40
0.8739419440500977
 50
302.65891478933122
 51
327.12853589321651
  0
ARC
  5
931
  8
0
 10
86.042124668227686
 20
75.397682734418353
 30
0.0
 40
0.4964931130671744
 50
270.0
 51
302.65891478933082
  0
ARC
  5
933
  8
0
 10
86.042124668227558
 20
72.821370038216003
 30
0.0
 40
0.9020582171385752
 50
71.044584653115606
 51
89.999999999991857
  0
ARC
  5
934
  8
0
 10
86.089222645535116
 20
72.95849904458629
 30
0.0
 40
0.7570665489139473
 50
50.335169839555043
 51
71.04458465312436
  0
ARC
  5
935
  8
0
 10
86.161595018599016
 20
73.045780946450293
 30
0.0
 40
0.643682728304926
 50
26.544248992728811
 51
50.335169839559107
  0
ARC
  5
936
  8
0
 10
86.273221527542134
 20
73.101543550291964
 30
0.0
 40
0.5189031406872573
 50
0.0
 51
26.544248992718622
  0
ARC
  5
937
  8
0
 10
85.613090146576724
 20
73.030438492563803
 30
0.0
 40
1.181176672847581
 50
344.06436400906938
 51
3.451206273254432
  0
ARC
  5
938
  8
0
 10
85.521667651725636
 20
73.056542361778995
 30
0.0
 40
1.2762528767726491
 50
325.42031923303313
 51
344.06436400906432
  0
ARC
  5
939
  8
0
 10
85.880278044446285
 20
72.809341276526993
 30
0.0
 40
0.8406960029696426
 50
301.00134381165219
 51
325.42031923303671
  0
ARC
  5
93A
  8
0
 10
85.843156149752403
 20
80.511064414099167
 30
0.0
 40
0.8700987796095288
 50
302.47983083683653
 51
326.94833273684259
  0
ARC
  5
93B
  8
0
 10
86.042124668227785
 20
80.198503651810256
 30
0.0
 40
0.4995819763915108
 50
269.99999999999352
 51
302.47983083683607
  0
LINE
  5
93C
  8
0
 10
86.068551616458166
 20
78.868696707310789
 30
0.0
 11
86.042124668227743
 21
78.825962287470531
 31
0.0
  0
ARC
  5
93D
  8
0
 10
86.422078970272963
 20
78.160705868666355
 30
0.0
 40
0.7913486068097578
 50
101.6858739011939
 51
116.53473974588709
  0
ARC
  5
93E
  8
0
 10
86.643815728423974
 20
77.088648578252275
 30
0.0
 40
1.886096990615501
 50
94.896744639061666
 51
101.68587390119229
  0
ARC
  5
93F
  8
0
 10
86.792124668227572
 20
75.357543954111165
 30
0.0
 40
3.6235430362089609
 50
90.379613299237064
 51
94.896744639061666
  0
ARC
  5
940
  8
0
 10
84.934310121828034
 20
78.683304536043352
 30
0.0
 40
1.857814546399652
 50
359.99999999999352
 51
9.2210369039814495
  0
ARC
  5
941
  8
0
 10
85.357473230768207
 20
78.617826257642889
 30
0.0
 40
1.4387707872812869
 50
327.61391310932743
 51
345.27953714300708
  0
ARC
  5
942
  8
0
 10
85.825346938414356
 20
78.32106391989106
 30
0.0
 40
0.8847187216642574
 50
303.14640836036978
 51
327.61391310932589
  0
ARC
  5
943
  8
0
 10
86.042124668227785
 20
77.98911558670352
 30
0.0
 40
0.4882565165941628
 50
269.99999999999352
 51
303.1464083603621
  0
LINE
  5
944
  8
0
 10
86.054903228375665
 20
76.461198872042985
 30
0.0
 11
86.042124668227686
 21
76.445401475526467
 31
0.0
  0
ARC
  5
945
  8
0
 10
86.412793629931841
 20
74.786228477147006
 30
0.0
 40
1.7127788424965811
 50
95.057777662097095
 51
102.0610066783515
  0
ARC
  5
946
  8
0
 10
86.638084184386386
 20
72.240712932443842
 30
0.0
 40
4.2682445969632727
 50
92.099518636177365
 51
95.057777662100335
  0
ARC
  5
947
  8
0
 10
86.792124668227686
 20
68.038835992983024
 30
0.0
 40
8.4729441444975162
 50
90.388458803992933
 51
92.099518636159445
  0
ARC
  5
948
  8
0
 10
85.411281287534152
 20
78.603689436419927
 30
0.0
 40
1.3831366548874211
 50
345.27953714300043
 51
3.2998416586692478
  0
ARC
  5
949
  8
0
 10
86.168964497726208
 20
83.767395850307935
 30
0.0
 40
0.6247387958547617
 50
338.20669627394062
 51
4.0739849601189873
  0
ARC
  5
94A
  8
0
 10
85.964648656293775
 20
83.849088658966423
 30
0.0
 40
0.8447812418663563
 50
334.89475953425341
 51
338.20669627373968
  0
ARC
  5
94B
  8
0
 10
86.042124668227117
 20
83.759395204263114
 30
0.0
 40
0.7245842448654117
 50
270.00000000005372
 51
271.58810086182319
  0
ARC
  5
94C
  8
0
 10
86.517095285450466
 20
82.898441314293905
 30
0.0
 40
0.4749706172226468
 50
152.40220455700771
 51
180.00000000000321
  0
ARC
  5
94D
  8
0
 10
86.649712584568917
 20
82.829117162926437
 30
0.0
 40
0.6246141469467859
 50
128.39301388786711
 51
152.40220455700111
  0
ARC
  5
94E
  8
0
 10
86.73592654786755
 20
82.720314962503949
 30
0.0
 40
0.7634333325243713
 50
108.17083934553671
 51
128.393013887878
  0
ARC
  5
94F
  8
0
 10
86.792124668227686
 20
82.549093759608127
 30
0.0
 40
0.9436413485866808
 50
90.0
 51
108.1708393455264
  0
ARC
  5
950
  8
0
 10
85.888796112358506
 20
83.414541625103539
 30
0.0
 40
0.9052225198381307
 50
341.80856314702288
 51
3.7069912613433922
  0
ARC
  5
951
  8
0
 10
85.743428672791808
 20
83.462311934126319
 30
0.0
 40
1.058237861913101
 50
321.5731603298247
 51
341.8085631471493
  0
ARC
  5
952
  8
0
 10
85.955201362757563
 20
83.294301386210748
 30
0.0
 40
0.787913581786011
 50
297.56927935563027
 51
321.57316032982828
  0
LINE
  5
953
  8
0
 10
84.813247753101024
 20
83.0617801374799
 30
0.0
 11
86.042124668227785
 21
83.0617801374799
 31
0.0
  0
LINE
  5
954
  8
0
 10
86.042124668227785
 20
83.0617801374799
 30
0.0
 11
86.093351807801966
 21
83.113007277054066
 31
0.0
  0
LINE
  5
955
  8
0
 10
86.371494711181327
 20
83.391150180433442
 30
0.0
 11
86.792124668227686
 21
83.811780137479843
 31
0.0
  0
ARC
  5
956
  8
0
 10
86.292728551354443
 20
82.124564581197149
 30
0.0
 40
0.2506038831266429
 50
143.83316562072409
 51
180.00000000001299
  0
ARC
  5
957
  8
0
 10
86.530604109845555
 20
81.950677352648825
 30
0.0
 40
0.54525885012987
 50
119.5375816572549
 51
143.8331656207159
  0
ARC
  5
958
  8
0
 10
86.688391040498558
 20
81.672216224562078
 30
0.0
 40
0.8653171500382438
 50
103.2087796584335
 51
119.53758165726801
  0
ARC
  5
959
  8
0
 10
86.792124668227686
 20
81.2302502848936
 30
0.0
 40
1.319293534169498
 50
90.086079825525957
 51
103.20877965844021
  0
ARC
  5
95A
  8
0
 10
85.263940301586047
 20
82.471734730941975
 30
0.0
 40
1.528184366641653
 50
359.99999999997891
 51
2.9184799478254231
  0
ARC
  5
95B
  8
0
 10
85.644925524603806
 20
82.402022708257334
 30
0.0
 40
1.149315292353698
 50
343.84472390533739
 51
3.4774251462590069
  0
ARC
  5
95C
  8
0
 10
85.547438877416809
 20
82.430262697107992
 30
0.0
 40
1.2508098407296919
 50
325.03295169909762
 51
343.84472390533739
  0
ARC
  5
95D
  8
0
 10
85.888936405506854
 20
82.191436129794681
 30
0.0
 40
0.8340860821722236
 50
300.63753655395988
 51
325.03295169909472
  0
ARC
  5
95E
  8
0
 10
86.042124668227785
 20
81.932795798212268
 30
0.0
 40
0.5334842442595118
 50
270.0
 51
300.63753655395988
  0
ARC
  5
95F
  8
0
 10
85.026875181974944
 20
80.851543550292945
 30
0.0
 40
1.765249486252741
 50
359.99999999999193
 51
5.5872557240322536
  0
ARC
  5
960
  8
0
 10
85.476678424114013
 20
80.774627961574708
 30
0.0
 40
1.317692994950117
 50
344.91580527908809
 51
3.3463371534874891
  0
ARC
  5
961
  8
0
 10
86.158864149002085
 20
80.747002886816404
 30
0.0
 40
0.1167394807742909
 50
131.66268233844261
 51
180.00000000001381
  0
ARC
  5
962
  8
0
 10
86.457559012929934
 20
80.411315181204827
 30
0.0
 40
0.5660777246792647
 50
110.2322298423948
 51
131.6626823383844
  0
ARC
  5
963
  8
0
 10
86.658917515131222
 20
79.864987333478382
 30
0.0
 40
1.148331418192821
 50
98.680069030677515
 51
110.2322298424054
  0
ARC
  5
964
  8
0
 10
86.792124668227814
 20
78.99244481691494
 30
0.0
 40
2.0309834384403
 50
90.236592641581467
 51
98.680069030698931
  0
LINE
  5
965
  8
0
 10
86.042124668227785
 20
82.527713508643544
 30
0.0
 11
86.553117111192407
 21
82.527713508643544
 31
0.0
  0
ARC
  5
966
  8
0
 10
86.042124668227785
 20
83.127815081688595
 30
0.0
 40
0.6001015730450093
 50
270.0
 51
297.56927935563431
  0
LINE
  5
967
  8
2
 10
86.042124668227714
 20
75.8117801374799
 30
0.0
 11
86.042124668227544
 21
60.8117801374799
 31
0.0
  0
CIRCLE
  5
96B
  8
0
 10
137.7743825262306
 20
68.3117801374799
 30
0.0
 40
3.3865650000001031
  0
CIRCLE
  5
96C
  8
3
 10
137.7743825262306
 20
68.3117801374799
 30
0.0
 40
4.0000000000000853
  0
LINE
  5
96F
  8
1
 10
137.7743825262306
 20
88.0617801374799
 30
0.0
 11
137.7743825262306
 21
48.5617801374799
 31
0.0
  0
LINE
  5
970
  8
1
 10
157.5243825262306
 20
68.3117801374799
 30
0.0
 11
118.0243825262306
 21
68.3117801374799
 31
0.0
  0
LINE
  5
973
  8
2
 10
83.042124668227245
 20
75.034525025657075
 30
0.0
 11
86.042124668227629
 21
74.8117801374799
 31
0.0
  0
LINE
  5
974
  8
2
 10
83.042124668227245
 20
61.589035249302732
 30
0.0
 11
86.042124668227629
 21
61.8117801374799
 31
0.0
  0
LINE
  5
976
  8
1
 10
26.55986681022387
 20
68.3117801374799
 30
0.0
 11
66.059866810223866
 21
68.3117801374799
 31
0.0
  0
LINE
  5
977
  8
1
 10
46.309866810223859
 20
88.0617801374799
 30
0.0
 11
46.309866810223859
 21
48.5617801374799
 31
0.0
  0
ARC
  5
978
  8
0
 10
60.19529194813429
 20
72.823428255354543
 30
0.0
 40
0.9
 50
295.85698697766639
 51
100.143013022334
  0
CIRCLE
  5
979
  8
0
 10
46.309866810223859
 20
68.3117801374799
 30
0.0
 40
14.75
  0
CIRCLE
  5
97A
  8
0
 10
46.309866810223859
 20
68.3117801374799
 30
0.0
 40
6.5
  0
ARC
  5
97B
  8
0
 10
54.891531493694742
 20
56.500132019604678
 30
0.0
 40
0.9
 50
223.85698697766639
 51
28.143013022333111
  0
ARC
  5
97C
  8
0
 10
58.953837705477781
 20
61.011780137479263
 30
0.0
 40
0.9
 50
247.8569869776673
 51
52.143013022333598
  0
ARC
  5
97D
  8
0
 10
57.15978126219477
 20
58.542473284639748
 30
0.0
 40
0.9
 50
235.8569869776673
 51
40.143013022332539
  0
ARC
  5
97E
  8
0
 10
60.829886482601921
 20
66.785664573772067
 30
0.0
 40
0.9
 50
271.85698697766622
 51
76.143013022333591
  0
ARC
  5
97F
  8
0
 10
60.19529194813429
 20
63.800132019605257
 30
0.0
 40
0.9
 50
259.856986977666
 51
64.143013022333605
  0
ARC
  5
980
  8
0
 10
60.829886482601921
 20
69.83789570118779
 30
0.0
 40
0.9
 50
283.85698697766639
 51
88.143013022333804
  0
ARC
  5
981
  8
0
 10
49.345377496163387
 20
54.030825166765112
 30
0.0
 40
0.9
 50
199.85698697766679
 51
4.1430130223335331
  0
ARC
  5
982
  8
0
 10
52.248221799131038
 20
54.974016455896731
 30
0.0
 40
0.9
 50
211.85698697766711
 51
16.143013022333172
  0
ARC
  5
983
  8
0
 10
46.309866810223859
 20
53.71178013747862
 30
0.0
 40
0.9
 50
187.85698697766659
 51
352.14301302233338
  0
ARC
  5
984
  8
0
 10
43.274356124284331
 20
54.030825166765112
 30
0.0
 40
0.9
 50
175.85698697766639
 51
340.14301302233309
  0
CIRCLE
  5
985
  8
3
 10
46.309866810223859
 20
68.3117801374799
 30
0.0
 40
4.0000000000000853
  0
CIRCLE
  5
986
  8
0
 10
46.309866810223859
 20
68.3117801374799
 30
0.0
 40
3.3865650000001031
  0
ARC
  5
987
  8
0
 10
37.728202126753047
 20
56.500132019604678
 30
0.0
 40
0.9
 50
151.85698697766691
 51
316.14301302233372
  0
ARC
  5
988
  8
0
 10
40.37151182131668
 20
54.974016455896788
 30
0.0
 40
0.9
 50
163.85698697766679
 51
328.14301302233292
  0
ARC
  5
989
  8
0
 10
35.45995235825297
 20
58.542473284639748
 30
0.0
 40
0.9
 50
139.85698697766679
 51
304.14301302233281
  0
ARC
  5
98A
  8
0
 10
33.665895914969951
 20
61.011780137479263
 30
0.0
 40
0.9
 50
127.85698697766639
 51
292.1430130223327
  0
ARC
  5
98B
  8
0
 10
54.891531493694742
 20
80.123428255355165
 30
0.0
 40
0.9
 50
331.85698697766691
 51
136.14301302233361
  0
ARC
  5
98C
  8
0
 10
57.15978126219477
 20
78.081086990320102
 30
0.0
 40
0.9
 50
319.85698697766679
 51
124.1430130223327
  0
ARC
  5
98D
  8
0
 10
58.953837705477838
 20
75.611780137480594
 30
0.0
 40
0.9
 50
307.85698697766639
 51
112.1430130223327
  0
ARC
  5
98E
  8
0
 10
46.309866810223859
 20
82.91178013748123
 30
0.0
 40
0.9
 50
7.8569869776665469
 51
172.14301302233341
  0
ARC
  5
98F
  8
0
 10
43.274356124284331
 20
82.592735108194745
 30
0.0
 40
0.9
 50
19.856986977666921
 51
184.14301302233349
  0
ARC
  5
990
  8
0
 10
49.345377496163387
 20
82.592735108194745
 30
0.0
 40
0.9
 50
355.85698697766651
 51
160.14301302233309
  0
ARC
  5
991
  8
0
 10
52.248221799131038
 20
81.649543819063069
 30
0.0
 40
0.9
 50
343.85698697766691
 51
148.14301302233289
  0
ARC
  5
992
  8
0
 10
35.45995235825297
 20
78.081086990320159
 30
0.0
 40
0.9
 50
55.856986977667262
 51
220.14301302233321
  0
ARC
  5
993
  8
0
 10
37.72820212675299
 20
80.123428255355165
 30
0.0
 40
0.9
 50
43.856986977666359
 51
208.14301302233309
  0
ARC
  5
994
  8
0
 10
40.37151182131668
 20
81.649543819063069
 30
0.0
 40
0.9
 50
31.85698697766707
 51
196.14301302233321
  0
ARC
  5
995
  8
0
 10
33.665895914969951
 20
75.611780137480537
 30
0.0
 40
0.9
 50
67.856986977667276
 51
232.14301302233361
  0
ARC
  5
996
  8
0
 10
32.424441672313442
 20
72.823428255354543
 30
0.0
 40
0.9
 50
79.856986977665983
 51
244.14301302233361
  0
ARC
  5
997
  8
0
 10
31.789847137845811
 20
66.785664573772067
 30
0.0
 40
0.9
 50
103.85698697766639
 51
268.14301302233378
  0
ARC
  5
998
  8
0
 10
32.424441672313442
 20
63.800132019605307
 30
0.0
 40
0.9
 50
115.85698697766639
 51
280.143013022334
  0
ARC
  5
999
  8
0
 10
31.789847137845811
 20
69.83789570118779
 30
0.0
 40
0.9
 50
91.856986977666196
 51
256.14301302233361
  0
CIRCLE
  5
99D
  8
0
 10
137.7743825262306
 20
68.3117801374799
 30
0.0
 40
7.4999999999999849
  0
CIRCLE
  5
99E
  8
0
 10
137.7743825262306
 20
68.3117801374799
 30
0.0
 40
11.0
  0
CIRCLE
  5
99F
  8
0
 10
137.7743825262306
 20
68.3117801374799
 30
0.0
 40
12.00000000000005
  0
TEXT
  5
A6E
  8
0
 62
     3
 10
0.0
 20
0.0
 30
0.0
 40
10.0
  1
KN30T
  7
STANDARD1
  0
ENDSEC
  0
EOF
