  0
SECTION
  2
HEADER
  9
$ACADVER
  1
AC1009
  9
$INSBASE
 10
0.0
 20
0.0
 30
0.0
  9
$EXTMIN
 10
0.0
 20
-2.960436562073669
 30
0.0
  9
$EXTMAX
 10
163.0
 20
83.000000000000014
 30
0.0
  9
$LIMMIN
 10
0.0
 20
0.0
  9
$LIMMAX
 10
187.5
 20
135.0
  9
$ORTHOMODE
 70
     1
  9
$REGENMODE
 70
     1
  9
$FILLMODE
 70
     1
  9
$QTEXTMODE
 70
     0
  9
$MIRRTEXT
 70
     0
  9
$DRAGMODE
 70
     2
  9
$LTSCALE
 40
5.0
  9
$OSMODE
 70
    37
  9
$ATTMODE
 70
     1
  9
$TEXTSIZE
 40
4.000000000000048
  9
$TRACEWID
 40
0.05
  9
$TEXTSTYLE
  7
STANDARD
  9
$CLAYER
  8
0
  9
$CELTYPE
  6
BYLAYER
  9
$CECOLOR
 62
   256
  9
$DIMSCALE
 40
0.5
  9
$DIMASZ
 40
3.0
  9
$DIMEXO
 40
2.0
  9
$DIMDLI
 40
0.38
  9
$DIMRND
 40
0.0
  9
$DIMDLE
 40
0.0
  9
$DIMEXE
 40
2.0
  9
$DIMTP
 40
0.0
  9
$DIMTM
 40
0.0
  9
$DIMTXT
 40
3.2000000000000002
  9
$DIMCEN
 40
0.0
  9
$DIMTSZ
 40
0.0
  9
$DIMTOL
 70
     0
  9
$DIMLIM
 70
     0
  9
$DIMTIH
 70
     0
  9
$DIMTOH
 70
     0
  9
$DIMSE1
 70
     0
  9
$DIMSE2
 70
     0
  9
$DIMTAD
 70
     1
  9
$DIMZIN
 70
     0
  9
$DIMBLK
  1

  9
$DIMASO
 70
     1
  9
$DIMSHO
 70
     0
  9
$DIMPOST
  1

  9
$DIMAPOST
  1

  9
$DIMALT
 70
     0
  9
$DIMALTD
 70
     2
  9
$DIMALTF
 40
25.399999999999999
  9
$DIMLFAC
 40
1.0
  9
$DIMTOFL
 70
     1
  9
$DIMTVP
 40
1.6000000000000001
  9
$DIMTIX
 70
     1
  9
$DIMSOXD
 70
     0
  9
$DIMSAH
 70
     0
  9
$DIMBLK1
  1

  9
$DIMBLK2
  1

  9
$DIMSTYLE
  2
STANDARD
  9
$DIMCLRD
 70
     0
  9
$DIMCLRE
 70
     0
  9
$DIMCLRT
 70
     0
  9
$DIMTFAC
 40
1.0
  9
$DIMGAP
 40
0.09
  9
$LUNITS
 70
     2
  9
$LUPREC
 70
     4
  9
$SKETCHINC
 40
0.1
  9
$FILLETRAD
 40
0.0
  9
$AUNITS
 70
     0
  9
$AUPREC
 70
     4
  9
$MENU
  1
E:\r13\win\SUPPORT\ACAD
  9
$ELEVATION
 40
0.0
  9
$PELEVATION
 40
0.0
  9
$THICKNESS
 40
0.0
  9
$LIMCHECK
 70
     0
  9
$BLIPMODE
 70
     0
  9
$CHAMFERA
 40
0.0
  9
$CHAMFERB
 40
0.0
  9
$SKPOLY
 70
     0
  9
$TDCREATE
 40
2449839.7858912032
  9
$TDUPDATE
 40
2457179.3854895839
  9
$TDINDWG
 40
0.0267763194
  9
$TDUSRTIMER
 40
0.0267763194
  9
$USRTIMER
 70
     1
  9
$ANGBASE
 50
0.0
  9
$ANGDIR
 70
     0
  9
$PDMODE
 70
     0
  9
$PDSIZE
 40
0.0
  9
$PLINEWID
 40
0.0
  9
$COORDS
 70
     1
  9
$SPLFRAME
 70
     0
  9
$SPLINETYPE
 70
     6
  9
$SPLINESEGS
 70
     8
  9
$ATTDIA
 70
     0
  9
$ATTREQ
 70
     1
  9
$HANDLING
 70
     1
  9
$HANDSEED
  5
CD6
  9
$SURFTAB1
 70
     6
  9
$SURFTAB2
 70
     6
  9
$SURFTYPE
 70
     6
  9
$SURFU
 70
     6
  9
$SURFV
 70
     6
  9
$UCSNAME
  2

  9
$UCSORG
 10
0.0
 20
0.0
 30
0.0
  9
$UCSXDIR
 10
1.0
 20
0.0
 30
0.0
  9
$UCSYDIR
 10
0.0
 20
1.0
 30
0.0
  9
$PUCSNAME
  2

  9
$PUCSORG
 10
0.0
 20
0.0
 30
0.0
  9
$PUCSXDIR
 10
1.0
 20
0.0
 30
0.0
  9
$PUCSYDIR
 10
0.0
 20
1.0
 30
0.0
  9
$USERI1
 70
     0
  9
$USERI2
 70
     1
  9
$USERI3
 70
     1
  9
$USERI4
 70
     0
  9
$USERI5
 70
     0
  9
$USERR1
 40
0.0
  9
$USERR2
 40
0.0
  9
$USERR3
 40
0.0
  9
$USERR4
 40
0.0
  9
$USERR5
 40
0.0
  9
$WORLDVIEW
 70
     1
  9
$SHADEDGE
 70
     3
  9
$SHADEDIF
 70
    70
  9
$TILEMODE
 70
     1
  9
$MAXACTVP
 70
    16
  9
$PLIMCHECK
 70
     0
  9
$PEXTMIN
 10
1.0000000000000000E+020
 20
1.0000000000000000E+020
 30
1.0000000000000000E+020
  9
$PEXTMAX
 10
-1.0000000000000000E+020
 20
-1.0000000000000000E+020
 30
-1.0000000000000000E+020
  9
$PLIMMIN
 10
0.0
 20
0.0
  9
$PLIMMAX
 10
12.0
 20
9.0
  9
$UNITMODE
 70
     0
  9
$VISRETAIN
 70
     0
  9
$PLINEGEN
 70
     0
  9
$PSLTSCALE
 70
     0
  0
ENDSEC
  0
SECTION
  2
TABLES
  0
TABLE
  2
VPORT
 70
     1
  0
VPORT
  2
*ACTIVE
 70
     0
 10
0.0
 20
0.0
 11
1.0
 21
1.0
 12
172.54273504273499
 22
95.0
 13
0.0
 23
0.0
 14
5.0
 24
5.0
 15
5.0
 25
5.0
 16
0.0
 26
0.0
 36
1.0
 17
0.0
 27
0.0
 37
0.0
 40
190.0
 41
1.816239316239316
 42
50.0
 43
0.0
 44
0.0
 50
0.0
 51
0.0
 71
     0
 72
   500
 73
     1
 74
     0
 75
     0
 76
     0
 77
     0
 78
     2
  0
ENDTAB
  0
TABLE
  2
LTYPE
 70
     4
  0
LTYPE
  2
CONTINUOUS
 70
     0
  3
Solid Line
 72
    65
 73
     0
 40
0.0
  0
LTYPE
  2
CENTER
 70
     0
  3
____ _ ____ _ ____ _ ____ _ ____ _ ____ _ ____
 72
    65
 73
     4
 40
2.0
 49
1.25
 49
-0.25
 49
0.25
 49
-0.25
  0
LTYPE
  2
HIDDEN
 70
     0
  3
_ _ _ _ _ _ _ _ _ _ _ _ _ _ _ _ _ _ _ _ _ _ _
 72
    65
 73
     2
 40
0.375
 49
0.25
 49
-0.125
  0
LTYPE
  2
PHANTOM2
 70
     0
  3
___ _ _ ___ _ _ ___ _ _ ___ _ _
 72
    65
 73
     6
 40
1.25
 49
0.625
 49
-0.125
 49
0.125
 49
-0.125
 49
0.125
 49
-0.125
  0
ENDTAB
  0
TABLE
  2
LAYER
 70
     4
  0
LAYER
  2
0
 70
     0
 62
     7
  6
CONTINUOUS
  0
LAYER
  2
1
 70
     0
 62
     1
  6
CENTER
  0
LAYER
  2
3
 70
     0
 62
     3
  6
CONTINUOUS
  0
LAYER
  2
2
 70
     0
 62
     2
  6
HIDDEN
  0
ENDTAB
  0
TABLE
  2
STYLE
 70
     2
  0
STYLE
  2
STANDARD
 70
     0
 40
0.0
 41
1.0
 50
0.0
 71
     0
 42
4.000000000000048
  3
TXT
  4
BIGFONT
  0
STYLE
  2
STANDARD1
 70
     0
 40
0.0
 41
1.0
 50
0.0
 71
     0
 42
3.0
  3
txt
  4

  0
ENDTAB
  0
TABLE
  2
VIEW
 70
     1
  0
VIEW
  2
ALL
 70
     0
 40
135.0
 10
110.4957983193277
 20
67.5
 41
0.0
 11
0.0
 21
0.0
 31
1.0
 12
0.0
 22
0.0
 32
0.0
 42
0.0
 43
0.0
 44
0.0
 50
0.0
 71
     0
  0
ENDTAB
  0
TABLE
  2
UCS
 70
     0
  0
ENDTAB
  0
TABLE
  2
APPID
 70
     4
  0
APPID
  2
ACAD
 70
     0
  0
APPID
  2
ACAD_MLEADERVER
 70
     0
  0
APPID
  2
ACAD_EXEMPT_FROM_CAD_STANDARDS
 70
     0
  0
APPID
  2
ACAD_NAV_VCDISPLAY
 70
     0
  0
ENDTAB
  0
TABLE
  2
DIMSTYLE
 70
     1
  0
DIMSTYLE
  2
STANDARD
 70
     0
  3

  4

  5

  6

  7

 40
1.0
 41
0.18
 42
0.0625
 43
0.38
 44
0.18
 45
0.0
 46
0.0
 47
0.0
 48
0.0
140
0.18
141
0.09
142
0.0
143
25.399999999999999
144
1.0
145
0.0
146
1.0
147
0.09
 71
     0
 72
     0
 73
     1
 74
     1
 75
     0
 76
     0
 77
     0
 78
     0
170
     0
171
     2
172
     0
173
     0
174
     0
175
     0
176
     0
177
     0
178
     0
  0
ENDTAB
  0
ENDSEC
  0
SECTION
  2
BLOCKS
  0
BLOCK
  8
0
  2
$MODEL_SPACE
 70
     0
 10
0.0
 20
0.0
 30
0.0
  3
$MODEL_SPACE
  1

  0
ENDBLK
  5
686
  8
0
  0
BLOCK
 67
     1
  8
0
  2
$PAPER_SPACE
 70
     0
 10
0.0
 20
0.0
 30
0.0
  3
$PAPER_SPACE
  1

  0
ENDBLK
  5
684
 67
     1
  8
0
  0
ENDSEC
  0
SECTION
  2
ENTITIES
  0
TEXT
  5
772
  8
0
 62
     3
 10
0.0
 20
0.0
 30
0.0
 40
10.0
  1
KN30
  7
STANDARD1
  0
LINE
  5
A02
  8
1
 10
45.0
 20
83.0
 30
0.0
 11
45.0
 21
47.0
 31
0.0
  0
LINE
  5
A03
  8
1
 10
63.0
 20
65.0
 30
0.0
 11
27.0
 21
65.0
 31
0.0
  0
CIRCLE
  5
A04
  8
0
 10
45.0
 20
65.0
 30
0.0
 40
14.75
  0
ARC
  5
A05
  8
0
 10
45.0
 20
79.600000000001273
 30
0.0
 40
0.9
 50
7.8569869776664527
 51
172.14301302233349
  0
ARC
  5
A06
  8
0
 10
48.035510685939578
 20
79.280954970714816
 30
0.0
 40
0.9
 50
355.85698697766662
 51
160.14301302233321
  0
ARC
  5
A07
  8
0
 10
50.938354988907228
 20
78.337763681583141
 30
0.0
 40
0.9
 50
343.85698697766691
 51
148.1430130223327
  0
ARC
  5
A08
  8
0
 10
53.581664683470869
 20
76.811648117875265
 30
0.0
 40
0.9
 50
331.85698697766708
 51
136.143013022334
  0
ARC
  5
A09
  8
0
 10
55.849914451970903
 20
74.769306852840202
 30
0.0
 40
0.9
 50
319.85698697766742
 51
124.1430130223327
  0
ARC
  5
A0A
  8
0
 10
57.643970895253922
 20
72.300000000000622
 30
0.0
 40
0.9
 50
307.85698697766628
 51
112.1430130223326
  0
ARC
  5
A0B
  8
0
 10
58.885425137910481
 20
69.511648117874614
 30
0.0
 40
0.9
 50
295.85698697766651
 51
100.143013022334
  0
ARC
  5
A0C
  8
0
 10
59.520019672378048
 20
66.526115563707876
 30
0.0
 40
0.9
 50
283.85698697766639
 51
88.143013022333804
  0
ARC
  5
A0D
  8
0
 10
59.520019672378048
 20
63.473884436292117
 30
0.0
 40
0.9
 50
271.85698697766622
 51
76.143013022333534
  0
ARC
  5
A0E
  8
0
 10
58.885425137910481
 20
60.488351882125372
 30
0.0
 40
0.9
 50
259.856986977666
 51
64.143013022333506
  0
ARC
  5
A0F
  8
0
 10
57.643970895253922
 20
57.699999999999349
 30
0.0
 40
0.9
 50
247.85698697766739
 51
52.143013022333662
  0
ARC
  5
A10
  8
0
 10
55.849914451970903
 20
55.230693147159812
 30
0.0
 40
0.9
 50
235.8569869776673
 51
40.143013022332639
  0
ARC
  5
A11
  8
0
 10
53.581664683470869
 20
53.188351882124742
 30
0.0
 40
0.9
 50
223.856986977666
 51
28.143013022332958
  0
ARC
  5
A12
  8
0
 10
50.938354988907228
 20
51.662236318416859
 30
0.0
 40
0.9
 50
211.8569869776673
 51
16.14301302233314
  0
ARC
  5
A13
  8
0
 10
48.035510685939578
 20
50.719045029285184
 30
0.0
 40
0.9
 50
199.85698697766679
 51
4.1430130223335331
  0
ARC
  5
A14
  8
0
 10
45.0
 20
50.399999999998712
 30
0.0
 40
0.9
 50
187.85698697766651
 51
352.14301302233372
  0
ARC
  5
A15
  8
0
 10
41.964489314060522
 20
50.719045029285184
 30
0.0
 40
0.9
 50
175.85698697766659
 51
340.14301302233321
  0
ARC
  5
A16
  8
0
 10
39.061645011092821
 20
51.662236318416831
 30
0.0
 40
0.9
 50
163.85698697766691
 51
328.1430130223327
  0
ARC
  5
A17
  8
0
 10
36.418335316529117
 20
53.188351882124763
 30
0.0
 40
0.9
 50
151.85698697766711
 51
316.14301302233412
  0
ARC
  5
A18
  8
0
 10
34.150085548029097
 20
55.230693147159812
 30
0.0
 40
0.9
 50
139.85698697766739
 51
304.1430130223327
  0
ARC
  5
A19
  8
0
 10
32.356029104746092
 20
57.699999999999328
 30
0.0
 40
0.9
 50
127.8569869776663
 51
292.14301302233258
  0
ARC
  5
A1A
  8
0
 10
31.114574862089508
 20
60.48835188212535
 30
0.0
 40
0.9
 50
115.85698697766649
 51
280.14301302233389
  0
ARC
  5
A1B
  8
0
 10
30.479980327621941
 20
63.473884436292117
 30
0.0
 40
0.9
 50
103.85698697766639
 51
268.14301302233378
  0
ARC
  5
A1C
  8
0
 10
30.479980327621892
 20
66.526115563707862
 30
0.0
 40
0.9
 50
91.856986977666196
 51
256.14301302233349
  0
ARC
  5
A1D
  8
0
 10
31.114574862089508
 20
69.511648117874643
 30
0.0
 40
0.9
 50
79.856986977666011
 51
244.14301302233349
  0
ARC
  5
A1E
  8
0
 10
32.356029104746092
 20
72.300000000000651
 30
0.0
 40
0.9
 50
67.856986977667333
 51
232.14301302233361
  0
ARC
  5
A1F
  8
0
 10
34.150085548029097
 20
74.769306852840188
 30
0.0
 40
0.9
 50
55.856986977667319
 51
220.1430130223327
  0
ARC
  5
A20
  8
0
 10
36.418335316529117
 20
76.811648117875279
 30
0.0
 40
0.9
 50
43.856986977665919
 51
208.14301302233301
  0
ARC
  5
A21
  8
0
 10
39.061645011092821
 20
78.337763681583155
 30
0.0
 40
0.9
 50
31.856986977667258
 51
196.14301302233309
  0
ARC
  5
A22
  8
0
 10
41.964489314060472
 20
79.280954970714816
 30
0.0
 40
0.9
 50
19.856986977666761
 51
184.14301302233341
  0
LINE
  5
A23
  8
0
 10
104.0
 20
70.5
 30
0.0
 11
104.0
 21
59.5
 31
0.0
  0
LINE
  5
A24
  8
0
 10
104.0
 20
59.5
 30
0.0
 11
103.6999999999997
 21
59.5
 31
0.0
  0
LINE
  5
A25
  8
0
 10
104.0
 20
70.5
 30
0.0
 11
103.6999999999997
 21
70.5
 31
0.0
  0
LINE
  5
A26
  8
0
 10
88.225137362834857
 20
79.75
 30
0.0
 11
89.000000000000341
 21
79.75
 31
0.0
  0
LINE
  5
A27
  8
0
 10
89.000000000000341
 20
79.75
 30
0.0
 11
89.0
 21
50.250000000000021
 31
0.0
  0
LINE
  5
A28
  8
0
 10
89.000000000000341
 20
79.75
 30
0.0
 11
89.051227139574507
 21
79.801227139574124
 31
0.0
  0
LINE
  5
A29
  8
0
 10
89.750000000000213
 20
80.499999999999901
 30
0.0
 11
96.100000000000023
 21
80.499999999999886
 31
0.0
  0
LINE
  5
A2A
  8
0
 10
96.987411967466699
 20
79.75
 30
0.0
 11
97.399999999999977
 21
79.75
 31
0.0
  0
LINE
  5
A2B
  8
0
 10
98.0
 20
79.150000000000006
 30
0.0
 11
98.0
 21
50.849999046325671
 31
0.0
  0
LINE
  5
A2C
  8
0
 10
98.0
 20
76.999999999999943
 30
0.0
 11
102.6999999999997
 21
76.999999999999943
 31
0.0
  0
LINE
  5
A2D
  8
0
 10
103.6999999999997
 20
75.999999999999943
 30
0.0
 11
103.6999999999997
 21
54.00000000000005
 31
0.0
  0
ARC
  5
A2E
  8
0
 10
96.100000000000023
 20
79.599999999999881
 30
0.0
 40
0.9
 50
7.8569869777451826
 51
90.0
  0
ARC
  5
A2F
  8
0
 10
97.399999999999977
 20
79.150000000000006
 30
0.0
 40
0.6
 50
0.0000000000000763
 51
90.0
  0
LINE
  5
A30
  8
0
 10
102.6999999999997
 20
76.999999999999943
 30
0.0
 11
103.6999999999997
 21
75.999999999999943
 31
0.0
  0
LINE
  5
A31
  8
0
 10
102.6999999999997
 20
53.000000000000057
 30
0.0
 11
103.6999999999997
 21
54.00000000000005
 31
0.0
  0
LINE
  5
A32
  8
0
 10
98.0
 20
53.000000000000057
 30
0.0
 11
102.6999999999997
 21
53.000000000000057
 31
0.0
  0
ARC
  5
A33
  8
0
 10
97.399999999999977
 20
50.849999999999987
 30
0.0
 40
0.6
 50
270.0
 51
360.0
  0
LINE
  5
A34
  8
0
 10
88.225137362835142
 20
79.750000000000355
 30
0.0
 11
88.225137362834815
 21
50.25
 31
0.0
  0
ARC
  5
A35
  8
0
 10
136.0
 20
65.0
 30
0.0
 40
50.0
 50
162.84246262830069
 51
197.1575373716982
  0
LINE
  5
A36
  8
1
 10
106.5
 20
65.0
 30
0.0
 11
83.499999999999986
 21
65.0
 31
0.0
  0
LINE
  5
A37
  8
0
 10
89.750000000000213
 20
80.180954970714851
 30
0.0
 11
96.100000000000023
 21
80.180954970714836
 31
0.0
  0
LINE
  5
A38
  8
0
 10
89.748017849401435
 20
79.237763681583161
 30
0.0
 11
96.100000000000023
 21
79.237763681583147
 31
0.0
  0
LINE
  5
A39
  8
0
 10
89.000000000000341
 20
78.087531416472871
 30
0.0
 11
96.100000000000023
 21
78.087531416472856
 31
0.0
  0
LINE
  5
A3A
  8
0
 10
89.741611748130651
 20
77.711648117875299
 30
0.0
 11
96.100000000000023
 21
77.711648117875285
 31
0.0
  0
LINE
  5
A3B
  8
0
 10
89.000000000000284
 20
76.387141537938831
 30
0.0
 11
96.100000000000023
 21
76.387141537938803
 31
0.0
  0
LINE
  5
A3C
  8
0
 10
89.725979471134039
 20
75.669306852840222
 30
0.0
 11
96.100000000000023
 21
75.669306852840194
 31
0.0
  0
LINE
  5
A3D
  8
0
 10
89.000000000000284
 20
74.189078932629428
 30
0.0
 11
96.100000000000023
 21
74.189078932629414
 31
0.0
  0
LINE
  5
A3E
  8
0
 10
89.692504275570514
 20
73.200000000000628
 30
0.0
 11
96.100000000000023
 21
73.200000000000628
 31
0.0
  0
LINE
  5
A3F
  8
0
 10
89.000000000000227
 20
71.58940948387125
 30
0.0
 11
96.100000000000023
 21
71.58940948387125
 31
0.0
  0
LINE
  5
A40
  8
0
 10
89.000000000000227
 20
70.411648117874648
 30
0.0
 11
96.100000000000023
 21
70.41164811787462
 31
0.0
  0
LINE
  5
A41
  8
0
 10
89.000000000000227
 20
68.701751221173026
 30
0.0
 11
96.100000000000023
 21
68.701751221172984
 31
0.0
  0
LINE
  5
A42
  8
0
 10
89.000000000000227
 20
67.425642905778304
 30
0.0
 11
96.100000000000023
 21
67.42564290577829
 31
0.0
  0
LINE
  5
A43
  8
0
 10
89.000000000000185
 20
65.652308667136467
 30
0.0
 11
96.100000000000023
 21
65.652308667136452
 31
0.0
  0
LINE
  5
A44
  8
0
 10
102.6999999999997
 20
76.999999999999943
 30
0.0
 11
102.6999999999997
 21
53.000000000000028
 31
0.0
  0
POLYLINE
  5
A45
  8
0
 66
     1
 10
0.0
 20
0.0
 30
0.0
  0
VERTEX
  5
A46
  8
0
 10
96.100000000000023
 20
65.652308667136438
 30
0.0
 42
0.0958836768337548
  0
VERTEX
  5
A47
  8
0
 10
96.445657826787624
 20
65.719209619769586
 30
0.0
 42
0.0973727181123934
  0
VERTEX
  5
A48
  8
0
 10
96.736396103067932
 20
65.90824078169463
 30
0.0
 42
0.0995552790647585
 70
     2
 50
44.153997419413727
  0
VERTEX
  5
A49
  8
0
 10
96.931904167055123
 20
66.192969922584794
 30
0.0
 42
0.1011555278604192
 50
44.153997419413727
  0
VERTEX
  5
A4A
  8
0
 10
97.0
 20
66.526115563707862
 30
0.0
 42
0.1011555278603906
  0
SEQEND
  5
A4B
  8
0
  0
POLYLINE
  5
A4C
  8
0
 66
     1
 10
0.0
 20
0.0
 30
0.0
  0
VERTEX
  5
A4D
  8
0
 10
97.0
 20
66.526115563707847
 30
0.0
 42
0.0985382942772341
  0
VERTEX
  5
A4E
  8
0
 10
96.931498789040972
 20
66.870327317680562
 30
0.0
 42
0.0985108138432073
  0
VERTEX
  5
A4F
  8
0
 10
96.736396103067932
 20
67.162177447148551
 30
0.0
 42
0.0984719755302262
 70
     2
 50
135.01504912054531
  0
VERTEX
  5
A50
  8
0
 10
96.44443754494705
 20
67.357163262616965
 30
0.0
 42
0.0984445302802987
 50
135.01504912054531
  0
VERTEX
  5
A51
  8
0
 10
96.100000000000023
 20
67.425642905778275
 30
0.0
 42
0.0984445302803307
  0
SEQEND
  5
A52
  8
0
  0
POLYLINE
  5
A53
  8
0
 66
     1
 10
0.0
 20
0.0
 30
0.0
  0
VERTEX
  5
A54
  8
0
 10
96.100000000000023
 20
68.701751221172984
 30
0.0
 42
0.0894353177990173
  0
VERTEX
  5
A55
  8
0
 10
96.448669178537401
 20
68.764620771922537
 30
0.0
 42
0.0942677045368311
  0
VERTEX
  5
A56
  8
0
 10
96.736396103067932
 20
68.938964530154976
 30
0.0
 42
0.1020171205143204
 70
     2
 50
41.98358590259167
  0
VERTEX
  5
A57
  8
0
 10
96.949020679366811
 20
69.227715672787141
 30
0.0
 42
0.127549243512124
 50
41.98358590259167
  0
VERTEX
  5
A58
  8
0
 10
96.999999999996476
 20
69.511648117874614
 30
0.0
 42
0.1082657916875541
  0
SEQEND
  5
A59
  8
0
  0
POLYLINE
  5
A5A
  8
0
 66
     1
 10
0.0
 20
0.0
 30
0.0
  0
VERTEX
  5
A5B
  8
0
 10
97.0
 20
69.511648117874586
 30
0.0
 42
0.0984914033571679
  0
VERTEX
  5
A5C
  8
0
 10
96.931491579260182
 20
69.85606320700316
 30
0.0
 42
0.0984914033571643
  0
VERTEX
  5
A5D
  8
0
 10
96.736396103067932
 20
70.148044220942481
 30
0.0
 42
0.0984914033571914
 70
     2
 50
134.99999999999909
  0
VERTEX
  5
A5E
  8
0
 10
96.444415089128597
 20
70.343139697134745
 30
0.0
 42
0.09849140335718
 50
134.99999999999909
  0
VERTEX
  5
A5F
  8
0
 10
96.100000000000023
 20
70.411648117874606
 30
0.0
 42
0.0984914033571438
  0
SEQEND
  5
A60
  8
0
  0
POLYLINE
  5
A61
  8
0
 66
     1
 10
0.0
 20
0.0
 30
0.0
  0
VERTEX
  5
A62
  8
0
 10
96.100000000000023
 20
71.589409483871222
 30
0.0
 42
0.0791839098011978
  0
VERTEX
  5
A63
  8
0
 10
96.453246984810448
 20
71.645705419307063
 30
0.0
 42
0.0882926717391475
  0
VERTEX
  5
A64
  8
0
 10
96.736396103067932
 20
71.797536627398685
 30
0.0
 42
0.1052135418914506
 70
     2
 50
38.292680938562157
  0
VERTEX
  5
A65
  8
0
 10
96.950085557877856
 20
72.054973163498261
 30
0.0
 42
0.1420393704271083
 50
38.292680938562157
  0
VERTEX
  5
A66
  8
0
 10
96.999999999997158
 20
72.300000000000622
 30
0.0
 42
0.1213787435732019
  0
SEQEND
  5
A67
  8
0
  0
POLYLINE
  5
A68
  8
0
 66
     1
 10
0.0
 20
0.0
 30
0.0
  0
VERTEX
  5
A69
  8
0
 10
97.0
 20
72.300000000000594
 30
0.0
 42
0.0984914033571359
  0
VERTEX
  5
A6A
  8
0
 10
96.931491579260182
 20
72.644415089129211
 30
0.0
 42
0.0984914033571132
  0
VERTEX
  5
A6B
  8
0
 10
96.736396103067932
 20
72.936396103068489
 30
0.0
 42
0.0984914033571687
 70
     2
 50
134.99999999999909
  0
VERTEX
  5
A6C
  8
0
 10
96.444415089128597
 20
73.131491579260754
 30
0.0
 42
0.0984914033571721
 50
134.99999999999909
  0
VERTEX
  5
A6D
  8
0
 10
96.100000000000023
 20
73.200000000000614
 30
0.0
 42
0.0984914033571638
  0
SEQEND
  5
A6E
  8
0
  0
POLYLINE
  5
A6F
  8
0
 66
     1
 10
0.0
 20
0.0
 30
0.0
  0
VERTEX
  5
A70
  8
0
 10
96.100000000000023
 20
74.189078932629414
 30
0.0
 42
0.0653310264213602
  0
VERTEX
  5
A71
  8
0
 10
96.458925843791405
 20
74.236177945520311
 30
0.0
 42
0.0780794551083624
  0
VERTEX
  5
A72
  8
0
 10
96.736396103067932
 20
74.359023755825405
 30
0.0
 42
0.1071770813466468
 70
     2
 50
32.809782166113443
  0
VERTEX
  5
A73
  8
0
 10
96.952556015615585
 20
74.575520958791756
 30
0.0
 42
0.1670152672045806
 50
32.809782166113443
  0
VERTEX
  5
A74
  8
0
 10
96.999999999991189
 20
74.769306852840202
 30
0.0
 42
0.1437479045309739
  0
SEQEND
  5
A75
  8
0
  0
POLYLINE
  5
A76
  8
0
 66
     1
 10
0.0
 20
0.0
 30
0.0
  0
VERTEX
  5
A77
  8
0
 10
96.999999999989441
 20
74.769306852840188
 30
0.0
 42
0.0984914033561535
  0
VERTEX
  5
A78
  8
0
 10
96.931491579250235
 20
75.113721941969231
 30
0.0
 42
0.0984914033567842
  0
VERTEX
  5
A79
  8
0
 10
96.736396103060429
 20
75.405702955908083
 30
0.0
 42
0.0984914033575878
 70
     2
 50
134.999999999663
  0
VERTEX
  5
A7A
  8
0
 10
96.444415089124064
 20
75.600798432100504
 30
0.0
 42
0.0984914033582018
 50
134.999999999663
  0
VERTEX
  5
A7B
  8
0
 10
96.100000000000023
 20
75.669306852840194
 30
0.0
 42
0.0984914033582041
  0
SEQEND
  5
A7C
  8
0
  0
POLYLINE
  5
A7D
  8
0
 66
     1
 10
0.0
 20
0.0
 30
0.0
  0
VERTEX
  5
A7E
  8
0
 10
96.100000000000023
 20
76.387141537938803
 30
0.0
 42
0.0482732746754214
  0
VERTEX
  5
A7F
  8
0
 10
96.464882552566792
 20
76.422451973535019
 30
0.0
 42
0.0620263071316972
  0
VERTEX
  5
A80
  8
0
 10
96.736396103067932
 20
76.511476636543904
 30
0.0
 42
0.1027185704896032
 70
     2
 50
25.25203220750711
  0
VERTEX
  5
A81
  8
0
 10
96.958149208733346
 20
76.678467813928791
 30
0.0
 42
0.2111340475038247
 50
25.25203220750711
  0
VERTEX
  5
A82
  8
0
 10
97.000000000007788
 20
76.811648117875265
 30
0.0
 42
0.182131453288338
  0
SEQEND
  5
A83
  8
0
  0
POLYLINE
  5
A84
  8
0
 66
     1
 10
0.0
 20
0.0
 30
0.0
  0
VERTEX
  5
A85
  8
0
 10
97.000000000001023
 20
76.811648117875265
 30
0.0
 42
0.098491403357272
  0
VERTEX
  5
A86
  8
0
 10
96.931491579261092
 20
77.156063207003797
 30
0.0
 42
0.0984914033572134
  0
VERTEX
  5
A87
  8
0
 10
96.736396103068614
 20
77.44804422094316
 30
0.0
 42
0.09849140335712
 70
     2
 50
135.00000000003169
  0
VERTEX
  5
A88
  8
0
 10
96.444415089129052
 20
77.643139697135396
 30
0.0
 42
0.0984914033570725
 50
135.00000000003169
  0
VERTEX
  5
A89
  8
0
 10
96.100000000000023
 20
77.711648117875271
 30
0.0
 42
0.0984914033570564
  0
SEQEND
  5
A8A
  8
0
  0
POLYLINE
  5
A8B
  8
0
 66
     1
 10
0.0
 20
0.0
 30
0.0
  0
VERTEX
  5
A8C
  8
0
 10
96.100000000000023
 20
78.087531416472842
 30
0.0
 42
0.0286731224885913
  0
VERTEX
  5
A8D
  8
0
 10
96.469895845497945
 20
78.108761008110122
 30
0.0
 42
0.0391513222091239
  0
VERTEX
  5
A8E
  8
0
 10
96.736396103067875
 20
78.160822750051963
 30
0.0
 42
0.0801646192844235
 70
     2
 50
15.537837337416301
  0
VERTEX
  5
A8F
  8
0
 10
96.970167957820706
 20
78.268367657653414
 30
0.0
 42
0.294951757472673
 50
15.537837337416301
  0
VERTEX
  5
A90
  8
0
 10
96.999999999988461
 20
78.337763681583141
 30
0.0
 42
0.2499258999240178
  0
SEQEND
  5
A91
  8
0
  0
POLYLINE
  5
A92
  8
0
 66
     1
 10
0.0
 20
0.0
 30
0.0
  0
VERTEX
  5
A93
  8
0
 10
96.999999999988461
 20
78.337763681583155
 30
0.0
 42
0.0984914033559866
  0
VERTEX
  5
A94
  8
0
 10
96.931491579249325
 20
78.682178770712312
 30
0.0
 42
0.0984914033566527
  0
VERTEX
  5
A95
  8
0
 10
96.736396103059761
 20
78.974159784651036
 30
0.0
 42
0.0984914033575997
 70
     2
 50
134.99999999963271
  0
VERTEX
  5
A96
  8
0
 10
96.444415089123652
 20
79.169255260843485
 30
0.0
 42
0.0984914033582744
 50
134.99999999963271
  0
VERTEX
  5
A97
  8
0
 10
96.100000000000023
 20
79.237763681583132
 30
0.0
 42
0.0984914033582945
  0
SEQEND
  5
A98
  8
0
  0
POLYLINE
  5
A99
  8
0
 66
     1
 10
0.0
 20
0.0
 30
0.0
  0
VERTEX
  5
A9A
  8
0
 10
96.290419083844881
 20
79.217388927075064
 30
0.0
 42
0.0036572197749306
  0
VERTEX
  5
A9B
  8
0
 10
96.472591128246222
 20
79.221507086318809
 30
0.0
 42
0.0105515116696261
  0
VERTEX
  5
A9C
  8
0
 10
96.736396103067875
 20
79.234977756748563
 30
0.0
 42
0.0251452480493319
 70
     2
 50
4.132224165839081
  0
VERTEX
  5
A9D
  8
0
 10
96.991501267861864
 20
79.266359715426802
 30
0.0
 50
4.132224165839081
  0
VERTEX
  5
A9E
  8
0
 10
97.0
 20
79.280954970714831
 30
0.0
  0
SEQEND
  5
A9F
  8
0
  0
POLYLINE
  5
AA0
  8
0
 66
     1
 10
0.0
 20
0.0
 30
0.0
  0
VERTEX
  5
AA1
  8
0
 10
97.0
 20
79.280954970714816
 30
0.0
 42
0.098491403357172
  0
VERTEX
  5
AA2
  8
0
 10
96.931491579260125
 20
79.625370059843419
 30
0.0
 42
0.0984914033571507
  0
VERTEX
  5
AA3
  8
0
 10
96.736396103067875
 20
79.917351073782697
 30
0.0
 42
0.0984914033571707
 70
     2
 50
134.99999999999949
  0
VERTEX
  5
AA4
  8
0
 10
96.444415089128597
 20
80.112446549974948
 30
0.0
 42
0.09849140335718
 50
134.99999999999949
  0
VERTEX
  5
AA5
  8
0
 10
96.100000000000023
 20
80.180954970714808
 30
0.0
 42
0.0984914033571639
  0
SEQEND
  5
AA6
  8
0
  0
LINE
  5
AA7
  8
0
 10
96.883944476212719
 20
79.723030821917803
 30
0.0
 11
96.991551129695097
 21
79.723030821917803
 31
0.0
  0
POLYLINE
  5
AA8
  8
0
 66
     1
 10
0.0
 20
0.0
 30
0.0
  0
VERTEX
  5
AA9
  8
0
 10
89.000000000000185
 20
65.652308667136467
 30
0.0
 42
0.1233452667669979
  0
VERTEX
  5
AAA
  8
0
 10
89.276684343997999
 20
65.721618560089709
 30
0.0
 42
0.1055531643891276
  0
VERTEX
  5
AAB
  8
0
 10
89.530330085890114
 20
65.935794891952327
 30
0.0
 42
0.0873859604927064
 70
     2
 50
52.228345213090947
  0
VERTEX
  5
AAC
  8
0
 10
89.706651745240549
 20
66.270454589479073
 30
0.0
 42
0.0939071216341266
 50
52.228345213090947
  0
VERTEX
  5
AAD
  8
0
 10
89.750000000001535
 20
66.62019118064876
 30
0.0
 42
0.0778018097759825
  0
SEQEND
  5
AAE
  8
0
  0
POLYLINE
  5
AAF
  8
0
 66
     1
 10
0.0
 20
0.0
 30
0.0
  0
VERTEX
  5
AB0
  8
0
 10
89.750000000000213
 20
66.620191180648732
 30
0.0
 42
0.0922895830803223
  0
VERTEX
  5
AB1
  8
0
 10
89.692129278790404
 20
66.931048663775513
 30
0.0
 42
0.0957025255079837
  0
VERTEX
  5
AB2
  8
0
 10
89.530330085890114
 20
67.189731557406233
 30
0.0
 42
0.1009608214900936
 70
     2
 50
132.958274868562
  0
VERTEX
  5
AB3
  8
0
 10
89.284372694453282
 20
67.365245996337691
 30
0.0
 42
0.1050219590963969
 50
132.958274868562
  0
VERTEX
  5
AB4
  8
0
 10
89.000000000000227
 20
67.425642905778304
 30
0.0
 42
0.1050219590963579
  0
SEQEND
  5
AB5
  8
0
  0
POLYLINE
  5
AB6
  8
0
 66
     1
 10
0.0
 20
0.0
 30
0.0
  0
VERTEX
  5
AB7
  8
0
 10
89.000000000000227
 20
68.701751221173026
 30
0.0
 42
0.1360999991723464
  0
VERTEX
  5
AB8
  8
0
 10
89.271160728363029
 20
68.776954170999844
 30
0.0
 42
0.1069529128000602
  0
VERTEX
  5
AB9
  8
0
 10
89.530330085890114
 20
69.020422614090464
 30
0.0
 42
0.0815299213519585
 70
     2
 50
55.42031923303545
  0
VERTEX
  5
ABA
  8
0
 10
89.706750394381103
 20
69.394357635081946
 30
0.0
 42
0.0847934043724306
 50
55.420319233035443
  0
VERTEX
  5
ABB
  8
0
 10
89.750000000000213
 20
69.789763412812064
 30
0.0
 42
0.0696446032640182
  0
SEQEND
  5
ABC
  8
0
  0
POLYLINE
  5
ABD
  8
0
 66
     1
 10
0.0
 20
0.0
 30
0.0
  0
VERTEX
  5
ABE
  8
0
 10
89.750000000001933
 20
69.789763412812036
 30
0.0
 42
0.116341825277163
  0
VERTEX
  5
ABF
  8
0
 10
89.695302160682161
 20
70.021655429917928
 30
0.0
 42
0.1041819656710092
  0
VERTEX
  5
AC0
  8
0
 10
89.530330085891364
 20
70.229502304877983
 30
0.0
 42
0.0906086175414611
 70
     2
 50
140.3351698395563
  0
VERTEX
  5
AC1
  8
0
 10
89.293017646882788
 20
70.362730970971583
 30
0.0
 42
0.0828977149716635
 50
140.3351698395563
  0
VERTEX
  5
AC2
  8
0
 10
89.000000000000227
 20
70.411648117874634
 30
0.0
 42
0.0828977149716505
  0
SEQEND
  5
AC3
  8
0
  0
POLYLINE
  5
AC4
  8
0
 66
     1
 10
0.0
 20
0.0
 30
0.0
  0
VERTEX
  5
AC5
  8
0
 10
89.000000000000227
 20
71.58940948387125
 30
0.0
 42
0.1434738734187271
  0
VERTEX
  5
AC6
  8
0
 10
89.267925933730268
 20
71.667906059443169
 30
0.0
 42
0.10717642937792
  0
VERTEX
  5
AC7
  8
0
 10
89.530330085890114
 20
71.929338575864733
 30
0.0
 42
0.078201946587953
 70
     2
 50
57.128535893212302
  0
VERTEX
  5
AC8
  8
0
 10
89.706857894976793
 20
72.327164066469436
 30
0.0
 42
0.0801028274879396
 50
57.128535893212302
  0
VERTEX
  5
AC9
  8
0
 10
89.750000000000213
 20
72.750000000000611
 30
0.0
 42
0.0635973042085309
  0
VERTEX
  5
ACA
  8
0
 10
89.692554852017224
 20
73.199805263502128
 30
0.0
 42
0.0782019465878784
  0
SEQEND
  5
ACB
  8
0
  0
POLYLINE
  5
ACC
  8
0
 66
     1
 10
0.0
 20
0.0
 30
0.0
  0
VERTEX
  5
ACD
  8
0
 10
89.692554852017224
 20
73.199805263502128
 30
0.0
 42
0.007466045661547
  0
VERTEX
  5
ACE
  8
0
 10
89.439591039541938
 20
73.194312126163737
 30
0.0
 42
0.0129085569485281
  0
VERTEX
  5
ACF
  8
0
 10
89.219669914110341
 20
73.180558140040361
 30
0.0
 42
0.0305668656978748
 70
     2
 50
185.0577776620957
  0
VERTEX
  5
AD0
  8
0
 10
89.012778560148206
 20
73.149418734563071
 30
0.0
 50
185.0577776620957
  0
VERTEX
  5
AD1
  8
0
 10
89.000000000000227
 20
73.133621338046538
 30
0.0
  0
SEQEND
  5
AD2
  8
0
  0
POLYLINE
  5
AD3
  8
0
 66
     1
 10
0.0
 20
0.0
 30
0.0
  0
VERTEX
  5
AD4
  8
0
 10
89.000000000000284
 20
74.189078932629414
 30
0.0
 42
0.1456454170458404
  0
VERTEX
  5
AD5
  8
0
 10
89.266969052485763
 20
74.268529931878604
 30
0.0
 42
0.1071670889738505
  0
VERTEX
  5
AD6
  8
0
 10
89.530330085890171
 20
74.535409191218122
 30
0.0
 42
0.0772338470160484
 70
     2
 50
57.613913109324351
  0
VERTEX
  5
AD7
  8
0
 10
89.706894666775383
 20
74.940449596487724
 30
0.0
 42
0.0787908513640569
 50
57.613913109324351
  0
VERTEX
  5
AD8
  8
0
 10
89.750000000000213
 20
75.371524398563182
 30
0.0
 42
0.0402560881893137
  0
VERTEX
  5
AD9
  8
0
 10
89.725992384171604
 20
75.669227321296475
 30
0.0
 42
0.0772338470160163
  0
SEQEND
  5
ADA
  8
0
  0
POLYLINE
  5
ADB
  8
0
 66
     1
 10
0.0
 20
0.0
 30
0.0
  0
VERTEX
  5
ADC
  8
0
 10
89.725992384171604
 20
75.669227321296475
 30
0.0
 42
0.0197122562783022
  0
VERTEX
  5
ADD
  8
0
 10
89.440693229067037
 20
75.656081455941319
 30
0.0
 42
0.0296318328751298
  0
VERTEX
  5
ADE
  8
0
 10
89.219669914110341
 20
75.623871879305113
 30
0.0
 42
0.0648812112387953
 70
     2
 50
191.68587390119239
  0
VERTEX
  5
ADF
  8
0
 10
89.026426948230721
 20
75.556916569830861
 30
0.0
 50
191.68587390119239
  0
VERTEX
  5
AE0
  8
0
 10
89.000000000000284
 20
75.514182149990603
 30
0.0
  0
SEQEND
  5
AE1
  8
0
  0
POLYLINE
  5
AE2
  8
0
 66
     1
 10
0.0
 20
0.0
 30
0.0
  0
VERTEX
  5
AE3
  8
0
 10
89.741613442120766
 20
77.711630802457663
 30
0.0
 42
0.0368582933129941
  0
VERTEX
  5
AE4
  8
0
 10
89.443490168703306
 20
77.68838613684315
 30
0.0
 42
0.0504485433502363
  0
VERTEX
  5
AE5
  8
0
 10
89.219669914110384
 20
77.630685001922245
 30
0.0
 42
0.0937814822835541
 70
     2
 50
200.232229842404
  0
VERTEX
  5
AE6
  8
0
 10
89.039137621155689
 20
77.522435464895196
 30
0.0
 42
0.2140953676721142
 50
200.232229842404
  0
VERTEX
  5
AE7
  8
0
 10
89.000000000000341
 20
77.435222749336404
 30
0.0
 42
0.2140953676721924
  0
SEQEND
  5
AE8
  8
0
  0
POLYLINE
  5
AE9
  8
0
 66
     1
 10
0.0
 20
0.0
 30
0.0
  0
VERTEX
  5
AEA
  8
0
 10
89.000000000000284
 20
76.387141537938831
 30
0.0
 42
0.1426764765518084
  0
VERTEX
  5
AEB
  8
0
 10
89.268276863117762
 20
76.465285884483293
 30
0.0
 42
0.1071714898372097
  0
VERTEX
  5
AEC
  8
0
 10
89.530330085890171
 20
76.724736668945425
 30
0.0
 42
0.0785589015149717
 70
     2
 50
56.948332736842787
  0
VERTEX
  5
AED
  8
0
 10
89.706844921075401
 20
77.11993381166161
 30
0.0
 42
0.0805921738894916
 50
56.948332736842787
  0
VERTEX
  5
AEE
  8
0
 10
89.750000000000213
 20
77.539763412812718
 30
0.0
 42
0.0243838330531286
  0
VERTEX
  5
AEF
  8
0
 10
89.741613442120766
 20
77.711630802457663
 30
0.0
 42
0.0785589015150244
  0
SEQEND
  5
AF0
  8
0
  0
POLYLINE
  5
AF1
  8
0
 66
     1
 10
0.0
 20
0.0
 30
0.0
  0
VERTEX
  5
AF2
  8
0
 10
89.000000000000341
 20
78.087531416472871
 30
0.0
 42
0.1344835345205819
  0
VERTEX
  5
AF3
  8
0
 10
89.271866350301366
 20
78.162001361993077
 30
0.0
 42
0.1068489369104784
  0
VERTEX
  5
AF4
  8
0
 10
89.530330085890171
 20
78.40163689271121
 30
0.0
 42
0.0822666791136883
 70
     2
 50
55.03295169909677
  0
VERTEX
  5
AF5
  8
0
 10
89.706731030017124
 20
78.770455433819848
 30
0.0
 42
0.0858739783149102
 50
55.03295169909677
  0
VERTEX
  5
AF6
  8
0
 10
89.750000000000213
 20
79.159954593461478
 30
0.0
 42
0.0127349594423328
  0
VERTEX
  5
AF7
  8
0
 10
89.748017925308488
 20
79.237762192671781
 30
0.0
 42
0.0822666791136468
  0
SEQEND
  5
AF8
  8
0
  0
POLYLINE
  5
AF9
  8
0
 66
     1
 10
0.0
 20
0.0
 30
0.0
  0
VERTEX
  5
AFA
  8
0
 10
89.748017925308488
 20
79.237762192671781
 30
0.0
 42
0.0573212368222222
  0
VERTEX
  5
AFB
  8
0
 10
89.448541357827139
 20
79.20286032035979
 30
0.0
 42
0.0713686421340051
  0
VERTEX
  5
AFC
  8
0
 10
89.219669914110384
 20
79.113290144675702
 30
0.0
 42
0.1064083886195064
 70
     2
 50
209.53758165726131
  0
VERTEX
  5
AFD
  8
0
 10
89.048290854892343
 20
78.960675433451812
 30
0.0
 42
0.1591307399508841
 50
209.53758165726131
  0
VERTEX
  5
AFE
  8
0
 10
89.000000000000341
 20
78.812784443717177
 30
0.0
 42
0.1591307399509122
  0
SEQEND
  5
AFF
  8
0
  0
LINE
  5
B00
  8
0
 10
89.000000000000341
 20
79.215933371163615
 30
0.0
 11
89.510992442964948
 21
79.215933371163615
 31
0.0
  0
POLYLINE
  5
B01
  8
0
 66
     1
 10
0.0
 20
0.0
 30
0.0
  0
VERTEX
  5
B02
  8
0
 10
89.000000000000341
 20
79.215933371163615
 30
0.0
 42
0.1208772919013222
  0
VERTEX
  5
B03
  8
0
 10
89.277739494384491
 20
79.284073788455373
 30
0.0
 42
0.105121356308238
  0
VERTEX
  5
B04
  8
0
 10
89.530330085890171
 20
79.492821276076782
 30
0.0
 42
0.0885237574562495
 70
     2
 50
51.573160329827758
  0
VERTEX
  5
B05
  8
0
 10
89.706649784615834
 20
79.820157410655156
 30
0.0
 42
0.0958417672167936
 50
51.573160329827758
  0
VERTEX
  5
B06
  8
0
 10
89.75000000000108
 20
80.161287811375246
 30
0.0
 42
0.079542236943064
  0
SEQEND
  5
B07
  8
0
  0
POLYLINE
  5
B08
  8
0
 66
     1
 10
0.0
 20
0.0
 30
0.0
  0
VERTEX
  5
B09
  8
0
 10
89.750000000000213
 20
80.180954970714836
 30
0.0
 42
0.0794517953820712
  0
VERTEX
  5
B0A
  8
0
 10
89.455724133456897
 20
80.133896417598081
 30
0.0
 42
0.0884655862009624
  0
VERTEX
  5
B0B
  8
0
 10
89.219669914110384
 20
80.006890348498345
 30
0.0
 42
0.1051447802970453
 70
     2
 50
218.3930138878703
  0
VERTEX
  5
B0C
  8
0
 10
89.054041489630038
 20
79.806696984737783
 30
0.0
 42
0.121003536716326
 50
218.3930138878703
  0
VERTEX
  5
B0D
  8
0
 10
89.000000000000341
 20
79.586661176813919
 30
0.0
 42
0.1210035367164111
  0
SEQEND
  5
B0E
  8
0
  0
LINE
  5
B0F
  8
0
 10
89.329370042953869
 20
80.079370042953528
 30
0.0
 11
89.750000000000213
 21
80.499999999999901
 31
0.0
  0
POLYLINE
  5
B10
  8
0
 66
     1
 10
0.0
 20
0.0
 30
0.0
  0
VERTEX
  5
B11
  8
0
 10
89.000000000000341
 20
79.723030821917774
 30
0.0
 42
0.0069295081336133
  0
VERTEX
  5
B12
  8
0
 10
89.020081156712308
 20
79.723309140359646
 30
0.0
 42
0.0997572060783242
  0
SEQEND
  5
B13
  8
0
  0
POLYLINE
  5
B14
  8
0
 66
     1
 10
0.0
 20
0.0
 30
0.0
  0
VERTEX
  5
B15
  8
0
 10
89.687498743065007
 20
80.178882837663579
 30
0.0
 42
0.0144520562158258
 70
     2
 50
46.01184716750992
  0
VERTEX
  5
B16
  8
0
 10
89.706928058224037
 20
80.223675612930563
 30
0.0
 42
0.113349067593135
 50
46.011847167509913
  0
VERTEX
  5
B17
  8
0
 10
89.749999999999318
 20
80.499999999999901
 30
0.0
 42
0.0953788824809784
  0
SEQEND
  5
B18
  8
0
  0
LINE
  5
B19
  8
2
 10
103.4765
 20
61.0
 30
0.0
 11
94.0
 21
61.0
 31
0.0
  0
LINE
  5
B1A
  8
2
 10
102.8
 20
61.676499999999891
 30
0.0
 11
92.0
 21
61.676499999999891
 31
0.0
  0
LINE
  5
B1B
  8
2
 10
92.0
 20
61.676499999999841
 30
0.0
 11
90.003039732661819
 21
65.0
 31
0.0
  0
LINE
  5
B1C
  8
2
 10
94.0
 20
61.0
 30
0.0
 11
94.0
 21
69.0
 31
0.0
  0
LINE
  5
B1D
  8
2
 10
92.0
 20
61.676499999999891
 30
0.0
 11
92.0
 21
68.323500000000109
 31
0.0
  0
LINE
  5
B1E
  8
2
 10
94.0
 20
61.00000000000005
 30
0.0
 11
92.828267628679782
 21
61.676499999999983
 31
0.0
  0
LINE
  5
B1F
  8
2
 10
102.8
 20
68.323500000000109
 30
0.0
 11
102.8
 21
61.676499999999919
 31
0.0
  0
LINE
  5
B20
  8
2
 10
102.7999999999999
 20
61.676499999999983
 30
0.0
 11
104.0
 21
60.476499999999959
 31
0.0
  0
LINE
  5
B21
  8
2
 10
89.000000000000284
 20
70.5
 30
0.0
 11
89.000000000000114
 21
59.5
 31
0.0
  0
LINE
  5
B22
  8
2
 10
89.000000000000114
 20
59.5
 30
0.0
 11
103.6999999999997
 21
59.5
 31
0.0
  0
LINE
  5
B23
  8
2
 10
89.000000000000114
 20
70.5
 30
0.0
 11
103.6999999999997
 21
70.5
 31
0.0
  0
LINE
  5
B24
  8
2
 10
92.0
 20
68.323500000000166
 30
0.0
 11
90.003039732661819
 21
65.0
 31
0.0
  0
LINE
  5
B25
  8
2
 10
94.0
 20
68.999999999999943
 30
0.0
 11
92.828267628679782
 21
68.323500000000024
 31
0.0
  0
LINE
  5
B26
  8
2
 10
102.8
 20
68.323500000000109
 30
0.0
 11
92.0
 21
68.323500000000109
 31
0.0
  0
LINE
  5
B27
  8
2
 10
103.4765
 20
69.0
 30
0.0
 11
94.0
 21
69.0
 31
0.0
  0
LINE
  5
B28
  8
2
 10
102.7999999999999
 20
68.323500000000024
 30
0.0
 11
104.0
 21
69.523500000000041
 31
0.0
  0
POLYLINE
  5
B29
  8
0
 66
     1
 10
0.0
 20
0.0
 30
0.0
  0
VERTEX
  5
B2A
  8
0
 10
89.687498743065007
 20
49.821117162336407
 30
0.0
 42
-0.0144520562158258
 70
     2
 50
313.98815283249007
  0
VERTEX
  5
B2B
  8
0
 10
89.706928058224037
 20
49.776324387069437
 30
0.0
 42
-0.113349067593135
  0
VERTEX
  5
B2C
  8
0
 10
89.749999999999318
 20
49.500000000000092
 30
0.0
 42
-0.0953788824809784
  0
SEQEND
  5
B2D
  8
0
  0
POLYLINE
  5
B2E
  8
0
 66
     1
 10
0.0
 20
0.0
 30
0.0
  0
VERTEX
  5
B2F
  8
0
 10
89.000000000000341
 20
50.276969178082211
 30
0.0
 42
-0.0069295081336133
  0
VERTEX
  5
B30
  8
0
 10
89.020081156712308
 20
50.276690859640347
 30
0.0
 42
-0.0997572060783242
  0
SEQEND
  5
B31
  8
0
  0
LINE
  5
B32
  8
0
 10
89.329370042953869
 20
49.920629957046472
 30
0.0
 11
89.750000000000213
 21
49.500000000000092
 31
0.0
  0
POLYLINE
  5
B33
  8
0
 66
     1
 10
0.0
 20
0.0
 30
0.0
  0
VERTEX
  5
B34
  8
0
 10
89.750000000000213
 20
49.819045029285157
 30
0.0
 42
-0.0794517953820712
  0
VERTEX
  5
B35
  8
0
 10
89.455724133456897
 20
49.866103582401912
 30
0.0
 42
-0.0884655862009624
  0
VERTEX
  5
B36
  8
0
 10
89.219669914110384
 20
49.993109651501648
 30
0.0
 42
-0.1051447802970453
 70
     2
 50
141.6069861121297
  0
VERTEX
  5
B37
  8
0
 10
89.054041489630038
 20
50.193303015262202
 30
0.0
 42
-0.121003536716326
  0
VERTEX
  5
B38
  8
0
 10
89.000000000000341
 20
50.413338823186081
 30
0.0
 42
-0.1210035367164111
  0
SEQEND
  5
B39
  8
0
  0
POLYLINE
  5
B3A
  8
0
 66
     1
 10
0.0
 20
0.0
 30
0.0
  0
VERTEX
  5
B3B
  8
0
 10
89.000000000000341
 20
50.784066628836378
 30
0.0
 42
-0.1208772919013222
  0
VERTEX
  5
B3C
  8
0
 10
89.277739494384491
 20
50.71592621154462
 30
0.0
 42
-0.105121356308238
  0
VERTEX
  5
B3D
  8
0
 10
89.530330085890171
 20
50.507178723923218
 30
0.0
 42
-0.0885237574562495
 70
     2
 50
308.42683967017228
  0
VERTEX
  5
B3E
  8
0
 10
89.706649784615834
 20
50.179842589344837
 30
0.0
 42
-0.0958417672167936
  0
VERTEX
  5
B3F
  8
0
 10
89.75000000000108
 20
49.838712188624747
 30
0.0
 42
-0.079542236943064
  0
SEQEND
  5
B40
  8
0
  0
LINE
  5
B41
  8
0
 10
89.000000000000341
 20
50.784066628836378
 30
0.0
 11
89.510992442964948
 21
50.784066628836378
 31
0.0
  0
POLYLINE
  5
B42
  8
0
 66
     1
 10
0.0
 20
0.0
 30
0.0
  0
VERTEX
  5
B43
  8
0
 10
89.748017925308488
 20
50.762237807328219
 30
0.0
 42
-0.0573212368222222
  0
VERTEX
  5
B44
  8
0
 10
89.448541357827139
 20
50.79713967964021
 30
0.0
 42
-0.0713686421340051
  0
VERTEX
  5
B45
  8
0
 10
89.219669914110384
 20
50.886709855324298
 30
0.0
 42
-0.1064083886195064
 70
     2
 50
150.4624183427386
  0
VERTEX
  5
B46
  8
0
 10
89.048290854892343
 20
51.039324566548188
 30
0.0
 42
-0.1591307399508841
  0
VERTEX
  5
B47
  8
0
 10
89.000000000000341
 20
51.187215556282823
 30
0.0
 42
-0.1591307399509122
  0
SEQEND
  5
B48
  8
0
  0
POLYLINE
  5
B49
  8
0
 66
     1
 10
0.0
 20
0.0
 30
0.0
  0
VERTEX
  5
B4A
  8
0
 10
89.000000000000341
 20
51.912468583527122
 30
0.0
 42
-0.1344835345205819
  0
VERTEX
  5
B4B
  8
0
 10
89.271866350301366
 20
51.837998638006923
 30
0.0
 42
-0.1068489369104784
  0
VERTEX
  5
B4C
  8
0
 10
89.530330085890171
 20
51.59836310728879
 30
0.0
 42
-0.0822666791136883
 70
     2
 50
304.96704830090329
  0
VERTEX
  5
B4D
  8
0
 10
89.706731030017124
 20
51.229544566180152
 30
0.0
 42
-0.0858739783149102
  0
VERTEX
  5
B4E
  8
0
 10
89.750000000000213
 20
50.840045406538522
 30
0.0
 42
-0.0127349594423328
  0
VERTEX
  5
B4F
  8
0
 10
89.748017925308488
 20
50.762237807328219
 30
0.0
 42
-0.0822666791136468
  0
SEQEND
  5
B50
  8
0
  0
POLYLINE
  5
B51
  8
0
 66
     1
 10
0.0
 20
0.0
 30
0.0
  0
VERTEX
  5
B52
  8
0
 10
89.000000000000284
 20
53.612858462061169
 30
0.0
 42
-0.1426764765518084
  0
VERTEX
  5
B53
  8
0
 10
89.268276863117762
 20
53.534714115516699
 30
0.0
 42
-0.1071714898372097
  0
VERTEX
  5
B54
  8
0
 10
89.530330085890171
 20
53.275263331054568
 30
0.0
 42
-0.0785589015149717
 70
     2
 50
303.0516672631573
  0
VERTEX
  5
B55
  8
0
 10
89.706844921075401
 20
52.88006618833839
 30
0.0
 42
-0.0805921738894916
  0
VERTEX
  5
B56
  8
0
 10
89.750000000000213
 20
52.460236587187282
 30
0.0
 42
-0.0243838330531286
  0
VERTEX
  5
B57
  8
0
 10
89.741613442120766
 20
52.28836919754233
 30
0.0
 42
-0.0785589015150244
  0
SEQEND
  5
B58
  8
0
  0
POLYLINE
  5
B59
  8
0
 66
     1
 10
0.0
 20
0.0
 30
0.0
  0
VERTEX
  5
B5A
  8
0
 10
89.741613442120766
 20
52.28836919754233
 30
0.0
 42
-0.0368582933129941
  0
VERTEX
  5
B5B
  8
0
 10
89.443490168703306
 20
52.31161386315685
 30
0.0
 42
-0.0504485433502363
  0
VERTEX
  5
B5C
  8
0
 10
89.219669914110384
 20
52.369314998077748
 30
0.0
 42
-0.0937814822835541
 70
     2
 50
159.767770157596
  0
VERTEX
  5
B5D
  8
0
 10
89.039137621155689
 20
52.477564535104797
 30
0.0
 42
-0.2140953676721142
  0
VERTEX
  5
B5E
  8
0
 10
89.000000000000341
 20
52.564777250663603
 30
0.0
 42
-0.2140953676721924
  0
SEQEND
  5
B5F
  8
0
  0
POLYLINE
  5
B60
  8
0
 66
     1
 10
0.0
 20
0.0
 30
0.0
  0
VERTEX
  5
B61
  8
0
 10
89.725992384171604
 20
54.330772678703518
 30
0.0
 42
-0.0197122562783022
  0
VERTEX
  5
B62
  8
0
 10
89.440693229067037
 20
54.343918544058681
 30
0.0
 42
-0.0296318328751298
  0
VERTEX
  5
B63
  8
0
 10
89.219669914110341
 20
54.376128120694879
 30
0.0
 42
-0.0648812112387953
 70
     2
 50
168.31412609880761
  0
VERTEX
  5
B64
  8
0
 10
89.026426948230721
 20
54.443083430169132
 30
0.0
  0
VERTEX
  5
B65
  8
0
 10
89.000000000000284
 20
54.48581785000939
 30
0.0
  0
SEQEND
  5
B66
  8
0
  0
POLYLINE
  5
B67
  8
0
 66
     1
 10
0.0
 20
0.0
 30
0.0
  0
VERTEX
  5
B68
  8
0
 10
89.000000000000284
 20
55.810921067370593
 30
0.0
 42
-0.1456454170458404
  0
VERTEX
  5
B69
  8
0
 10
89.266969052485763
 20
55.731470068121382
 30
0.0
 42
-0.1071670889738505
  0
VERTEX
  5
B6A
  8
0
 10
89.530330085890171
 20
55.464590808781878
 30
0.0
 42
-0.0772338470160484
 70
     2
 50
302.3860868906757
  0
VERTEX
  5
B6B
  8
0
 10
89.706894666775383
 20
55.059550403512283
 30
0.0
 42
-0.0787908513640569
  0
VERTEX
  5
B6C
  8
0
 10
89.750000000000213
 20
54.628475601436818
 30
0.0
 42
-0.0402560881893137
  0
VERTEX
  5
B6D
  8
0
 10
89.725992384171604
 20
54.330772678703518
 30
0.0
 42
-0.0772338470160163
  0
SEQEND
  5
B6E
  8
0
  0
POLYLINE
  5
B6F
  8
0
 66
     1
 10
0.0
 20
0.0
 30
0.0
  0
VERTEX
  5
B70
  8
0
 10
89.692554852017224
 20
56.800194736497872
 30
0.0
 42
-0.007466045661547
  0
VERTEX
  5
B71
  8
0
 10
89.439591039541938
 20
56.805687873836263
 30
0.0
 42
-0.0129085569485281
  0
VERTEX
  5
B72
  8
0
 10
89.219669914110341
 20
56.819441859959639
 30
0.0
 42
-0.0305668656978748
 70
     2
 50
174.9422223379043
  0
VERTEX
  5
B73
  8
0
 10
89.012778560148206
 20
56.850581265436929
 30
0.0
  0
VERTEX
  5
B74
  8
0
 10
89.000000000000227
 20
56.866378661953462
 30
0.0
  0
SEQEND
  5
B75
  8
0
  0
POLYLINE
  5
B76
  8
0
 66
     1
 10
0.0
 20
0.0
 30
0.0
  0
VERTEX
  5
B77
  8
0
 10
89.000000000000227
 20
58.41059051612875
 30
0.0
 42
-0.1434738734187271
  0
VERTEX
  5
B78
  8
0
 10
89.267925933730268
 20
58.332093940556831
 30
0.0
 42
-0.10717642937792
  0
VERTEX
  5
B79
  8
0
 10
89.530330085890114
 20
58.070661424135267
 30
0.0
 42
-0.078201946587953
 70
     2
 50
302.87146410678781
  0
VERTEX
  5
B7A
  8
0
 10
89.706857894976793
 20
57.672835933530557
 30
0.0
 42
-0.0801028274879396
  0
VERTEX
  5
B7B
  8
0
 10
89.750000000000213
 20
57.249999999999389
 30
0.0
 42
-0.0635973042085309
  0
VERTEX
  5
B7C
  8
0
 10
89.692554852017224
 20
56.800194736497872
 30
0.0
 42
-0.0782019465878784
  0
SEQEND
  5
B7D
  8
0
  0
POLYLINE
  5
B7E
  8
0
 66
     1
 10
0.0
 20
0.0
 30
0.0
  0
VERTEX
  5
B7F
  8
0
 10
89.750000000001933
 20
60.210236587187957
 30
0.0
 42
-0.116341825277163
  0
VERTEX
  5
B80
  8
0
 10
89.695302160682161
 20
59.978344570082072
 30
0.0
 42
-0.1041819656710092
  0
VERTEX
  5
B81
  8
0
 10
89.530330085891364
 20
59.770497695122017
 30
0.0
 42
-0.0906086175414611
 70
     2
 50
219.6648301604437
  0
VERTEX
  5
B82
  8
0
 10
89.293017646882788
 20
59.63726902902841
 30
0.0
 42
-0.0828977149716635
  0
VERTEX
  5
B83
  8
0
 10
89.000000000000227
 20
59.588351882125359
 30
0.0
 42
-0.0828977149716505
  0
SEQEND
  5
B84
  8
0
  0
POLYLINE
  5
B85
  8
0
 66
     1
 10
0.0
 20
0.0
 30
0.0
  0
VERTEX
  5
B86
  8
0
 10
89.000000000000227
 20
61.298248778826967
 30
0.0
 42
-0.1360999991723464
  0
VERTEX
  5
B87
  8
0
 10
89.271160728363029
 20
61.223045829000142
 30
0.0
 42
-0.1069529128000602
  0
VERTEX
  5
B88
  8
0
 10
89.530330085890114
 20
60.979577385909529
 30
0.0
 42
-0.0815299213519585
 70
     2
 50
304.5796807669646
  0
VERTEX
  5
B89
  8
0
 10
89.706750394381103
 20
60.605642364918047
 30
0.0
 42
-0.0847934043724306
  0
VERTEX
  5
B8A
  8
0
 10
89.750000000000213
 20
60.210236587187929
 30
0.0
 42
-0.0696446032640182
  0
SEQEND
  5
B8B
  8
0
  0
POLYLINE
  5
B8C
  8
0
 66
     1
 10
0.0
 20
0.0
 30
0.0
  0
VERTEX
  5
B8D
  8
0
 10
89.750000000000213
 20
63.379808819351268
 30
0.0
 42
-0.0922895830803223
  0
VERTEX
  5
B8E
  8
0
 10
89.692129278790404
 20
63.068951336224472
 30
0.0
 42
-0.0957025255079837
  0
VERTEX
  5
B8F
  8
0
 10
89.530330085890114
 20
62.810268442593753
 30
0.0
 42
-0.1009608214900936
 70
     2
 50
227.041725131438
  0
VERTEX
  5
B90
  8
0
 10
89.284372694453282
 20
62.634754003662309
 30
0.0
 42
-0.1050219590963969
  0
VERTEX
  5
B91
  8
0
 10
89.000000000000227
 20
62.574357094221689
 30
0.0
 42
-0.1050219590963579
  0
SEQEND
  5
B92
  8
0
  0
POLYLINE
  5
B93
  8
0
 66
     1
 10
0.0
 20
0.0
 30
0.0
  0
VERTEX
  5
B94
  8
0
 10
89.000000000000185
 20
64.347691332863533
 30
0.0
 42
-0.1233452667669979
  0
VERTEX
  5
B95
  8
0
 10
89.276684343997999
 20
64.278381439910291
 30
0.0
 42
-0.1055531643891276
  0
VERTEX
  5
B96
  8
0
 10
89.530330085890114
 20
64.064205108047673
 30
0.0
 42
-0.0873859604927064
 70
     2
 50
307.7716547869091
  0
VERTEX
  5
B97
  8
0
 10
89.706651745240549
 20
63.72954541052092
 30
0.0
 42
-0.0939071216341266
  0
VERTEX
  5
B98
  8
0
 10
89.750000000001535
 20
63.379808819351233
 30
0.0
 42
-0.0778018097759825
  0
SEQEND
  5
B99
  8
0
  0
LINE
  5
B9A
  8
0
 10
96.883944476212719
 20
50.276969178082197
 30
0.0
 11
96.991551129695097
 21
50.276969178082197
 31
0.0
  0
POLYLINE
  5
B9B
  8
0
 66
     1
 10
0.0
 20
0.0
 30
0.0
  0
VERTEX
  5
B9C
  8
0
 10
97.0
 20
50.719045029285184
 30
0.0
 42
-0.098491403357172
  0
VERTEX
  5
B9D
  8
0
 10
96.931491579260125
 20
50.374629940156581
 30
0.0
 42
-0.0984914033571507
  0
VERTEX
  5
B9E
  8
0
 10
96.736396103067875
 20
50.082648926217303
 30
0.0
 42
-0.0984914033571707
 70
     2
 50
225.00000000000051
  0
VERTEX
  5
B9F
  8
0
 10
96.444415089128597
 20
49.887553450025052
 30
0.0
 42
-0.09849140335718
  0
VERTEX
  5
BA0
  8
0
 10
96.100000000000023
 20
49.819045029285192
 30
0.0
 42
-0.0984914033571639
  0
SEQEND
  5
BA1
  8
0
  0
POLYLINE
  5
BA2
  8
0
 66
     1
 10
0.0
 20
0.0
 30
0.0
  0
VERTEX
  5
BA3
  8
0
 10
96.290419083844881
 20
50.782611072924936
 30
0.0
 42
-0.0036572197749306
  0
VERTEX
  5
BA4
  8
0
 10
96.472591128246222
 20
50.778492913681191
 30
0.0
 42
-0.0105515116696261
  0
VERTEX
  5
BA5
  8
0
 10
96.736396103067875
 20
50.76502224325143
 30
0.0
 42
-0.0251452480493319
 70
     2
 50
355.86777583416102
  0
VERTEX
  5
BA6
  8
0
 10
96.991501267861864
 20
50.733640284573191
 30
0.0
  0
VERTEX
  5
BA7
  8
0
 10
97.0
 20
50.719045029285169
 30
0.0
  0
SEQEND
  5
BA8
  8
0
  0
POLYLINE
  5
BA9
  8
0
 66
     1
 10
0.0
 20
0.0
 30
0.0
  0
VERTEX
  5
BAA
  8
0
 10
96.999999999988461
 20
51.662236318416852
 30
0.0
 42
-0.0984914033559866
  0
VERTEX
  5
BAB
  8
0
 10
96.931491579249325
 20
51.317821229287681
 30
0.0
 42
-0.0984914033566527
  0
VERTEX
  5
BAC
  8
0
 10
96.736396103059761
 20
51.025840215348957
 30
0.0
 42
-0.0984914033575997
 70
     2
 50
225.00000000036729
  0
VERTEX
  5
BAD
  8
0
 10
96.444415089123652
 20
50.830744739156508
 30
0.0
 42
-0.0984914033582744
  0
VERTEX
  5
BAE
  8
0
 10
96.100000000000023
 20
50.762236318416868
 30
0.0
 42
-0.0984914033582945
  0
SEQEND
  5
BAF
  8
0
  0
POLYLINE
  5
BB0
  8
0
 66
     1
 10
0.0
 20
0.0
 30
0.0
  0
VERTEX
  5
BB1
  8
0
 10
96.100000000000023
 20
51.912468583527158
 30
0.0
 42
-0.0286731224885913
  0
VERTEX
  5
BB2
  8
0
 10
96.469895845497945
 20
51.891238991889878
 30
0.0
 42
-0.0391513222091239
  0
VERTEX
  5
BB3
  8
0
 10
96.736396103067875
 20
51.839177249948023
 30
0.0
 42
-0.0801646192844235
 70
     2
 50
344.46216266258381
  0
VERTEX
  5
BB4
  8
0
 10
96.970167957820706
 20
51.731632342346579
 30
0.0
 42
-0.294951757472673
  0
VERTEX
  5
BB5
  8
0
 10
96.999999999988461
 20
51.662236318416859
 30
0.0
 42
-0.2499258999240178
  0
SEQEND
  5
BB6
  8
0
  0
POLYLINE
  5
BB7
  8
0
 66
     1
 10
0.0
 20
0.0
 30
0.0
  0
VERTEX
  5
BB8
  8
0
 10
97.000000000001023
 20
53.188351882124742
 30
0.0
 42
-0.098491403357272
  0
VERTEX
  5
BB9
  8
0
 10
96.931491579261092
 20
52.843936792996203
 30
0.0
 42
-0.0984914033572134
  0
VERTEX
  5
BBA
  8
0
 10
96.736396103068614
 20
52.55195577905684
 30
0.0
 42
-0.09849140335712
 70
     2
 50
224.99999999996831
  0
VERTEX
  5
BBB
  8
0
 10
96.444415089129052
 20
52.356860302864597
 30
0.0
 42
-0.0984914033570725
  0
VERTEX
  5
BBC
  8
0
 10
96.100000000000023
 20
52.288351882124729
 30
0.0
 42
-0.0984914033570564
  0
SEQEND
  5
BBD
  8
0
  0
POLYLINE
  5
BBE
  8
0
 66
     1
 10
0.0
 20
0.0
 30
0.0
  0
VERTEX
  5
BBF
  8
0
 10
96.100000000000023
 20
53.61285846206119
 30
0.0
 42
-0.0482732746754214
  0
VERTEX
  5
BC0
  8
0
 10
96.464882552566792
 20
53.577548026464981
 30
0.0
 42
-0.0620263071316972
  0
VERTEX
  5
BC1
  8
0
 10
96.736396103067932
 20
53.488523363456089
 30
0.0
 42
-0.1027185704896032
 70
     2
 50
334.74796779249289
  0
VERTEX
  5
BC2
  8
0
 10
96.958149208733346
 20
53.321532186071209
 30
0.0
 42
-0.2111340475038247
  0
VERTEX
  5
BC3
  8
0
 10
97.000000000007788
 20
53.188351882124742
 30
0.0
 42
-0.182131453288338
  0
SEQEND
  5
BC4
  8
0
  0
POLYLINE
  5
BC5
  8
0
 66
     1
 10
0.0
 20
0.0
 30
0.0
  0
VERTEX
  5
BC6
  8
0
 10
96.999999999989441
 20
55.230693147159812
 30
0.0
 42
-0.0984914033561535
  0
VERTEX
  5
BC7
  8
0
 10
96.931491579250235
 20
54.886278058030761
 30
0.0
 42
-0.0984914033567842
  0
VERTEX
  5
BC8
  8
0
 10
96.736396103060429
 20
54.594297044091917
 30
0.0
 42
-0.0984914033575878
 70
     2
 50
225.000000000337
  0
VERTEX
  5
BC9
  8
0
 10
96.444415089124064
 20
54.399201567899482
 30
0.0
 42
-0.0984914033582018
  0
VERTEX
  5
BCA
  8
0
 10
96.100000000000023
 20
54.330693147159799
 30
0.0
 42
-0.0984914033582041
  0
SEQEND
  5
BCB
  8
0
  0
POLYLINE
  5
BCC
  8
0
 66
     1
 10
0.0
 20
0.0
 30
0.0
  0
VERTEX
  5
BCD
  8
0
 10
96.100000000000023
 20
55.810921067370593
 30
0.0
 42
-0.0653310264213602
  0
VERTEX
  5
BCE
  8
0
 10
96.458925843791405
 20
55.763822054479689
 30
0.0
 42
-0.0780794551083624
  0
VERTEX
  5
BCF
  8
0
 10
96.736396103067932
 20
55.640976244174603
 30
0.0
 42
-0.1071770813466468
 70
     2
 50
327.19021783388661
  0
VERTEX
  5
BD0
  8
0
 10
96.952556015615585
 20
55.424479041208237
 30
0.0
 42
-0.1670152672045806
  0
VERTEX
  5
BD1
  8
0
 10
96.999999999991189
 20
55.230693147159791
 30
0.0
 42
-0.1437479045309739
  0
SEQEND
  5
BD2
  8
0
  0
POLYLINE
  5
BD3
  8
0
 66
     1
 10
0.0
 20
0.0
 30
0.0
  0
VERTEX
  5
BD4
  8
0
 10
97.0
 20
57.699999999999399
 30
0.0
 42
-0.0984914033571359
  0
VERTEX
  5
BD5
  8
0
 10
96.931491579260182
 20
57.355584910870789
 30
0.0
 42
-0.0984914033571132
  0
VERTEX
  5
BD6
  8
0
 10
96.736396103067932
 20
57.063603896931511
 30
0.0
 42
-0.0984914033571687
 70
     2
 50
225.00000000000091
  0
VERTEX
  5
BD7
  8
0
 10
96.444415089128597
 20
56.868508420739239
 30
0.0
 42
-0.0984914033571721
  0
VERTEX
  5
BD8
  8
0
 10
96.100000000000023
 20
56.799999999999393
 30
0.0
 42
-0.0984914033571638
  0
SEQEND
  5
BD9
  8
0
  0
POLYLINE
  5
BDA
  8
0
 66
     1
 10
0.0
 20
0.0
 30
0.0
  0
VERTEX
  5
BDB
  8
0
 10
96.100000000000023
 20
58.410590516128771
 30
0.0
 42
-0.0791839098011978
  0
VERTEX
  5
BDC
  8
0
 10
96.453246984810448
 20
58.354294580692937
 30
0.0
 42
-0.0882926717391475
  0
VERTEX
  5
BDD
  8
0
 10
96.736396103067932
 20
58.202463372601301
 30
0.0
 42
-0.1052135418914506
 70
     2
 50
321.70731906143789
  0
VERTEX
  5
BDE
  8
0
 10
96.950085557877856
 20
57.945026836501739
 30
0.0
 42
-0.1420393704271083
  0
VERTEX
  5
BDF
  8
0
 10
96.999999999997158
 20
57.699999999999378
 30
0.0
 42
-0.1213787435732019
  0
SEQEND
  5
BE0
  8
0
  0
POLYLINE
  5
BE1
  8
0
 66
     1
 10
0.0
 20
0.0
 30
0.0
  0
VERTEX
  5
BE2
  8
0
 10
97.0
 20
60.488351882125407
 30
0.0
 42
-0.0984914033571679
  0
VERTEX
  5
BE3
  8
0
 10
96.931491579260182
 20
60.14393679299684
 30
0.0
 42
-0.0984914033571643
  0
VERTEX
  5
BE4
  8
0
 10
96.736396103067932
 20
59.851955779057519
 30
0.0
 42
-0.0984914033571914
 70
     2
 50
225.00000000000091
  0
VERTEX
  5
BE5
  8
0
 10
96.444415089128597
 20
59.656860302865248
 30
0.0
 42
-0.09849140335718
  0
VERTEX
  5
BE6
  8
0
 10
96.100000000000023
 20
59.588351882125387
 30
0.0
 42
-0.0984914033571438
  0
SEQEND
  5
BE7
  8
0
  0
POLYLINE
  5
BE8
  8
0
 66
     1
 10
0.0
 20
0.0
 30
0.0
  0
VERTEX
  5
BE9
  8
0
 10
96.100000000000023
 20
61.298248778827002
 30
0.0
 42
-0.0894353177990173
  0
VERTEX
  5
BEA
  8
0
 10
96.448669178537401
 20
61.235379228077463
 30
0.0
 42
-0.0942677045368311
  0
VERTEX
  5
BEB
  8
0
 10
96.736396103067932
 20
61.061035469845031
 30
0.0
 42
-0.1020171205143204
 70
     2
 50
318.0164140974083
  0
VERTEX
  5
BEC
  8
0
 10
96.949020679366811
 20
60.772284327212859
 30
0.0
 42
-0.127549243512124
  0
VERTEX
  5
BED
  8
0
 10
96.999999999996476
 20
60.488351882125393
 30
0.0
 42
-0.1082657916875541
  0
SEQEND
  5
BEE
  8
0
  0
POLYLINE
  5
BEF
  8
0
 66
     1
 10
0.0
 20
0.0
 30
0.0
  0
VERTEX
  5
BF0
  8
0
 10
97.0
 20
63.473884436292153
 30
0.0
 42
-0.0985382942772341
  0
VERTEX
  5
BF1
  8
0
 10
96.931498789040972
 20
63.129672682319431
 30
0.0
 42
-0.0985108138432073
  0
VERTEX
  5
BF2
  8
0
 10
96.736396103067932
 20
62.837822552851449
 30
0.0
 42
-0.0984719755302262
 70
     2
 50
224.98495087945469
  0
VERTEX
  5
BF3
  8
0
 10
96.44443754494705
 20
62.642836737383043
 30
0.0
 42
-0.0984445302802987
  0
VERTEX
  5
BF4
  8
0
 10
96.100000000000023
 20
62.574357094221718
 30
0.0
 42
-0.0984445302803307
  0
SEQEND
  5
BF5
  8
0
  0
POLYLINE
  5
BF6
  8
0
 66
     1
 10
0.0
 20
0.0
 30
0.0
  0
VERTEX
  5
BF7
  8
0
 10
96.100000000000023
 20
64.347691332863562
 30
0.0
 42
-0.0958836768337548
  0
VERTEX
  5
BF8
  8
0
 10
96.445657826787624
 20
64.280790380230414
 30
0.0
 42
-0.0973727181123934
  0
VERTEX
  5
BF9
  8
0
 10
96.736396103067932
 20
64.09175921830537
 30
0.0
 42
-0.0995552790647585
 70
     2
 50
315.84600258058629
  0
VERTEX
  5
BFA
  8
0
 10
96.931904167055123
 20
63.807030077415199
 30
0.0
 42
-0.1011555278604192
  0
VERTEX
  5
BFB
  8
0
 10
97.0
 20
63.473884436292131
 30
0.0
 42
-0.1011555278603906
  0
SEQEND
  5
BFC
  8
0
  0
LINE
  5
BFD
  8
0
 10
89.000000000000185
 20
64.347691332863533
 30
0.0
 11
96.100000000000023
 21
64.347691332863548
 31
0.0
  0
LINE
  5
BFE
  8
0
 10
89.000000000000227
 20
62.574357094221689
 30
0.0
 11
96.100000000000023
 21
62.57435709422171
 31
0.0
  0
LINE
  5
BFF
  8
0
 10
89.000000000000227
 20
61.298248778826967
 30
0.0
 11
96.100000000000023
 21
61.298248778827002
 31
0.0
  0
LINE
  5
C00
  8
0
 10
89.000000000000227
 20
59.588351882125352
 30
0.0
 11
96.100000000000023
 21
59.58835188212538
 31
0.0
  0
LINE
  5
C01
  8
0
 10
89.000000000000227
 20
58.41059051612875
 30
0.0
 11
96.100000000000023
 21
58.41059051612875
 31
0.0
  0
LINE
  5
C02
  8
0
 10
89.692504275570514
 20
56.799999999999372
 30
0.0
 11
96.100000000000023
 21
56.799999999999372
 31
0.0
  0
LINE
  5
C03
  8
0
 10
89.000000000000284
 20
55.810921067370572
 30
0.0
 11
96.100000000000023
 21
55.810921067370593
 31
0.0
  0
LINE
  5
C04
  8
0
 10
89.725979471134039
 20
54.330693147159778
 30
0.0
 11
96.100000000000023
 21
54.330693147159792
 31
0.0
  0
LINE
  5
C05
  8
0
 10
89.000000000000284
 20
53.612858462061169
 30
0.0
 11
96.100000000000023
 21
53.61285846206119
 31
0.0
  0
LINE
  5
C06
  8
0
 10
89.741611748130651
 20
52.288351882124701
 30
0.0
 11
96.100000000000023
 21
52.288351882124708
 31
0.0
  0
LINE
  5
C07
  8
0
 10
89.000000000000341
 20
51.912468583527122
 30
0.0
 11
96.100000000000023
 21
51.912468583527144
 31
0.0
  0
LINE
  5
C08
  8
0
 10
89.748017849401435
 20
50.762236318416839
 30
0.0
 11
96.100000000000023
 21
50.762236318416853
 31
0.0
  0
LINE
  5
C09
  8
0
 10
89.750000000000213
 20
49.819045029285142
 30
0.0
 11
96.100000000000023
 21
49.819045029285157
 31
0.0
  0
ARC
  5
C0A
  8
0
 10
96.100000000000023
 20
50.400000000000119
 30
0.0
 40
0.9
 50
270.0
 51
352.14301302225482
  0
LINE
  5
C0B
  8
0
 10
96.987411967466699
 20
50.25
 30
0.0
 11
97.399999999999977
 21
50.25
 31
0.0
  0
LINE
  5
C0C
  8
0
 10
89.750000000000213
 20
49.500000000000092
 30
0.0
 11
96.100000000000023
 21
49.500000000000107
 31
0.0
  0
LINE
  5
C0D
  8
0
 10
89.000000000000341
 20
50.25
 30
0.0
 11
89.051227139574507
 21
50.198772860425862
 31
0.0
  0
LINE
  5
C0E
  8
0
 10
88.225137362834857
 20
50.25
 30
0.0
 11
89.000000000000341
 21
50.25
 31
0.0
  0
ARC
  5
C0F
  8
0
 10
141.96448931406039
 20
79.280954970714816
 30
0.0
 40
0.9
 50
19.856986977666761
 51
184.14301302233341
  0
ARC
  5
C10
  8
0
 10
139.06164501109279
 20
78.337763681583155
 30
0.0
 40
0.9
 50
31.856986977667258
 51
196.14301302233309
  0
ARC
  5
C11
  8
0
 10
136.4183353165291
 20
76.811648117875279
 30
0.0
 40
0.9
 50
43.856986977665919
 51
208.14301302233301
  0
ARC
  5
C12
  8
0
 10
134.1500855480291
 20
74.769306852840188
 30
0.0
 40
0.9
 50
55.856986977667319
 51
220.1430130223327
  0
ARC
  5
C13
  8
0
 10
132.35602910474611
 20
72.300000000000651
 30
0.0
 40
0.9
 50
67.856986977667333
 51
232.14301302233361
  0
ARC
  5
C14
  8
0
 10
131.11457486208951
 20
69.511648117874643
 30
0.0
 40
0.9
 50
79.856986977666011
 51
244.14301302233349
  0
ARC
  5
C15
  8
0
 10
130.47998032762189
 20
66.526115563707862
 30
0.0
 40
0.9
 50
91.856986977666196
 51
256.14301302233349
  0
ARC
  5
C16
  8
0
 10
130.47998032762189
 20
63.473884436292117
 30
0.0
 40
0.9
 50
103.85698697766639
 51
268.14301302233378
  0
ARC
  5
C17
  8
0
 10
131.11457486208951
 20
60.48835188212535
 30
0.0
 40
0.9
 50
115.85698697766649
 51
280.14301302233389
  0
ARC
  5
C18
  8
0
 10
132.35602910474611
 20
57.699999999999328
 30
0.0
 40
0.9
 50
127.8569869776663
 51
292.14301302233258
  0
ARC
  5
C19
  8
0
 10
134.1500855480291
 20
55.230693147159812
 30
0.0
 40
0.9
 50
139.85698697766739
 51
304.1430130223327
  0
ARC
  5
C1A
  8
0
 10
136.4183353165291
 20
53.188351882124763
 30
0.0
 40
0.9
 50
151.85698697766711
 51
316.14301302233412
  0
ARC
  5
C1B
  8
0
 10
139.06164501109279
 20
51.662236318416831
 30
0.0
 40
0.9
 50
163.85698697766691
 51
328.1430130223327
  0
ARC
  5
C1C
  8
0
 10
141.9644893140605
 20
50.719045029285184
 30
0.0
 40
0.9
 50
175.85698697766659
 51
340.14301302233321
  0
ARC
  5
C1D
  8
0
 10
145.0
 20
50.399999999998712
 30
0.0
 40
0.9
 50
187.85698697766651
 51
352.14301302233372
  0
ARC
  5
C1E
  8
0
 10
148.03551068593961
 20
50.719045029285184
 30
0.0
 40
0.9
 50
199.85698697766679
 51
4.1430130223335331
  0
ARC
  5
C1F
  8
0
 10
150.93835498890721
 20
51.662236318416859
 30
0.0
 40
0.9
 50
211.8569869776673
 51
16.14301302233314
  0
ARC
  5
C20
  8
0
 10
153.58166468347079
 20
53.188351882124742
 30
0.0
 40
0.9
 50
223.856986977666
 51
28.143013022332958
  0
ARC
  5
C21
  8
0
 10
155.8499144519709
 20
55.230693147159812
 30
0.0
 40
0.9
 50
235.8569869776673
 51
40.143013022332639
  0
ARC
  5
C22
  8
0
 10
157.64397089525389
 20
57.699999999999349
 30
0.0
 40
0.9
 50
247.85698697766739
 51
52.143013022333662
  0
ARC
  5
C23
  8
0
 10
158.88542513791049
 20
60.488351882125372
 30
0.0
 40
0.9
 50
259.856986977666
 51
64.143013022333506
  0
ARC
  5
C24
  8
0
 10
159.520019672378
 20
63.473884436292117
 30
0.0
 40
0.9
 50
271.85698697766622
 51
76.143013022333534
  0
ARC
  5
C25
  8
0
 10
159.520019672378
 20
66.526115563707876
 30
0.0
 40
0.9
 50
283.85698697766639
 51
88.143013022333804
  0
ARC
  5
C26
  8
0
 10
158.88542513791049
 20
69.511648117874614
 30
0.0
 40
0.9
 50
295.85698697766651
 51
100.143013022334
  0
ARC
  5
C27
  8
0
 10
157.64397089525389
 20
72.300000000000622
 30
0.0
 40
0.9
 50
307.85698697766628
 51
112.1430130223326
  0
ARC
  5
C28
  8
0
 10
155.8499144519709
 20
74.769306852840202
 30
0.0
 40
0.9
 50
319.85698697766742
 51
124.1430130223327
  0
ARC
  5
C29
  8
0
 10
153.58166468347079
 20
76.811648117875265
 30
0.0
 40
0.9
 50
331.85698697766708
 51
136.143013022334
  0
ARC
  5
C2A
  8
0
 10
150.93835498890721
 20
78.337763681583141
 30
0.0
 40
0.9
 50
343.85698697766691
 51
148.1430130223327
  0
ARC
  5
C2B
  8
0
 10
148.03551068593961
 20
79.280954970714816
 30
0.0
 40
0.9
 50
355.85698697766662
 51
160.14301302233321
  0
ARC
  5
C2C
  8
0
 10
145.0
 20
79.600000000001273
 30
0.0
 40
0.9
 50
7.8569869776664527
 51
172.14301302233349
  0
CIRCLE
  5
C2D
  8
0
 10
145.0
 20
65.0
 30
0.0
 40
14.75
  0
LINE
  5
C2E
  8
1
 10
163.0
 20
65.0
 30
0.0
 11
127.0000000000001
 21
65.0
 31
0.0
  0
LINE
  5
C2F
  8
1
 10
145.0
 20
83.000000000000014
 30
0.0
 11
145.0
 21
47.000000000000128
 31
0.0
  0
CIRCLE
  5
C30
  8
0
 10
145.0
 20
65.0
 30
0.0
 40
10.999999999999931
  0
CIRCLE
  5
C31
  8
0
 10
145.0
 20
65.0
 30
0.0
 40
5.4999999999999707
  0
CIRCLE
  5
C32
  8
0
 10
145.0
 20
65.0
 30
0.0
 40
11.99999999999994
  0
CIRCLE
  5
C33
  8
3
 10
145.0
 20
65.0
 30
0.0
 40
4.0
  0
CIRCLE
  5
C34
  8
0
 10
145.0
 20
65.0
 30
0.0
 40
3.3235000000000001
  0
ENDSEC
  0
EOF
