  0
SECTION
  2
HEADER
  9
$ACADVER
  1
AC1009
  9
$INSBASE
 10
0.0
 20
0.0
 30
0.0
  9
$EXTMIN
 10
0.0
 20
-2.960436562073669
 30
0.0
  9
$EXTMAX
 10
147.13358856808429
 20
88.059779420813015
 30
0.0
  9
$LIMMIN
 10
0.0
 20
0.0
  9
$LIMMAX
 10
187.5
 20
135.0
  9
$ORTHOMODE
 70
     1
  9
$REGENMODE
 70
     1
  9
$FILLMODE
 70
     1
  9
$QTEXTMODE
 70
     0
  9
$MIRRTEXT
 70
     0
  9
$DRAGMODE
 70
     2
  9
$LTSCALE
 40
5.0
  9
$OSMODE
 70
  3071
  9
$ATTMODE
 70
     1
  9
$TEXTSIZE
 40
0.2
  9
$TRACEWID
 40
0.05
  9
$TEXTSTYLE
  7
STANDARD
  9
$CLAYER
  8
0
  9
$CELTYPE
  6
BYLAYER
  9
$CECOLOR
 62
   256
  9
$DIMSCALE
 40
0.5
  9
$DIMASZ
 40
3.0
  9
$DIMEXO
 40
2.0
  9
$DIMDLI
 40
0.38
  9
$DIMRND
 40
0.0
  9
$DIMDLE
 40
0.0
  9
$DIMEXE
 40
2.0
  9
$DIMTP
 40
0.0
  9
$DIMTM
 40
0.0
  9
$DIMTXT
 40
3.0
  9
$DIMCEN
 40
0.0
  9
$DIMTSZ
 40
0.0
  9
$DIMTOL
 70
     0
  9
$DIMLIM
 70
     0
  9
$DIMTIH
 70
     0
  9
$DIMTOH
 70
     0
  9
$DIMSE1
 70
     0
  9
$DIMSE2
 70
     0
  9
$DIMTAD
 70
     1
  9
$DIMZIN
 70
     0
  9
$DIMBLK
  1

  9
$DIMASO
 70
     0
  9
$DIMSHO
 70
     0
  9
$DIMPOST
  1

  9
$DIMAPOST
  1

  9
$DIMALT
 70
     0
  9
$DIMALTD
 70
     2
  9
$DIMALTF
 40
25.399999999999999
  9
$DIMLFAC
 40
1.0
  9
$DIMTOFL
 70
     0
  9
$DIMTVP
 40
1.6000000000000001
  9
$DIMTIX
 70
     1
  9
$DIMSOXD
 70
     0
  9
$DIMSAH
 70
     0
  9
$DIMBLK1
  1

  9
$DIMBLK2
  1

  9
$DIMSTYLE
  2
STANDARD
  9
$DIMCLRD
 70
     0
  9
$DIMCLRE
 70
     0
  9
$DIMCLRT
 70
     0
  9
$DIMTFAC
 40
1.0
  9
$DIMGAP
 40
0.09
  9
$LUNITS
 70
     2
  9
$LUPREC
 70
     4
  9
$SKETCHINC
 40
0.1
  9
$FILLETRAD
 40
1.0
  9
$AUNITS
 70
     0
  9
$AUPREC
 70
     0
  9
$MENU
  1
E:\r13\win\SUPPORT\ACAD
  9
$ELEVATION
 40
0.0
  9
$PELEVATION
 40
0.0
  9
$THICKNESS
 40
0.0
  9
$LIMCHECK
 70
     0
  9
$BLIPMODE
 70
     0
  9
$CHAMFERA
 40
0.0
  9
$CHAMFERB
 40
0.0
  9
$SKPOLY
 70
     0
  9
$TDCREATE
 40
2449839.7858333332
  9
$TDUPDATE
 40
2456597.4858832289
  9
$TDINDWG
 40
0.0118106597
  9
$TDUSRTIMER
 40
0.0118106597
  9
$USRTIMER
 70
     1
  9
$ANGBASE
 50
0.0
  9
$ANGDIR
 70
     0
  9
$PDMODE
 70
     0
  9
$PDSIZE
 40
0.0
  9
$PLINEWID
 40
0.0
  9
$COORDS
 70
     1
  9
$SPLFRAME
 70
     0
  9
$SPLINETYPE
 70
     6
  9
$SPLINESEGS
 70
     8
  9
$ATTDIA
 70
     0
  9
$ATTREQ
 70
     1
  9
$HANDLING
 70
     1
  9
$HANDSEED
  5
80E
  9
$SURFTAB1
 70
     6
  9
$SURFTAB2
 70
     6
  9
$SURFTYPE
 70
     6
  9
$SURFU
 70
     6
  9
$SURFV
 70
     6
  9
$UCSNAME
  2

  9
$UCSORG
 10
0.0
 20
0.0
 30
0.0
  9
$UCSXDIR
 10
1.0
 20
0.0
 30
0.0
  9
$UCSYDIR
 10
0.0
 20
1.0
 30
0.0
  9
$PUCSNAME
  2

  9
$PUCSORG
 10
0.0
 20
0.0
 30
0.0
  9
$PUCSXDIR
 10
1.0
 20
0.0
 30
0.0
  9
$PUCSYDIR
 10
0.0
 20
1.0
 30
0.0
  9
$USERI1
 70
     0
  9
$USERI2
 70
     1
  9
$USERI3
 70
     1
  9
$USERI4
 70
     0
  9
$USERI5
 70
     0
  9
$USERR1
 40
0.0
  9
$USERR2
 40
0.0
  9
$USERR3
 40
0.0
  9
$USERR4
 40
0.0
  9
$USERR5
 40
0.0
  9
$WORLDVIEW
 70
     1
  9
$SHADEDGE
 70
     3
  9
$SHADEDIF
 70
    70
  9
$TILEMODE
 70
     1
  9
$MAXACTVP
 70
    16
  9
$PLIMCHECK
 70
     0
  9
$PEXTMIN
 10
1.0000000000000000E+020
 20
1.0000000000000000E+020
 30
1.0000000000000000E+020
  9
$PEXTMAX
 10
-1.0000000000000000E+020
 20
-1.0000000000000000E+020
 30
-1.0000000000000000E+020
  9
$PLIMMIN
 10
0.0
 20
0.0
  9
$PLIMMAX
 10
12.0
 20
9.0
  9
$UNITMODE
 70
     0
  9
$VISRETAIN
 70
     0
  9
$PLINEGEN
 70
     0
  9
$PSLTSCALE
 70
     0
  0
ENDSEC
  0
SECTION
  2
TABLES
  0
TABLE
  2
VPORT
 70
     1
  0
VPORT
  2
*ACTIVE
 70
     0
 10
0.0
 20
0.0
 11
1.0
 21
1.0
 12
93.74713919532617
 22
80.848703909439024
 13
0.0
 23
0.0
 14
5.0
 24
5.0
 15
5.0
 25
5.0
 16
0.0
 26
0.0
 36
1.0
 17
0.0
 27
0.0
 37
0.0
 40
169.22413112104309
 41
1.9089595375722539
 42
50.0
 43
0.0
 44
0.0
 50
0.0
 51
0.0
 71
     0
 72
   500
 73
     1
 74
     0
 75
     0
 76
     0
 77
     0
 78
     2
  0
ENDTAB
  0
TABLE
  2
LTYPE
 70
     4
  0
LTYPE
  2
CONTINUOUS
 70
     0
  3
Solid Line
 72
    65
 73
     0
 40
0.0
  0
LTYPE
  2
CENTER
 70
     0
  3
____ _ ____ _ ____ _ ____ _ ____ _ ____ _ ____
 72
    65
 73
     4
 40
2.0
 49
1.25
 49
-0.25
 49
0.25
 49
-0.25
  0
LTYPE
  2
HIDDEN
 70
     0
  3
_ _ _ _ _ _ _ _ _ _ _ _ _ _ _ _ _ _ _ _ _ _ _
 72
    65
 73
     2
 40
0.375
 49
0.25
 49
-0.125
  0
LTYPE
  2
PHANTOM2
 70
     0
  3
___ _ _ ___ _ _ ___ _ _ ___ _ _
 72
    65
 73
     6
 40
1.25
 49
0.625
 49
-0.125
 49
0.125
 49
-0.125
 49
0.125
 49
-0.125
  0
ENDTAB
  0
TABLE
  2
LAYER
 70
     4
  0
LAYER
  2
0
 70
     0
 62
     7
  6
CONTINUOUS
  0
LAYER
  2
1
 70
     0
 62
     1
  6
CENTER
  0
LAYER
  2
3
 70
     0
 62
     3
  6
CONTINUOUS
  0
LAYER
  2
2
 70
     0
 62
     2
  6
HIDDEN
  0
ENDTAB
  0
TABLE
  2
STYLE
 70
     2
  0
STYLE
  2
STANDARD
 70
     0
 40
0.0
 41
1.0
 50
0.0
 71
     0
 42
0.2
  3
TXT
  4
BIGFONT
  0
STYLE
  2
STANDARD1
 70
     0
 40
0.0
 41
1.0
 50
0.0
 71
     0
 42
3.0
  3
txt
  4

  0
ENDTAB
  0
TABLE
  2
VIEW
 70
     1
  0
VIEW
  2
ALL
 70
     0
 40
135.0
 10
110.4957983193277
 20
67.5
 41
0.0
 11
0.0
 21
0.0
 31
1.0
 12
0.0
 22
0.0
 32
0.0
 42
0.0
 43
0.0
 44
0.0
 50
0.0
 71
     0
  0
ENDTAB
  0
TABLE
  2
UCS
 70
     0
  0
ENDTAB
  0
TABLE
  2
APPID
 70
     3
  0
APPID
  2
ACAD
 70
     0
  0
APPID
  2
ACAD_MLEADERVER
 70
     0
  0
APPID
  2
ACAD_NAV_VCDISPLAY
 70
     0
  0
ENDTAB
  0
TABLE
  2
DIMSTYLE
 70
     1
  0
DIMSTYLE
  2
STANDARD
 70
     0
  3

  4

  5

  6

  7

 40
1.0
 41
0.18
 42
0.0625
 43
0.38
 44
0.18
 45
0.0
 46
0.0
 47
0.0
 48
0.0
140
0.18
141
0.09
142
0.0
143
25.399999999999999
144
1.0
145
0.0
146
1.0
147
0.09
 71
     0
 72
     0
 73
     1
 74
     1
 75
     0
 76
     0
 77
     0
 78
     0
170
     0
171
     2
172
     0
173
     0
174
     0
175
     0
176
     0
177
     0
178
     0
  0
ENDTAB
  0
ENDSEC
  0
SECTION
  2
BLOCKS
  0
BLOCK
  8
0
  2
$MODEL_SPACE
 70
     0
 10
0.0
 20
0.0
 30
0.0
  3
$MODEL_SPACE
  1

  0
ENDBLK
  5
47E
  8
0
  0
BLOCK
 67
     1
  8
0
  2
$PAPER_SPACE
 70
     0
 10
0.0
 20
0.0
 30
0.0
  3
$PAPER_SPACE
  1

  0
ENDBLK
  5
47C
 67
     1
  8
0
  0
ENDSEC
  0
SECTION
  2
ENTITIES
  0
LINE
  5
58C
  8
0
 10
99.772298303564511
 20
75.559779420812902
 30
0.0
 11
99.772298303564511
 21
70.559779420812902
 31
0.0
  0
LINE
  5
58D
  8
0
 10
86.973516951043536
 20
85.559779420812887
 30
0.0
 11
86.973516951043536
 21
65.559779420812902
 31
0.0
  0
LINE
  5
58E
  8
0
 10
95.772298303564739
 20
85.059779420813015
 30
0.0
 11
95.772298303564796
 21
66.059778467138685
 31
0.0
  0
LINE
  5
58F
  8
0
 10
99.4722983035645
 20
82.559779420812959
 30
0.0
 11
99.4722983035645
 21
68.559779420813129
 31
0.0
  0
LINE
  5
590
  8
0
 10
98.972298303564514
 20
83.059779420812959
 30
0.0
 11
98.972298303564514
 21
68.059779420813072
 31
0.0
  0
LINE
  5
591
  8
0
 10
88.231278641067917
 20
85.559779420813015
 30
0.0
 11
88.231278641067874
 21
65.559779420813015
 31
0.0
  0
LINE
  5
592
  8
2
 10
99.15886330356453
 20
77.946344420813034
 30
0.0
 11
99.15886330356453
 21
73.173214420812997
 31
0.0
  0
LINE
  5
593
  8
2
 10
89.385733303564493
 20
77.946344420813034
 30
0.0
 11
89.385733303564493
 21
73.173214420812997
 31
0.0
  0
LINE
  5
594
  8
0
 10
85.77229830356454
 20
71.319864656003404
 30
0.0
 11
85.772298303564483
 21
79.799694185622286
 31
0.0
  0
CIRCLE
  5
595
  8
0
 10
134.63358856808429
 20
75.559779420813015
 30
0.0
 40
2.386565
  0
CIRCLE
  5
599
  8
0
 10
134.63358856808429
 20
75.559779420813015
 30
0.0
 40
10.0
  0
ARC
  5
59A
  8
0
 10
138.05379000134101
 20
66.162853212953962
 30
0.0
 40
1.0
 50
197.13401601740111
 51
22.86598398259888
  0
ARC
  5
59B
  8
0
 10
141.06146466494971
 20
67.899334989623242
 30
0.0
 40
1.0
 50
217.13401601740071
 51
42.865983982598053
  0
ARC
  5
59C
  8
0
 10
144.48166609820629
 20
73.823297644143736
 30
0.0
 40
1.0
 50
257.13401601740151
 51
82.865983982597868
  0
ARC
  5
59D
  8
0
 10
143.2938426059286
 20
70.559779420813015
 30
0.0
 40
1.0
 50
237.13401601740119
 51
62.865983982598472
  0
ARC
  5
59E
  8
0
 10
131.2133871348276
 20
66.162853212953962
 30
0.0
 40
1.0
 50
157.13401601740111
 51
342.86598398259878
  0
ARC
  5
59F
  8
0
 10
128.2057124712189
 20
67.899334989623242
 30
0.0
 40
1.0
 50
137.1340160174019
 51
322.8659839825994
  0
ARC
  5
5A0
  8
0
 10
134.63358856808429
 20
65.559779420813015
 30
0.0
 40
1.0
 50
177.13401601740131
 51
2.8659839825986779
  0
ARC
  5
5A1
  8
0
 10
125.9733345302399
 20
70.559779420813015
 30
0.0
 40
1.0
 50
117.13401601740151
 51
302.86598398259878
  0
ARC
  5
5A2
  8
0
 10
124.78551103796219
 20
73.823297644143736
 30
0.0
 40
1.0
 50
97.134016017402161
 51
282.86598398259849
  0
ARC
  5
5A3
  8
0
 10
88.231278641067874
 20
73.953735459663676
 30
0.0
 40
0.8618205663400004
 50
64.222509298708573
 51
90.0
  0
ARC
  5
5A4
  8
0
 10
88.790818293879724
 20
82.747053463621967
 30
0.0
 40
9.9226804286312333
 50
267.9617350948738
 51
269.15542787273091
  0
ARC
  5
5A5
  8
0
 10
88.231278641067874
 20
70.719565337070264
 30
0.0
 40
0.7301562783430882
 50
60.069549655233637
 51
90.0
  0
ARC
  5
5A6
  8
0
 10
88.977806978791065
 20
72.366533035139014
 30
0.0
 40
2.8001098847487511
 50
260.27522539771388
 51
265.93954590453939
  0
ARC
  5
5A8
  8
0
 10
88.231278641067917
 20
67.875730614330791
 30
0.0
 40
0.7038902198163158
 50
59.074612464690581
 51
90.0
  0
ARC
  5
5A9
  8
0
 10
88.231278641067874
 20
65.789770226066935
 30
0.0
 40
0.7616599685350282
 50
61.180968465385519
 51
90.0
  0
ARC
  5
5AA
  8
0
 10
89.048222783992102
 20
68.329901510886074
 30
0.0
 40
1.4165325551961081
 50
248.11922752331969
 51
260.55525729755692
  0
ARC
  5
5AB
  8
0
 10
89.128928841477077
 20
66.226334343530311
 30
0.0
 40
1.0489684945263871
 50
234.77321735914401
 51
253.69656235168199
  0
LINE
  5
5AC
  8
0
 10
88.231278641067917
 20
65.559779420813015
 30
0.0
 11
89.231278641067874
 21
64.559779420811196
 31
0.0
  0
LINE
  5
5AD
  8
0
 10
88.231278641067917
 20
74.815556026003719
 30
0.0
 11
93.772298303564739
 21
74.815556026003719
 31
0.0
  0
LINE
  5
5AE
  8
0
 10
88.231278641067874
 20
71.449721615413353
 30
0.0
 11
93.772298303564739
 21
71.449721615413353
 31
0.0
  0
LINE
  5
5AF
  8
0
 10
88.231278641067874
 20
68.579620834147136
 30
0.0
 11
93.772298303564739
 21
68.579620834147136
 31
0.0
  0
LINE
  5
5B0
  8
0
 10
88.231278641067917
 20
66.551430194602005
 30
0.0
 11
93.772298303564739
 21
66.551430194601949
 31
0.0
  0
ARC
  5
5B1
  8
0
 10
93.772298303565023
 20
67.899334989622943
 30
0.0
 40
0.9999999999996161
 50
292.49999999999011
 51
314.99999999999881
  0
ARC
  5
5B2
  8
0
 10
87.146623804091732
 20
67.133290546507283
 30
0.0
 40
2.084654836976199
 50
353.55626404070648
 51
359.9999999999178
  0
ARC
  5
5B3
  8
0
 10
93.946656978791154
 20
65.066595305242629
 30
0.0
 40
1.470892758180429
 50
68.765019435994532
 51
80.856443276271094
  0
ARC
  5
5B4
  8
0
 10
93.772298303557804
 20
66.16285321293617
 30
0.0
 40
0.9999999999835987
 50
292.50000000035288
 51
315.00000000050261
  0
ARC
  5
5B5
  8
0
 10
93.772298303564739
 20
65.559779420811196
 30
0.0
 40
1.0
 50
270.0
 51
0.0
  0
ARC
  5
5B6
  8
0
 10
94.637532646296776
 20
66.180358420515006
 30
0.0
 40
0.1358978096596439
 50
352.59907823389801
 51
46.8290809158648
  0
ARC
  5
5B7
  8
0
 10
93.772298303530278
 20
66.162853212953848
 30
0.0
 40
1.000000000016996
 50
337.50000000035931
 51
0.0000000000048853
  0
LINE
  5
5B8
  8
0
 10
94.765782296642712
 20
65.570721232309722
 30
0.0
 11
94.772298303565648
 21
65.559779420813015
 31
0.0
  0
ARC
  5
5B9
  8
0
 10
95.272298303564725
 20
66.059779420813015
 30
0.0
 40
0.5
 50
270.0
 51
0.0
  0
LINE
  5
5BA
  8
0
 10
94.772298303564739
 20
65.559779420813015
 30
0.0
 11
95.272298303564725
 21
65.559779420813015
 31
0.0
  0
ARC
  5
5BB
  8
0
 10
94.196940407684096
 20
65.710697865902205
 30
0.0
 40
0.7798718442952932
 50
46.829080916526081
 51
68.765019435996351
  0
ARC
  5
5BC
  8
0
 10
93.772298303547117
 20
66.162853212947027
 30
0.0
 40
0.9999999999988446
 50
315.00000000049511
 51
337.5000000003505
  0
ARC
  5
5BD
  8
0
 10
94.274821991323904
 20
61.503472891310139
 30
0.0
 40
4.0967732532765799
 50
83.117089139468376
 51
85.579333032588323
  0
ARC
  5
5BE
  8
0
 10
93.772298303564739
 20
63.983311687506671
 30
0.0
 40
2.5681185070953338
 50
80.856443276267754
 51
90.0
  0
ARC
  5
5BF
  8
0
 10
93.772298303564739
 20
67.899334989623014
 30
0.0
 40
0.9999999999997488
 50
270.0
 51
292.50000000000432
  0
ARC
  5
5C0
  8
0
 10
87.901179278390131
 20
65.307109925267014
 30
0.0
 40
1.3327459642121009
 50
356.3885623795814
 51
17.319801973274799
  0
ARC
  5
5C1
  8
0
 10
87.732457209677861
 20
65.254494877083843
 30
0.0
 40
1.5094815853128409
 50
17.319801973274799
 51
36.97459896292861
  0
LINE
  5
5C2
  8
0
 10
89.218108920313796
 20
66.899334989623298
 30
0.0
 11
93.772298303564739
 21
66.899334989623298
 31
0.0
  0
ARC
  5
5C3
  8
0
 10
88.378962705925446
 20
64.620096590750109
 30
0.0
 40
0.8544475491727169
 50
355.95200898738477
 51
21.528694239506379
  0
LINE
  5
5C4
  8
0
 10
89.230244249578263
 20
65.162853212953905
 30
0.0
 11
93.772298303564739
 21
65.162853212953905
 31
0.0
  0
LINE
  5
5C5
  8
0
 10
89.231278641067874
 20
64.559779420811196
 30
0.0
 11
93.772298303564739
 21
64.559779420811196
 31
0.0
  0
ARC
  5
5C6
  8
0
 10
93.772298303564739
 20
66.162853212919458
 30
0.0
 40
0.9999999999655251
 50
270.0
 51
292.50000000035152
  0
ARC
  5
5C7
  8
0
 10
87.472732682732584
 20
65.223160592121246
 30
0.0
 40
1.758545958335332
 50
358.03471957437711
 51
0.0000000015234094
  0
ARC
  5
5C8
  8
0
 10
88.111238034573987
 20
64.51448212422099
 30
0.0
 40
1.1422511544150391
 50
21.52869423951153
 51
35.350164888277831
  0
ARC
  5
5C9
  8
0
 10
88.081252825136275
 20
65.517088867655616
 30
0.0
 40
1.0728879696387199
 50
36.974598962933811
 51
61.180968465385916
  0
ARC
  5
5CA
  8
0
 10
89.218108920311806
 20
69.351150492602073
 30
0.0
 40
2.451815502978774
 50
260.55525729756681
 51
270.00000000005531
  0
ARC
  5
5CB
  8
0
 10
89.23024424957832
 20
66.572728867549245
 30
0.0
 40
1.409875654595325
 50
253.69656235167349
 51
269.99999999999841
  0
ARC
  5
5CC
  8
0
 10
93.775372184830459
 20
73.81540449709496
 30
0.0
 40
0.9995444728377403
 50
45.222641710288691
 51
67.657000469533301
  0
ARC
  5
5CD
  8
0
 10
93.772298303564455
 20
70.559779420811694
 30
0.0
 40
0.9999999999986716
 50
292.50000000002001
 51
315.00000000003507
  0
ARC
  5
5CE
  8
0
 10
93.813969903301569
 20
70.441335037437284
 30
0.0
 40
1.0009505263926071
 50
48.332765547693079
 51
69.764795630715028
  0
ARC
  5
5CF
  8
0
 10
93.710831080264128
 20
73.884764867442513
 30
0.0
 40
1.086927780831257
 50
292.50000000002331
 51
315.0000000000357
  0
LINE
  5
5D0
  8
2
 10
99.15886330356453
 20
73.173214420812997
 30
0.0
 11
89.385733303564493
 21
73.173214420812997
 31
0.0
  0
ARC
  5
5D1
  8
0
 10
93.881110648788635
 20
67.500894660443066
 30
0.0
 40
1.0636882149022899
 50
55.773100173317523
 51
74.263032959059871
  0
LINE
  5
5D2
  8
2
 10
99.772298303564511
 20
72.559779420813015
 30
0.0
 11
88.772298303564511
 21
72.559779420813015
 31
0.0
  0
LINE
  5
5D3
  8
2
 10
99.4722983035645
 20
70.559779420812959
 30
0.0
 11
88.772298303564511
 21
70.559779420812959
 31
0.0
  0
ARC
  5
5D4
  8
0
 10
93.829650351350935
 20
70.458954662784322
 30
0.0
 40
0.9773639274771941
 50
24.959092419305911
 51
48.332765547693633
  0
ARC
  5
5D5
  8
0
 10
93.772298303562351
 20
70.559779420813015
 30
0.0
 40
1.0000000000012499
 50
337.50000000002569
 51
0.0000000000016284
  0
ARC
  5
5D6
  8
0
 10
94.148917271125526
 20
70.607553851576938
 30
0.0
 40
0.6252090113221325
 50
355.6175549909932
 51
24.959092419096809
  0
LINE
  5
5D7
  8
0
 10
99.772298303564511
 20
70.559779420812902
 30
0.0
 11
99.4722983035645
 21
70.559779420812959
 31
0.0
  0
ARC
  5
5D8
  8
0
 10
93.772298303563474
 20
70.559779420812788
 30
0.0
 40
1.0000000000000979
 50
315.00000000003052
 51
337.5000000000154
  0
ARC
  5
5D9
  8
0
 10
94.396631881141374
 20
67.932507438202606
 30
0.0
 40
0.3771281907760291
 50
354.95370322027509
 51
31.336467765507521
  0
ARC
  5
5DA
  8
0
 10
93.772298303564625
 20
67.899334989623298
 30
0.0
 40
1.0000000000001701
 50
337.50000000000449
 51
359.99999999999682
  0
LINE
  5
5DB
  8
0
 10
98.972298303564514
 20
68.059779420813072
 30
0.0
 11
95.772298303564739
 21
68.059779420813072
 31
0.0
  0
LINE
  5
5DC
  8
0
 10
98.972298303564514
 20
68.059779420813072
 30
0.0
 11
99.4722983035645
 21
68.559779420813072
 31
0.0
  0
ARC
  5
5DD
  8
0
 10
94.017822890220145
 20
67.701857597614151
 30
0.0
 40
0.8206319681739863
 50
31.336467766570891
 51
55.773100173321581
  0
ARC
  5
5DE
  8
0
 10
93.772298303564625
 20
67.899334989623469
 30
0.0
 40
1.0000000000002449
 50
314.9999999999954
 51
337.4999999999942
  0
ARC
  5
5DF
  8
0
 10
94.006475767056472
 20
73.87897754179221
 30
0.0
 40
0.7678440000561196
 50
355.84156981211129
 51
22.657865625856608
  0
ARC
  5
5E0
  8
0
 10
93.772298303562351
 20
73.823297644143679
 30
0.0
 40
1.000000000001136
 50
337.50000000002422
 51
0.0000000000016284
  0
LINE
  5
5E1
  8
2
 10
99.15886330356453
 20
73.173214420812997
 30
0.0
 11
99.772298303564511
 21
72.559779420813015
 31
0.0
  0
ARC
  5
5E2
  8
0
 10
93.719643083712967
 20
73.759240596505705
 30
0.0
 40
1.0786653704613169
 50
22.657865626276251
 51
45.222641710293288
  0
ARC
  5
5E3
  8
0
 10
93.772298303563545
 20
73.823297644143167
 30
0.0
 40
0.9999999999998429
 50
315.00000000003678
 51
337.5000000000249
  0
ARC
  5
5E4
  8
0
 10
88.048785918943608
 20
70.402590712874769
 30
0.0
 40
1.0959109857799341
 50
35.733293335825891
 51
60.069549655235448
  0
ARC
  5
5E5
  8
0
 10
93.772298303564739
 20
70.559779420810628
 30
0.0
 40
0.9999999999975791
 50
270.0
 51
292.50000000002689
  0
ARC
  5
5E6
  8
0
 10
87.305889277469618
 20
70.059779420816938
 30
0.0
 40
1.925389363598299
 50
344.9484658297846
 51
359.99999999988438
  0
ARC
  5
5E7
  8
0
 10
87.781706495047544
 20
70.149173332210182
 30
0.0
 40
1.4523259544306959
 50
356.47108588189599
 51
16.594465023099929
  0
ARC
  5
5E8
  8
0
 10
87.636335962606296
 20
70.105851785212963
 30
0.0
 40
1.6040142800740329
 50
16.59446502310508
 51
35.73329333583176
  0
LINE
  5
5E9
  8
0
 10
89.165223621114464
 20
69.559779420813015
 30
0.0
 11
93.772298303564739
 21
69.559779420813015
 31
0.0
  0
ARC
  5
5EA
  8
0
 10
93.772298303564739
 20
67.114738985284589
 30
0.0
 40
1.4648818488625031
 50
74.263032959054939
 51
90.0
  0
ARC
  5
5EB
  8
0
 10
87.146623804092243
 20
67.133290546504099
 30
0.0
 40
2.0846548369756879
 50
0.0000000000040711
 51
15.9811476890295
  0
ARC
  5
5EC
  8
0
 10
87.680240179976735
 20
67.286112582995031
 30
0.0
 40
1.529586362416627
 50
15.98114768902358
 51
34.660175928550238
  0
ARC
  5
5ED
  8
0
 10
88.017913443760776
 20
67.519581567686032
 30
0.0
 40
1.119061089275978
 50
34.660175928555446
 51
59.074612464690993
  0
ARC
  5
5EE
  8
0
 10
89.165223621113441
 20
75.006681032508027
 30
0.0
 40
5.4469016116949973
 50
265.9395459045295
 51
270.0
  0
ARC
  5
5EF
  8
0
 10
93.772298303564739
 20
73.807925592430138
 30
0.0
 40
1.0076304335735671
 50
67.657000469533301
 51
90.0
  0
ARC
  5
5F0
  8
0
 10
88.192175479387217
 20
73.719586740168609
 30
0.0
 40
1.041454081016679
 50
356.14949083904202
 51
19.558684234111521
  0
ARC
  5
5F1
  8
0
 10
87.964367331628281
 20
73.638652960656245
 30
0.0
 40
1.2832118706564579
 50
19.55868423410638
 51
40.6197466748499
  0
ARC
  5
5F2
  8
0
 10
93.772298303564739
 20
70.328289334175793
 30
0.0
 40
1.121432281237559
 50
69.764795630720172
 51
90.0
  0
ARC
  5
5F3
  8
0
 10
93.82859315115023
 20
73.600462078776673
 30
0.0
 40
0.7792006598579019
 50
265.85694687569833
 51
292.50000000001671
  0
ARC
  5
5F4
  8
0
 10
88.160252987287535
 20
73.492634519115711
 30
0.0
 40
1.0251439755333711
 50
319.23788869111479
 51
319.38025331353788
  0
ARC
  5
5F5
  8
0
 10
88.049299167694684
 20
73.587799794898046
 30
0.0
 40
1.1713191437288399
 50
319.3802533251465
 51
340.44131576588609
  0
LINE
  5
5F6
  8
0
 10
88.936724698539876
 20
72.823297644143736
 30
0.0
 11
93.772298303564739
 21
72.823297644143736
 31
0.0
  0
ARC
  5
5F7
  8
0
 10
87.875207963666057
 20
73.649649466476831
 30
0.0
 40
1.356070677401874
 50
340.44131576589649
 51
0.0
  0
ARC
  5
5F8
  8
0
 10
88.160252987221924
 20
73.80666441405549
 30
0.0
 40
1.025143975441509
 50
40.619746674845302
 51
64.222509298703457
  0
ARC
  5
5F9
  8
0
 10
88.936724698538271
 20
92.644628136922336
 30
0.0
 40
19.821330492780248
 50
269.15542787274711
 51
270.0
  0
LINE
  5
5FA
  8
2
 10
89.385733303564493
 20
73.173214420812997
 30
0.0
 11
88.772298303564511
 21
72.559779420813015
 31
0.0
  0
ARC
  5
5FB
  8
0
 10
88.804906040963004
 20
67.72404468358161
 30
0.0
 40
0.7636424169418001
 50
225.885252158686
 51
248.11922752331611
  0
ARC
  5
5FC
  8
0
 10
120.5145366135403
 20
75.559779420812902
 30
0.0
 40
35.0
 50
186.95792412324951
 51
196.60154959901979
  0
ARC
  5
5FD
  8
0
 10
88.633779985210225
 20
65.833445873020423
 30
0.0
 40
0.4040029029770103
 50
175.0585868359419
 51
210.39600631459189
  0
ARC
  5
5FE
  8
0
 10
89.005453652450669
 20
66.05147069565146
 30
0.0
 40
0.8349044441708668
 50
210.39600631459641
 51
234.7732173591445
  0
ARC
  5
5FF
  8
0
 10
88.231278641067874
 20
64.6562427558992
 30
0.0
 40
0.9535366649138126
 50
85.961459380820969
 51
89.999999999996746
  0
LINE
  5
600
  8
0
 10
86.973516951043536
 20
65.559779420813015
 30
0.0
 11
88.231278641067917
 21
65.559779420813015
 31
0.0
  0
LINE
  5
601
  8
0
 10
88.259621381816714
 20
69.677437733396175
 30
0.0
 11
88.231278641067917
 21
69.719837226212746
 31
0.0
  0
ARC
  5
602
  8
0
 10
88.698916797411783
 20
70.739195435247083
 30
0.0
 40
1.149047379180961
 50
247.52298909588851
 51
260.27522539771559
  0
ARC
  5
603
  8
0
 10
88.372248320984895
 20
67.277806443890654
 30
0.0
 40
0.1420949374849575
 50
172.7845849791141
 51
225.88525215827249
  0
LINE
  5
604
  8
0
 10
88.236340054698616
 20
72.842889138908035
 30
0.0
 11
88.231278641067917
 21
72.848404080050386
 31
0.0
  0
ARC
  5
605
  8
0
 10
88.581166228838796
 20
76.856204469210979
 30
0.0
 40
4.0281019141546581
 50
265.08917709655981
 51
267.9617350948738
  0
ARC
  5
607
  8
0
 10
138.05379000134101
 20
84.956705628672125
 30
0.0
 40
1.0
 50
337.13401601740111
 51
162.86598398259881
  0
ARC
  5
608
  8
0
 10
141.06146466494971
 20
83.220223852002789
 30
0.0
 40
1.0
 50
317.1340160174019
 51
142.8659839825994
  0
ARC
  5
609
  8
0
 10
144.4816660982064
 20
77.296261197482352
 30
0.0
 40
1.0
 50
277.13401601740048
 51
102.86598398259849
  0
ARC
  5
60A
  8
0
 10
143.29384260592869
 20
80.559779420813015
 30
0.0
 40
1.0
 50
297.13401601740151
 51
122.86598398259881
  0
LINE
  5
60B
  8
1
 10
102.2722983035647
 20
75.559779420813015
 30
0.0
 11
83.272298303564739
 21
75.559779420813015
 31
0.0
  0
ARC
  5
60C
  8
0
 10
128.2057124712189
 20
83.220223852002789
 30
0.0
 40
1.0
 50
37.134016017401272
 51
222.8659839825992
  0
ARC
  5
60E
  8
0
 10
134.63358856808429
 20
85.559779420813015
 30
0.0
 40
1.0
 50
357.13401601740128
 51
182.86598398259861
  0
ARC
  5
60F
  8
0
 10
131.2133871348276
 20
84.956705628672125
 30
0.0
 40
1.0
 50
17.13401601740113
 51
202.86598398259889
  0
ARC
  5
610
  8
0
 10
124.78551103796219
 20
77.296261197482295
 30
0.0
 40
1.0
 50
77.134016017401464
 51
262.86598398259952
  0
ARC
  5
611
  8
0
 10
125.9733345302399
 20
80.559779420813015
 30
0.0
 40
1.0
 50
57.134016017401208
 51
242.86598398259849
  0
ARC
  5
612
  8
0
 10
89.128928841477077
 20
84.893224498095719
 30
0.0
 40
1.0489684945263871
 50
106.303437648318
 51
125.2267826408559
  0
ARC
  5
613
  8
0
 10
89.048222783992102
 20
82.789657330739999
 30
0.0
 40
1.4165325551961081
 50
99.444742702443108
 51
111.88077247668031
  0
ARC
  5
614
  8
0
 10
88.231278641067874
 20
85.329788615559096
 30
0.0
 40
0.7616599685350282
 50
270.0
 51
298.81903153461451
  0
ARC
  5
615
  8
0
 10
88.231278641067917
 20
83.243828227295225
 30
0.0
 40
0.7038902198163158
 50
270.0
 51
300.92538753530943
  0
ARC
  5
616
  8
0
 10
88.977806978791065
 20
78.753025806487017
 30
0.0
 40
2.8001098847487511
 50
94.060454095459008
 51
99.724774602286132
  0
ARC
  5
617
  8
0
 10
88.231278641067874
 20
80.399993504555766
 30
0.0
 40
0.7301562783430882
 50
270.0
 51
299.93045034476643
  0
ARC
  5
618
  8
0
 10
88.790818293879724
 20
68.372505378004121
 30
0.0
 40
9.9226804286312333
 50
90.844572127269132
 51
92.038264905126212
  0
LINE
  5
61A
  8
0
 10
88.231278641067917
 20
84.568128647024082
 30
0.0
 11
93.772298303564739
 21
84.568128647024082
 31
0.0
  0
LINE
  5
61B
  8
0
 10
88.231278641067874
 20
82.539938007478952
 30
0.0
 11
93.772298303564739
 21
82.539938007478952
 31
0.0
  0
LINE
  5
61C
  8
0
 10
88.231278641067874
 20
79.669837226212735
 30
0.0
 11
93.772298303564739
 21
79.669837226212678
 31
0.0
  0
LINE
  5
61D
  8
0
 10
88.231278641067917
 20
85.559779420813015
 30
0.0
 11
89.231278641067874
 21
86.559779420814834
 31
0.0
  0
ARC
  5
61E
  8
0
 10
88.231278641067874
 20
77.165823381962355
 30
0.0
 40
0.8618205663400004
 50
270.0
 51
295.77749070129141
  0
LINE
  5
61F
  8
0
 10
88.231278641067917
 20
76.304002815622312
 30
0.0
 11
93.772298303564739
 21
76.304002815622368
 31
0.0
  0
ARC
  5
620
  8
0
 10
87.146623804092243
 20
83.986268295121945
 30
0.0
 40
2.0846548369756879
 50
344.01885231097049
 51
359.99999999999591
  0
ARC
  5
621
  8
0
 10
93.772298303564625
 20
83.220223852002732
 30
0.0
 40
1.0000000000001701
 50
0.0000000000032569
 51
22.499999999995499
  0
ARC
  5
622
  8
0
 10
93.881110648788635
 20
83.618664181183007
 30
0.0
 40
1.0636882149022899
 50
285.7369670409401
 51
304.22689982668248
  0
ARC
  5
623
  8
0
 10
93.710831080264128
 20
77.234793974183503
 30
0.0
 40
1.086927780831257
 50
44.999999999964309
 51
67.499999999976694
  0
ARC
  5
624
  8
0
 10
93.813969903301569
 20
80.678223804188747
 30
0.0
 40
1.0009505263926071
 50
290.23520436928499
 51
311.6672344523069
  0
ARC
  5
625
  8
0
 10
93.772298303564455
 20
80.559779420814394
 30
0.0
 40
0.9999999999986716
 50
44.999999999964878
 51
67.49999999998002
  0
LINE
  5
626
  8
2
 10
99.15886330356453
 20
77.946344420813034
 30
0.0
 11
89.385733303564493
 21
77.946344420813034
 31
0.0
  0
LINE
  5
627
  8
2
 10
99.4722983035645
 20
80.559779420812959
 30
0.0
 11
88.772298303564511
 21
80.559779420812959
 31
0.0
  0
LINE
  5
628
  8
2
 10
99.772298303564511
 20
78.559779420813015
 30
0.0
 11
88.772298303564511
 21
78.559779420813015
 31
0.0
  0
ARC
  5
629
  8
0
 10
93.775372184830459
 20
77.304154344531071
 30
0.0
 40
0.9995444728377403
 50
292.34299953046519
 51
314.7773582897114
  0
LINE
  5
62A
  8
0
 10
99.772298303564511
 20
75.559779420813015
 30
0.0
 11
99.772298303564511
 21
80.559779420813015
 31
0.0
  0
LINE
  5
62B
  8
2
 10
99.772298303564511
 20
78.559779420813015
 30
0.0
 11
99.15886330356453
 21
77.946344420813034
 31
0.0
  0
ARC
  5
62C
  8
0
 10
93.772298303563545
 20
77.296261197482863
 30
0.0
 40
0.9999999999998429
 50
22.499999999975081
 51
44.999999999963151
  0
ARC
  5
62D
  8
0
 10
94.006475767056472
 20
77.240581299833863
 30
0.0
 40
0.7678440000561196
 50
337.34213437414343
 51
4.1584301878887233
  0
ARC
  5
62E
  8
0
 10
93.719643083712967
 20
77.360318245120311
 30
0.0
 40
1.0786653704613169
 50
314.77735828970668
 51
337.34213437372381
  0
ARC
  5
62F
  8
0
 10
93.772298303562351
 20
77.296261197482409
 30
0.0
 40
1.000000000001136
 50
359.99999999999841
 51
22.499999999975831
  0
ARC
  5
630
  8
0
 10
94.396631881141374
 20
83.187051403423425
 30
0.0
 40
0.3771281907760291
 50
328.66353223449238
 51
5.0462967797248544
  0
LINE
  5
631
  8
0
 10
98.972298303564514
 20
83.059779420812959
 30
0.0
 11
95.772298303564739
 21
83.059779420812959
 31
0.0
  0
LINE
  5
632
  8
0
 10
99.4722983035645
 20
82.559779420812959
 30
0.0
 11
98.972298303564514
 21
83.059779420812959
 31
0.0
  0
ARC
  5
633
  8
0
 10
94.148917271125526
 20
80.512004990049149
 30
0.0
 40
0.6252090113221325
 50
335.04090758090251
 51
4.3824450090068234
  0
ARC
  5
634
  8
0
 10
93.772298303562351
 20
80.559779420813015
 30
0.0
 40
1.0000000000012499
 50
359.99999999999841
 51
22.499999999974332
  0
LINE
  5
635
  8
0
 10
99.772298303564511
 20
80.559779420813015
 30
0.0
 11
99.4722983035645
 21
80.559779420812959
 31
0.0
  0
ARC
  5
636
  8
0
 10
93.829650351350935
 20
80.660604178841766
 30
0.0
 40
0.9773639274771941
 50
311.66723445230639
 51
335.04090758069412
  0
ARC
  5
637
  8
0
 10
93.772298303563474
 20
80.5597794208133
 30
0.0
 40
1.0000000000000979
 50
22.499999999984599
 51
44.999999999969482
  0
ARC
  5
638
  8
0
 10
94.017822890220145
 20
83.417701244011937
 30
0.0
 40
0.8206319681739863
 50
304.22689982667839
 51
328.66353223342912
  0
LINE
  5
639
  8
2
 10
88.772298303564511
 20
80.559779420812959
 30
0.0
 11
88.772298303564511
 21
70.559779420812959
 31
0.0
  0
ARC
  5
63A
  8
0
 10
88.160252987287535
 20
77.626924322510376
 30
0.0
 40
1.0251439755333711
 50
40.619746686462058
 51
40.762111308885203
  0
ARC
  5
63B
  8
0
 10
88.049299167694684
 20
77.531759046727984
 30
0.0
 40
1.1713191437288399
 50
19.55868423411383
 51
40.619746674853431
  0
ARC
  5
63C
  8
0
 10
93.82859315115023
 20
77.519096762849344
 30
0.0
 40
0.7792006598579019
 50
67.499999999983331
 51
94.143053124301645
  0
LINE
  5
63D
  8
0
 10
88.936724698539876
 20
78.296261197482352
 30
0.0
 11
93.772298303564739
 21
78.296261197482352
 31
0.0
  0
ARC
  5
63E
  8
0
 10
88.936724698538271
 20
58.474930704703752
 30
0.0
 40
19.821330492780248
 50
90.0
 51
90.844572127251254
  0
LINE
  5
63F
  8
2
 10
88.772298303564511
 20
78.559779420813015
 30
0.0
 11
89.385733303564493
 21
77.946344420813034
 31
0.0
  0
ARC
  5
640
  8
0
 10
88.192175479387217
 20
77.399972101457479
 30
0.0
 40
1.041454081016679
 50
340.44131576588848
 51
3.8505091609579569
  0
ARC
  5
641
  8
0
 10
87.964367331628281
 20
77.480905880969772
 30
0.0
 40
1.2832118706564579
 50
319.38025332515008
 51
340.44131576589359
  0
ARC
  5
642
  8
0
 10
93.772298303564739
 20
77.311633249195893
 30
0.0
 40
1.0076304335735671
 50
270.0
 51
292.34299953046673
  0
ARC
  5
643
  8
0
 10
88.160252987221924
 20
77.312894427570541
 30
0.0
 40
1.025143975441509
 50
295.77749070129511
 51
319.38025332515468
  0
ARC
  5
644
  8
0
 10
87.875207963666057
 20
77.469909375149257
 30
0.0
 40
1.356070677401874
 50
0.0
 51
19.558684234103531
  0
ARC
  5
645
  8
0
 10
87.680240179976735
 20
83.833446258631056
 30
0.0
 40
1.529586362416627
 50
325.3398240714497
 51
344.0188523109764
  0
ARC
  5
646
  8
0
 10
93.772298303564739
 20
84.004819856341442
 30
0.0
 40
1.4648818488625031
 50
270.0
 51
285.73696704094499
  0
ARC
  5
647
  8
0
 10
87.305889277469618
 20
81.05977942080915
 30
0.0
 40
1.925389363598299
 50
0.0000000001156195
 51
15.05153417021531
  0
ARC
  5
648
  8
0
 10
87.781706495047544
 20
80.970385509415848
 30
0.0
 40
1.4523259544306959
 50
343.40553497690013
 51
3.5289141181039869
  0
ARC
  5
649
  8
0
 10
87.636335962606296
 20
81.013707056413054
 30
0.0
 40
1.6040142800740329
 50
324.26670666416823
 51
343.4055349768949
  0
ARC
  5
64A
  8
0
 10
93.772298303564739
 20
80.791269507450238
 30
0.0
 40
1.121432281237559
 50
270.0
 51
290.23520436927981
  0
ARC
  5
64B
  8
0
 10
93.772298303564739
 20
80.559779420815403
 30
0.0
 40
0.9999999999975791
 50
67.499999999972744
 51
90.0
  0
LINE
  5
64C
  8
0
 10
89.165223621114464
 20
81.559779420813015
 30
0.0
 11
93.772298303564739
 21
81.559779420813015
 31
0.0
  0
ARC
  5
64D
  8
0
 10
89.165223621113441
 20
76.112877809118004
 30
0.0
 40
5.4469016116949973
 50
90.0
 51
94.060454095470448
  0
ARC
  5
64E
  8
0
 10
88.048785918943608
 20
80.716968128751304
 30
0.0
 40
1.0959109857799341
 50
299.93045034476421
 51
324.26670666417408
  0
ARC
  5
64F
  8
0
 10
88.017913443760776
 20
83.599977273939999
 30
0.0
 40
1.119061089275978
 50
300.92538753530903
 51
325.33982407144453
  0
ARC
  5
650
  8
0
 10
93.772298303565023
 20
83.220223852003073
 30
0.0
 40
0.9999999999996161
 50
45.0
 51
67.500000000009933
  0
ARC
  5
651
  8
0
 10
93.946656978791154
 20
86.052963536383459
 30
0.0
 40
1.470892758180429
 50
279.14355672372892
 51
291.23498056400541
  0
ARC
  5
652
  8
0
 10
93.772298303557804
 20
84.956705628689917
 30
0.0
 40
0.9999999999835987
 50
44.999999999497369
 51
67.499999999647059
  0
ARC
  5
653
  8
0
 10
93.772298303564739
 20
85.559779420814834
 30
0.0
 40
1.0
 50
0.0
 51
90.0
  0
LINE
  5
654
  8
0
 10
94.765782296642712
 20
85.548837609316365
 30
0.0
 11
94.772298303565648
 21
85.559779420813015
 31
0.0
  0
ARC
  5
655
  8
0
 10
93.772298303530278
 20
84.956705628672225
 30
0.0
 40
1.000000000016996
 50
359.99999999999511
 51
22.49999999964075
  0
ARC
  5
656
  8
0
 10
94.637532646296776
 20
84.939200421111082
 30
0.0
 40
0.1358978096596439
 50
313.17091908413641
 51
7.4009217661020532
  0
ARC
  5
657
  8
0
 10
95.272298303564725
 20
85.059779420813015
 30
0.0
 40
0.5
 50
0.0
 51
90.0
  0
LINE
  5
658
  8
0
 10
94.772298303564739
 20
85.559779420813015
 30
0.0
 11
95.272298303564725
 21
85.559779420813015
 31
0.0
  0
ARC
  5
659
  8
0
 10
93.772298303564625
 20
83.220223852002562
 30
0.0
 40
1.0000000000002449
 50
22.50000000000577
 51
45.000000000004597
  0
ARC
  5
65A
  8
0
 10
94.274821991323904
 20
89.616085950315906
 30
0.0
 40
4.0967732532765799
 50
274.42066696741011
 51
276.88291086053158
  0
ARC
  5
65B
  8
0
 10
93.772298303547117
 20
84.956705628679046
 30
0.0
 40
0.9999999999988446
 50
22.499999999649521
 51
44.999999999504858
  0
ARC
  5
65C
  8
0
 10
94.196940407684096
 20
85.408860975723826
 30
0.0
 40
0.7798718442952932
 50
291.23498056400371
 51
313.17091908347402
  0
ARC
  5
65D
  8
0
 10
88.378962705925446
 20
86.499462250875922
 30
0.0
 40
0.8544475491727169
 50
338.47130576049358
 51
4.0479910126151548
  0
ARC
  5
65E
  8
0
 10
88.111238034573987
 20
86.605076717405041
 30
0.0
 40
1.1422511544150391
 50
324.6498351117221
 51
338.47130576048841
  0
ARC
  5
65F
  8
0
 10
87.472732682732584
 20
85.896398249504841
 30
0.0
 40
1.758545958335332
 50
359.9999999984758
 51
1.965280425622095
  0
ARC
  5
660
  8
0
 10
93.772298303564739
 20
84.956705628706572
 30
0.0
 40
0.9999999999655251
 50
67.499999999648566
 51
90.0
  0
LINE
  5
661
  8
0
 10
89.231278641067874
 20
86.559779420814834
 30
0.0
 11
93.772298303564739
 21
86.559779420814834
 31
0.0
  0
LINE
  5
662
  8
0
 10
89.230244249578263
 20
85.956705628672125
 30
0.0
 11
93.772298303564739
 21
85.956705628672125
 31
0.0
  0
ARC
  5
663
  8
0
 10
87.732457209677861
 20
85.865063964542159
 30
0.0
 40
1.5094815853128409
 50
323.02540103707139
 51
342.68019802672518
  0
ARC
  5
664
  8
0
 10
87.146623804091732
 20
83.986268295118805
 30
0.0
 40
2.084654836976199
 50
0.0000000000822364
 51
6.4437359592934831
  0
ARC
  5
665
  8
0
 10
93.772298303564739
 20
83.220223852003073
 30
0.0
 40
0.9999999999997488
 50
67.499999999995737
 51
90.0
  0
ARC
  5
666
  8
0
 10
93.772298303564739
 20
87.136247154119417
 30
0.0
 40
2.5681185070953338
 50
270.0
 51
279.14355672373227
  0
LINE
  5
667
  8
0
 10
89.218108920313796
 20
84.220223852002775
 30
0.0
 11
93.772298303564739
 21
84.220223852002775
 31
0.0
  0
ARC
  5
668
  8
0
 10
87.901179278390131
 20
85.812448916359017
 30
0.0
 40
1.3327459642121009
 50
342.68019802672518
 51
3.611437620418585
  0
ARC
  5
669
  8
0
 10
89.23024424957832
 20
84.546829974076786
 30
0.0
 40
1.409875654595325
 50
90.000000000001606
 51
106.30343764832649
  0
ARC
  5
66A
  8
0
 10
89.218108920311806
 20
81.768408349024014
 30
0.0
 40
2.451815502978774
 50
89.999999999944635
 51
99.444742702433174
  0
ARC
  5
66B
  8
0
 10
88.081252825136275
 20
85.602469973970472
 30
0.0
 40
1.0728879696387199
 50
298.81903153461411
 51
323.02540103706622
  0
ARC
  5
66C
  8
0
 10
120.5145366135403
 20
75.559779420812902
 30
0.0
 40
35.0
 50
163.3984504009793
 51
173.0420758767504
  0
LINE
  5
66D
  8
0
 10
88.236340054698616
 20
78.276669702717982
 30
0.0
 11
88.231278641067917
 21
78.271154761575644
 31
0.0
  0
ARC
  5
66E
  8
0
 10
88.581166228838796
 20
74.263354372415051
 30
0.0
 40
4.0281019141546581
 50
92.038264905126212
 51
94.910822903440135
  0
LINE
  5
66F
  8
0
 10
88.259621381816714
 20
81.442121108229912
 30
0.0
 11
88.231278641067917
 21
81.399721615413355
 31
0.0
  0
ARC
  5
670
  8
0
 10
88.698916797411783
 20
80.380363406379004
 30
0.0
 40
1.149047379180961
 50
99.724774602284384
 51
112.47701090411149
  0
ARC
  5
671
  8
0
 10
88.231278641067874
 20
86.463316085726888
 30
0.0
 40
0.9535366649138126
 50
270.0000000000033
 51
274.038540619179
  0
ARC
  5
672
  8
0
 10
88.633779985210225
 20
85.286112968605593
 30
0.0
 40
0.4040029029770103
 50
149.603993685408
 51
184.94141316405799
  0
ARC
  5
673
  8
0
 10
88.372248320984895
 20
83.841752397735434
 30
0.0
 40
0.1420949374849575
 50
134.11474784172739
 51
187.21541502088581
  0
ARC
  5
674
  8
0
 10
88.804906040963004
 20
83.395514158044477
 30
0.0
 40
0.7636424169418001
 50
111.8807724766839
 51
134.114747841314
  0
LINE
  5
675
  8
0
 10
86.973516951043536
 20
85.559779420813015
 30
0.0
 11
88.231278641067917
 21
85.559779420813015
 31
0.0
  0
ARC
  5
676
  8
0
 10
89.005453652450669
 20
85.068088145974571
 30
0.0
 40
0.8349044441708668
 50
125.2267826408554
 51
149.60399368540359
  0
LINE
  5
679
  8
2
 10
85.772298303564483
 20
79.7996941856224
 30
0.0
 11
88.772298303564511
 21
79.559779420813015
 31
0.0
  0
LINE
  5
67A
  8
2
 10
85.772298303564483
 20
71.319864656003631
 30
0.0
 11
88.772298303564511
 21
71.559779420813015
 31
0.0
  0
CIRCLE
  5
687
  8
0
 10
50.911008039045178
 20
75.559779420813015
 30
0.0
 40
10.0
  0
CIRCLE
  5
688
  8
0
 10
50.911008039045178
 20
75.559779420813015
 30
0.0
 40
2.386565
  0
ARC
  5
689
  8
0
 10
59.571262076889553
 20
70.559779420813015
 30
0.0
 40
1.0
 50
237.13401601740119
 51
62.865983982598451
  0
ARC
  5
68A
  8
0
 10
57.338884135910547
 20
67.899334989623242
 30
0.0
 40
1.0
 50
217.13401601740071
 51
42.865983982598067
  0
ARC
  5
68B
  8
0
 10
54.331209472301879
 20
66.162853212953962
 30
0.0
 40
1.0
 50
197.13401601740119
 51
22.865983982598891
  0
ARC
  5
68C
  8
0
 10
59.571262076889553
 20
80.559779420813015
 30
0.0
 40
1.0
 50
297.13401601740151
 51
122.86598398259881
  0
ARC
  5
68D
  8
0
 10
60.75908556916724
 20
77.296261197482295
 30
0.0
 40
1.0
 50
277.13401601740048
 51
102.86598398259849
  0
ARC
  5
68E
  8
0
 10
60.75908556916724
 20
73.823297644143736
 30
0.0
 40
1.0
 50
257.13401601740151
 51
82.865983982597868
  0
ARC
  5
68F
  8
0
 10
54.331209472301879
 20
84.956705628672125
 30
0.0
 40
1.0
 50
337.13401601740122
 51
162.86598398259881
  0
ARC
  5
690
  8
0
 10
57.338884135910597
 20
83.220223852002789
 30
0.0
 40
1.0
 50
317.13401601740088
 51
142.86598398259869
  0
ARC
  5
692
  8
0
 10
42.250754001200818
 20
70.559779420813015
 30
0.0
 40
1.0
 50
117.13401601740151
 51
302.86598398259878
  0
ARC
  5
693
  8
0
 10
44.48313194217976
 20
67.899334989623242
 30
0.0
 40
1.0
 50
137.1340160174019
 51
322.8659839825994
  0
ARC
  5
694
  8
0
 10
50.911008039045178
 20
65.559779420813015
 30
0.0
 40
1.0
 50
177.13401601740131
 51
2.865983982598681
  0
ARC
  5
695
  8
0
 10
47.490806605788492
 20
66.162853212953962
 30
0.0
 40
1.0
 50
157.13401601740111
 51
342.86598398259889
  0
ARC
  5
696
  8
0
 10
42.250754001200761
 20
80.559779420813015
 30
0.0
 40
1.0
 50
57.134016017401208
 51
242.86598398259849
  0
ARC
  5
698
  8
0
 10
41.062930508923131
 20
73.823297644143736
 30
0.0
 40
1.0
 50
97.134016017402161
 51
282.86598398259849
  0
ARC
  5
699
  8
0
 10
41.062930508923067
 20
77.296261197482352
 30
0.0
 40
1.0
 50
77.134016017401478
 51
262.86598398259957
  0
ARC
  5
69A
  8
0
 10
44.48313194217976
 20
83.220223852002789
 30
0.0
 40
1.0
 50
37.134016017400633
 51
222.8659839825981
  0
ARC
  5
69B
  8
0
 10
50.911008039045178
 20
85.559779420813015
 30
0.0
 40
1.0
 50
357.13401601740128
 51
182.86598398259869
  0
ARC
  5
69C
  8
0
 10
47.490806605788492
 20
84.956705628672125
 30
0.0
 40
1.0
 50
17.13401601740113
 51
202.86598398259889
  0
CIRCLE
  5
69D
  8
3
 10
134.6330885680843
 20
75.559779420813015
 30
0.0
 40
3.0000000416666661
  0
CIRCLE
  5
69E
  8
0
 10
134.63358856808429
 20
75.560279420813018
 30
0.0
 40
4.9994999999999967
  0
CIRCLE
  5
69F
  8
0
 10
134.63358856808429
 20
75.559279420813013
 30
0.0
 40
7.0004999999999447
  0
CIRCLE
  5
6A0
  8
0
 10
134.6330885680843
 20
75.559779420813015
 30
0.0
 40
7.5000000166666094
  0
LINE
  5
6A1
  8
1
 10
134.63358856808429
 20
88.059779420813015
 30
0.0
 11
134.63358856808429
 21
63.059779420813022
 31
0.0
  0
LINE
  5
6A2
  8
1
 10
147.13358856808429
 20
75.559779420813015
 30
0.0
 11
122.13358856808431
 21
75.559779420813015
 31
0.0
  0
LINE
  5
6A3
  8
1
 10
50.911008039045178
 20
88.059779420813015
 30
0.0
 11
50.911008039045178
 21
63.059779420813022
 31
0.0
  0
LINE
  5
6A4
  8
1
 10
63.411008039045178
 20
75.559779420813015
 30
0.0
 11
38.411008039045193
 21
75.559779420813015
 31
0.0
  0
CIRCLE
  5
6A6
  8
0
 10
50.911008039045178
 20
75.559779420813015
 30
0.0
 40
4.0
  0
CIRCLE
  5
6A7
  8
3
 10
50.911008039045178
 20
75.559779420813015
 30
0.0
 40
3.0
  0
TEXT
  5
775
  8
0
 62
     3
 10
0.0
 20
0.0
 30
0.0
 40
10.0
  1
KN20T
  7
STANDARD1
  0
ENDSEC
  0
EOF
