  0
SECTION
  2
HEADER
  9
$ACADVER
  1
AC1009
  9
$INSBASE
 10
0.0
 20
0.0
 30
0.0
  9
$EXTMIN
 10
0.0
 20
-2.960436562073669
 30
0.0
  9
$EXTMAX
 10
158.5
 20
78.499999999999986
 30
0.0
  9
$LIMMIN
 10
0.0
 20
0.0
  9
$LIMMAX
 10
187.5
 20
135.0
  9
$ORTHOMODE
 70
     1
  9
$REGENMODE
 70
     1
  9
$FILLMODE
 70
     1
  9
$QTEXTMODE
 70
     0
  9
$MIRRTEXT
 70
     0
  9
$DRAGMODE
 70
     2
  9
$LTSCALE
 40
5.0
  9
$OSMODE
 70
    37
  9
$ATTMODE
 70
     1
  9
$TEXTSIZE
 40
0.2
  9
$TRACEWID
 40
0.05
  9
$TEXTSTYLE
  7
STANDARD
  9
$CLAYER
  8
0
  9
$CELTYPE
  6
BYLAYER
  9
$CECOLOR
 62
   256
  9
$DIMSCALE
 40
0.5
  9
$DIMASZ
 40
3.0
  9
$DIMEXO
 40
2.0
  9
$DIMDLI
 40
0.38
  9
$DIMRND
 40
0.0
  9
$DIMDLE
 40
0.0
  9
$DIMEXE
 40
2.0
  9
$DIMTP
 40
0.0
  9
$DIMTM
 40
0.0
  9
$DIMTXT
 40
3.2000000000000002
  9
$DIMCEN
 40
0.0
  9
$DIMTSZ
 40
0.0
  9
$DIMTOL
 70
     0
  9
$DIMLIM
 70
     0
  9
$DIMTIH
 70
     0
  9
$DIMTOH
 70
     0
  9
$DIMSE1
 70
     0
  9
$DIMSE2
 70
     0
  9
$DIMTAD
 70
     1
  9
$DIMZIN
 70
     0
  9
$DIMBLK
  1

  9
$DIMASO
 70
     1
  9
$DIMSHO
 70
     0
  9
$DIMPOST
  1

  9
$DIMAPOST
  1

  9
$DIMALT
 70
     0
  9
$DIMALTD
 70
     2
  9
$DIMALTF
 40
25.399999999999999
  9
$DIMLFAC
 40
1.0
  9
$DIMTOFL
 70
     0
  9
$DIMTVP
 40
1.6000000000000001
  9
$DIMTIX
 70
     1
  9
$DIMSOXD
 70
     0
  9
$DIMSAH
 70
     0
  9
$DIMBLK1
  1

  9
$DIMBLK2
  1

  9
$DIMSTYLE
  2
STANDARD
  9
$DIMCLRD
 70
     0
  9
$DIMCLRE
 70
     0
  9
$DIMCLRT
 70
     0
  9
$DIMTFAC
 40
1.0
  9
$DIMGAP
 40
0.09
  9
$LUNITS
 70
     2
  9
$LUPREC
 70
     4
  9
$SKETCHINC
 40
0.1
  9
$FILLETRAD
 40
1.0
  9
$AUNITS
 70
     0
  9
$AUPREC
 70
     0
  9
$MENU
  1
E:\r13\win\SUPPORT\ACAD
  9
$ELEVATION
 40
0.0
  9
$PELEVATION
 40
0.0
  9
$THICKNESS
 40
0.0
  9
$LIMCHECK
 70
     0
  9
$BLIPMODE
 70
     0
  9
$CHAMFERA
 40
0.0
  9
$CHAMFERB
 40
0.0
  9
$SKPOLY
 70
     0
  9
$TDCREATE
 40
2449839.7858333332
  9
$TDUPDATE
 40
2457162.6033410178
  9
$TDINDWG
 40
0.0066223727
  9
$TDUSRTIMER
 40
0.0066223727
  9
$USRTIMER
 70
     1
  9
$ANGBASE
 50
0.0
  9
$ANGDIR
 70
     0
  9
$PDMODE
 70
     0
  9
$PDSIZE
 40
0.0
  9
$PLINEWID
 40
0.0
  9
$COORDS
 70
     1
  9
$SPLFRAME
 70
     0
  9
$SPLINETYPE
 70
     6
  9
$SPLINESEGS
 70
     8
  9
$ATTDIA
 70
     0
  9
$ATTREQ
 70
     1
  9
$HANDLING
 70
     1
  9
$HANDSEED
  5
661
  9
$SURFTAB1
 70
     6
  9
$SURFTAB2
 70
     6
  9
$SURFTYPE
 70
     6
  9
$SURFU
 70
     6
  9
$SURFV
 70
     6
  9
$UCSNAME
  2

  9
$UCSORG
 10
0.0
 20
0.0
 30
0.0
  9
$UCSXDIR
 10
1.0
 20
0.0
 30
0.0
  9
$UCSYDIR
 10
0.0
 20
1.0
 30
0.0
  9
$PUCSNAME
  2

  9
$PUCSORG
 10
0.0
 20
0.0
 30
0.0
  9
$PUCSXDIR
 10
1.0
 20
0.0
 30
0.0
  9
$PUCSYDIR
 10
0.0
 20
1.0
 30
0.0
  9
$USERI1
 70
     0
  9
$USERI2
 70
     1
  9
$USERI3
 70
     1
  9
$USERI4
 70
     0
  9
$USERI5
 70
     0
  9
$USERR1
 40
0.0
  9
$USERR2
 40
0.0
  9
$USERR3
 40
0.0
  9
$USERR4
 40
0.0
  9
$USERR5
 40
0.0
  9
$WORLDVIEW
 70
     1
  9
$SHADEDGE
 70
     3
  9
$SHADEDIF
 70
    70
  9
$TILEMODE
 70
     1
  9
$MAXACTVP
 70
    16
  9
$PLIMCHECK
 70
     0
  9
$PEXTMIN
 10
1.0000000000000000E+020
 20
1.0000000000000000E+020
 30
1.0000000000000000E+020
  9
$PEXTMAX
 10
-1.0000000000000000E+020
 20
-1.0000000000000000E+020
 30
-1.0000000000000000E+020
  9
$PLIMMIN
 10
0.0
 20
0.0
  9
$PLIMMAX
 10
12.0
 20
9.0
  9
$UNITMODE
 70
     0
  9
$VISRETAIN
 70
     0
  9
$PLINEGEN
 70
     0
  9
$PSLTSCALE
 70
     0
  0
ENDSEC
  0
SECTION
  2
TABLES
  0
TABLE
  2
VPORT
 70
     1
  0
VPORT
  2
*ACTIVE
 70
     0
 10
0.0
 20
0.0
 11
1.0
 21
1.0
 12
172.54273504273499
 22
95.0
 13
0.0
 23
0.0
 14
5.0
 24
5.0
 15
5.0
 25
5.0
 16
0.0
 26
0.0
 36
1.0
 17
0.0
 27
0.0
 37
0.0
 40
190.0
 41
1.816239316239316
 42
50.0
 43
0.0
 44
0.0
 50
0.0
 51
0.0
 71
     0
 72
   500
 73
     1
 74
     0
 75
     0
 76
     0
 77
     0
 78
     2
  0
ENDTAB
  0
TABLE
  2
LTYPE
 70
     4
  0
LTYPE
  2
CONTINUOUS
 70
     0
  3
Solid Line
 72
    65
 73
     0
 40
0.0
  0
LTYPE
  2
CENTER
 70
     0
  3
____ _ ____ _ ____ _ ____ _ ____ _ ____ _ ____
 72
    65
 73
     4
 40
2.0
 49
1.25
 49
-0.25
 49
0.25
 49
-0.25
  0
LTYPE
  2
HIDDEN
 70
     0
  3
_ _ _ _ _ _ _ _ _ _ _ _ _ _ _ _ _ _ _ _ _ _ _
 72
    65
 73
     2
 40
0.375
 49
0.25
 49
-0.125
  0
LTYPE
  2
PHANTOM2
 70
     0
  3
___ _ _ ___ _ _ ___ _ _ ___ _ _
 72
    65
 73
     6
 40
1.25
 49
0.625
 49
-0.125
 49
0.125
 49
-0.125
 49
0.125
 49
-0.125
  0
ENDTAB
  0
TABLE
  2
LAYER
 70
     4
  0
LAYER
  2
0
 70
     0
 62
     7
  6
CONTINUOUS
  0
LAYER
  2
1
 70
     0
 62
     1
  6
CENTER
  0
LAYER
  2
3
 70
     0
 62
     3
  6
CONTINUOUS
  0
LAYER
  2
2
 70
     0
 62
     2
  6
HIDDEN
  0
ENDTAB
  0
TABLE
  2
STYLE
 70
     2
  0
STYLE
  2
STANDARD
 70
     0
 40
0.0
 41
1.0
 50
0.0
 71
     0
 42
0.2
  3
TXT
  4
BIGFONT
  0
STYLE
  2
STANDARD1
 70
     0
 40
0.0
 41
1.0
 50
0.0
 71
     0
 42
3.0
  3
txt
  4

  0
ENDTAB
  0
TABLE
  2
VIEW
 70
     1
  0
VIEW
  2
ALL
 70
     0
 40
135.0
 10
110.4957983193277
 20
67.5
 41
0.0
 11
0.0
 21
0.0
 31
1.0
 12
0.0
 22
0.0
 32
0.0
 42
0.0
 43
0.0
 44
0.0
 50
0.0
 71
     0
  0
ENDTAB
  0
TABLE
  2
UCS
 70
     0
  0
ENDTAB
  0
TABLE
  2
APPID
 70
     4
  0
APPID
  2
ACAD
 70
     0
  0
APPID
  2
ACAD_MLEADERVER
 70
     0
  0
APPID
  2
ACAD_EXEMPT_FROM_CAD_STANDARDS
 70
     0
  0
APPID
  2
ACAD_NAV_VCDISPLAY
 70
     0
  0
ENDTAB
  0
TABLE
  2
DIMSTYLE
 70
     1
  0
DIMSTYLE
  2
STANDARD
 70
     0
  3

  4

  5

  6

  7

 40
1.0
 41
0.18
 42
0.0625
 43
0.38
 44
0.18
 45
0.0
 46
0.0
 47
0.0
 48
0.0
140
0.18
141
0.09
142
0.0
143
25.399999999999999
144
1.0
145
0.0
146
1.0
147
0.09
 71
     0
 72
     0
 73
     1
 74
     1
 75
     0
 76
     0
 77
     0
 78
     0
170
     0
171
     2
172
     0
173
     0
174
     0
175
     0
176
     0
177
     0
178
     0
  0
ENDTAB
  0
ENDSEC
  0
SECTION
  2
BLOCKS
  0
BLOCK
  8
0
  2
$MODEL_SPACE
 70
     0
 10
0.0
 20
0.0
 30
0.0
  3
$MODEL_SPACE
  1

  0
ENDBLK
  5
47E
  8
0
  0
BLOCK
 67
     1
  8
0
  2
$PAPER_SPACE
 70
     0
 10
0.0
 20
0.0
 30
0.0
  3
$PAPER_SPACE
  1

  0
ENDBLK
  5
47C
 67
     1
  8
0
  0
ENDSEC
  0
SECTION
  2
ENTITIES
  0
ARC
  5
36
  8
0
 10
123.0
 20
64.999999999999986
 30
0.0
 40
35.0
 50
163.39845040097981
 51
196.60154959902019
  0
LINE
  5
37
  8
0
 10
89.458980337503135
 20
54.999999999999993
 30
0.0
 11
90.458980337503164
 21
54.999999999999993
 31
0.0
  0
LINE
  5
38
  8
0
 10
101.1999999999997
 20
57.500000000000043
 30
0.0
 11
98.0
 21
57.500000000000043
 31
0.0
  0
LINE
  5
39
  8
0
 10
89.458980337503164
 20
74.999999999999986
 30
0.0
 11
89.458980337503164
 21
54.999999999999993
 31
0.0
  0
LINE
  5
3A
  8
0
 10
98.0
 20
74.499999999999986
 30
0.0
 11
98.000000000000043
 21
55.499999046325669
 31
0.0
  0
LINE
  5
3B
  8
0
 10
102.0
 20
69.999999999999986
 30
0.0
 11
102.0
 21
59.999999999999993
 31
0.0
  0
LINE
  5
3C
  8
0
 10
101.6999999999997
 20
69.999999999999986
 30
0.0
 11
102.0
 21
69.999999999999986
 31
0.0
  0
LINE
  5
3D
  8
0
 10
101.6999999999997
 20
71.999999999999915
 30
0.0
 11
101.6999999999997
 21
58.000000000000057
 31
0.0
  0
LINE
  5
3E
  8
0
 10
101.1999999999997
 20
72.499999999999915
 30
0.0
 11
98.0
 21
72.499999999999915
 31
0.0
  0
LINE
  5
3F
  8
0
 10
89.458980337503164
 20
74.999999999999986
 30
0.0
 11
90.458980337503164
 21
74.999999999999986
 31
0.0
  0
LINE
  5
40
  8
1
 10
104.5
 20
64.999999999999972
 30
0.0
 11
85.5
 21
64.999999999999986
 31
0.0
  0
ARC
  5
41
  8
0
 10
41.579798566743278
 20
74.396926207859067
 30
0.0
 40
1.0
 50
17.134016017401478
 51
202.86598398259881
  0
ARC
  5
42
  8
0
 10
38.572123903134582
 20
72.660444431189745
 30
0.0
 40
1.0
 50
37.134016017401457
 51
222.86598398259881
  0
ARC
  5
43
  8
0
 10
36.339745962155611
 20
69.999999999999972
 30
0.0
 40
1.0
 50
57.134016017401443
 51
242.86598398259869
  0
ARC
  5
44
  8
0
 10
35.151922469877917
 20
66.736481776669279
 30
0.0
 40
1.0
 50
77.134016017401407
 51
262.86598398259872
  0
ARC
  5
45
  8
0
 10
35.151922469877917
 20
63.263518223330678
 30
0.0
 40
1.0
 50
97.134016017401365
 51
282.86598398259872
  0
ARC
  5
46
  8
0
 10
36.339745962155632
 20
59.999999999999972
 30
0.0
 40
1.0
 50
117.13401601740129
 51
302.86598398259872
  0
ARC
  5
47
  8
0
 10
38.57212390313461
 20
57.339555568810212
 30
0.0
 40
1.0
 50
137.13401601740131
 51
322.86598398259872
  0
ARC
  5
48
  8
0
 10
41.5797985667433
 20
55.603073792140911
 30
0.0
 40
1.0
 50
157.13401601740131
 51
342.86598398259872
  0
ARC
  5
49
  8
0
 10
45.0
 20
54.999999999999993
 30
0.0
 40
1.0
 50
177.13401601740131
 51
2.8659839825986482
  0
ARC
  5
4A
  8
0
 10
48.420201433256658
 20
55.603073792140911
 30
0.0
 40
1.0
 50
197.13401601740131
 51
22.865983982598731
  0
ARC
  5
4B
  8
0
 10
51.42787609686539
 20
57.339555568810212
 30
0.0
 40
1.0
 50
217.13401601740131
 51
42.865983982598699
  0
ARC
  5
4C
  8
0
 10
53.660254037844368
 20
59.999999999999993
 30
0.0
 40
1.0
 50
237.13401601740131
 51
62.865983982598692
  0
ARC
  5
4D
  8
0
 10
54.848077530122048
 20
63.263518223330678
 30
0.0
 40
1.0
 50
257.13401601740128
 51
82.865983982598692
  0
ARC
  5
4E
  8
0
 10
54.84807753012209
 20
66.736481776669294
 30
0.0
 40
1.0
 50
277.13401601740128
 51
102.86598398259861
  0
ARC
  5
4F
  8
0
 10
53.660254037844403
 20
69.999999999999972
 30
0.0
 40
1.0
 50
297.13401601740128
 51
122.86598398259871
  0
ARC
  5
50
  8
0
 10
51.42787609686539
 20
72.660444431189759
 30
0.0
 40
1.0
 50
317.13401601740128
 51
142.86598398259869
  0
ARC
  5
51
  8
0
 10
48.420201433256693
 20
74.396926207859082
 30
0.0
 40
1.0
 50
337.13401601740128
 51
162.86598398259869
  0
ARC
  5
52
  8
0
 10
45.0
 20
74.999999999999986
 30
0.0
 40
1.0
 50
357.13401601740128
 51
182.86598398259861
  0
CIRCLE
  5
53
  8
0
 10
45.0
 20
64.999999999999986
 30
0.0
 40
10.0
  0
LINE
  5
54
  8
1
 10
45.0
 20
78.499999999999986
 30
0.0
 11
45.0
 21
51.499999999999979
 31
0.0
  0
LINE
  5
55
  8
1
 10
58.5
 20
64.999999999999986
 30
0.0
 11
31.499999999999972
 21
64.999999999999986
 31
0.0
  0
LINE
  5
56
  8
0
 10
101.1999999999997
 20
57.500000000000043
 30
0.0
 11
101.6999999999997
 21
58.000000000000043
 31
0.0
  0
LINE
  5
57
  8
0
 10
101.6999999999997
 20
71.999999999999915
 30
0.0
 11
101.1999999999997
 21
72.499999999999915
 31
0.0
  0
ARC
  5
58
  8
0
 10
97.5
 20
74.499999999999986
 30
0.0
 40
0.5
 50
0.0
 51
90.0
  0
ARC
  5
59
  8
0
 10
97.5
 20
55.499999999999979
 30
0.0
 40
0.5
 50
270.0
 51
0.0
  0
LINE
  5
5A
  8
0
 10
101.1999999999997
 20
72.499999999999915
 30
0.0
 11
101.1999999999997
 21
57.500000000000028
 31
0.0
  0
LINE
  5
5B
  8
2
 10
92.0
 20
69.999999999999943
 30
0.0
 11
92.0
 21
60.0
 31
0.0
  0
LINE
  5
5C
  8
0
 10
91.458980337503107
 20
76.000000000001805
 30
0.0
 11
96.0
 21
76.000000000001805
 31
0.0
  0
ARC
  5
5D
  8
0
 10
96.0
 20
75.000000000001805
 30
0.0
 40
1.0
 50
359.99999999999989
 51
90.0
  0
LINE
  5
5E
  8
0
 10
91.457945946013496
 20
75.396926207859082
 30
0.0
 11
96.0
 21
75.396926207859082
 31
0.0
  0
LINE
  5
5F
  8
0
 10
90.458980337503164
 20
74.008349226211024
 30
0.0
 11
96.0
 21
74.008349226211038
 31
0.0
  0
POLYLINE
  5
60
  8
0
 66
     1
 10
0.0
 20
0.0
 30
0.0
  0
VERTEX
  5
61
  8
0
 10
96.0
 20
74.008349226211038
 30
0.0
 42
0.0399174738601831
  0
VERTEX
  5
62
  8
0
 10
96.408096274776739
 20
74.04098156749933
 30
0.0
 42
0.052807795065124
  0
VERTEX
  5
63
  8
0
 10
96.707106781186553
 20
74.122160789122759
 30
0.0
 42
0.0960069432422777
 70
     2
 50
21.234980564004861
  0
VERTEX
  5
64
  8
0
 10
96.958212501727616
 20
74.280308555973008
 30
0.0
 42
0.2411404351806645
 50
21.234980564004861
  0
VERTEX
  5
65
  8
0
 10
96.999999999998735
 20
74.39692620785911
 30
0.0
 42
0.2072223791585372
  0
SEQEND
  5
66
  8
0
  0
POLYLINE
  5
67
  8
0
 66
     1
 10
0.0
 20
0.0
 30
0.0
  0
VERTEX
  5
68
  8
0
 10
96.999999999982535
 20
74.396926207859096
 30
0.0
 42
0.0984914033556077
  0
VERTEX
  5
69
  8
0
 10
96.923879532494908
 20
74.77960964022499
 30
0.0
 42
0.098491403356525
  0
VERTEX
  5
6A
  8
0
 10
96.707106781174232
 20
75.104032989045621
 30
0.0
 42
0.0984914033578243
 70
     2
 50
134.99999999950049
  0
VERTEX
  5
6B
  8
0
 10
96.382683432357538
 20
75.320805740370645
 30
0.0
 42
0.0984914033587124
 50
134.99999999950049
  0
VERTEX
  5
6C
  8
0
 10
96.0
 20
75.396926207859082
 30
0.0
 42
0.0984914033587305
  0
SEQEND
  5
6D
  8
0
  0
POLYLINE
  5
6E
  8
0
 66
     1
 10
0.0
 20
0.0
 30
0.0
  0
VERTEX
  5
6F
  8
0
 10
96.818297507746479
 20
74.971721118059847
 30
0.0
 42
0.0107439791054499
 70
     2
 50
2.8624052261090349
  0
VERTEX
  5
70
  8
0
 10
96.993483993077945
 20
74.989058188503293
 30
0.0
 50
2.8624052261090349
  0
VERTEX
  5
71
  8
0
 10
97.000000000000881
 20
74.999999999999972
 30
0.0
  0
SEQEND
  5
72
  8
0
  0
LINE
  5
73
  8
0
 10
97.0
 20
74.999999999999986
 30
0.0
 11
97.5
 21
74.999999999999986
 31
0.0
  0
LINE
  5
74
  8
0
 10
91.445810616749014
 20
73.660444431189745
 30
0.0
 11
95.999999999999972
 21
73.660444431189745
 31
0.0
  0
LINE
  5
75
  8
0
 10
90.458980337503107
 20
71.980158586665894
 30
0.0
 11
96.0
 21
71.980158586665894
 31
0.0
  0
POLYLINE
  5
76
  8
0
 66
     1
 10
0.0
 20
0.0
 30
0.0
  0
VERTEX
  5
77
  8
0
 10
96.0
 20
71.980158586665894
 30
0.0
 42
0.0687735942286349
  0
VERTEX
  5
78
  8
0
 10
96.397307474391084
 20
72.035066818073162
 30
0.0
 42
0.0808530481494667
  0
VERTEX
  5
79
  8
0
 10
96.707106781186553
 20
72.179409697381715
 30
0.0
 42
0.1070308378656403
 70
     2
 50
34.226899826680501
  0
VERTEX
  5
7A
  8
0
 10
96.94644932197221
 20
72.431141619100629
 30
0.0
 42
0.1600969164469462
 50
34.226899826680501
  0
VERTEX
  5
7B
  8
0
 10
96.99999999999585
 20
72.660444431189759
 30
0.0
 42
0.1375896364343942
  0
SEQEND
  5
7C
  8
0
  0
POLYLINE
  5
7D
  8
0
 66
     1
 10
0.0
 20
0.0
 30
0.0
  0
VERTEX
  5
7E
  8
0
 10
97.000000000000014
 20
72.660444431189774
 30
0.0
 42
0.0984914033571286
  0
VERTEX
  5
7F
  8
0
 10
96.92387953251135
 20
73.043127863554801
 30
0.0
 42
0.0984914033571594
  0
VERTEX
  5
80
  8
0
 10
96.707106781186553
 20
73.367551212376313
 30
0.0
 42
0.0984914033572042
 70
     2
 50
135.00000000000199
  0
VERTEX
  5
81
  8
0
 10
96.382683432365042
 20
73.584323963701024
 30
0.0
 42
0.0984914033571863
 50
135.00000000000199
  0
VERTEX
  5
82
  8
0
 10
95.999999999999972
 20
73.660444431189745
 30
0.0
 42
0.0984914033571539
  0
SEQEND
  5
83
  8
0
  0
LINE
  5
84
  8
0
 10
91.392925317549697
 20
70.999999999999972
 30
0.0
 11
96.0
 21
70.999999999999972
 31
0.0
  0
LINE
  5
85
  8
0
 10
90.458980337503107
 20
69.110057805399663
 30
0.0
 11
96.0
 21
69.110057805399649
 31
0.0
  0
LINE
  5
86
  8
0
 10
90.458980337503164
 20
74.999999999999986
 30
0.0
 11
90.458980337503135
 21
54.999999999999993
 31
0.0
  0
POLYLINE
  5
87
  8
0
 66
     1
 10
0.0
 20
0.0
 30
0.0
  0
VERTEX
  5
88
  8
0
 10
96.999999999998863
 20
69.999999999999957
 30
0.0
 42
0.0984914033570566
  0
VERTEX
  5
89
  8
0
 10
96.923879532510227
 20
70.382683432365141
 30
0.0
 42
0.0984914033570902
  0
VERTEX
  5
8A
  8
0
 10
96.707106781185757
 20
70.707106781186496
 30
0.0
 42
0.0984914033572319
 70
     2
 50
134.99999999996709
  0
VERTEX
  5
8B
  8
0
 10
96.382683432364587
 20
70.923879532511251
 30
0.0
 42
0.0984914033572867
 50
134.99999999996709
  0
VERTEX
  5
8C
  8
0
 10
96.0
 20
70.999999999999972
 30
0.0
 42
0.0984914033572722
  0
SEQEND
  5
8D
  8
0
  0
POLYLINE
  5
8E
  8
0
 66
     1
 10
0.0
 20
0.0
 30
0.0
  0
VERTEX
  5
8F
  8
0
 10
96.0
 20
69.110057805399649
 30
0.0
 42
0.0885228847778437
  0
VERTEX
  5
90
  8
0
 10
96.387875136911248
 20
69.179271839519373
 30
0.0
 42
0.0937884263503702
  0
VERTEX
  5
91
  8
0
 10
96.707106781186553
 20
69.370715839334053
 30
0.0
 42
0.1023419655820169
 70
     2
 50
41.667234452307397
  0
VERTEX
  5
92
  8
0
 10
96.94343926767317
 20
69.688405450179744
 30
0.0
 42
0.1287307123387808
 50
41.667234452307397
  0
VERTEX
  5
93
  8
0
 10
96.999999999998863
 20
70.0
 30
0.0
 42
0.1093371813473585
  0
SEQEND
  5
94
  8
0
  0
LINE
  5
95
  8
0
 10
91.164426394975095
 20
67.736481776669294
 30
0.0
 11
95.999999999999972
 21
67.736481776669294
 31
0.0
  0
LINE
  5
96
  8
0
 10
90.458980337503164
 20
65.744223394809296
 30
0.0
 11
96.0
 21
65.74422339480931
 31
0.0
  0
POLYLINE
  5
97
  8
0
 66
     1
 10
0.0
 20
0.0
 30
0.0
  0
VERTEX
  5
98
  8
0
 10
96.0
 20
65.74422339480931
 30
0.0
 42
0.0977997608286787
  0
VERTEX
  5
99
  8
0
 10
96.383051119553556
 20
65.819871569714593
 30
0.0
 42
0.0982022191882202
  0
VERTEX
  5
9A
  8
0
 10
96.707106781186553
 20
66.034849146166906
 30
0.0
 42
0.0987767920503924
 70
     2
 50
44.777358289711017
  0
VERTEX
  5
9B
  8
0
 10
96.942760514394962
 20
66.38500724013295
 30
0.0
 42
0.1175450871260601
 50
44.777358289711017
  0
VERTEX
  5
9C
  8
0
 10
96.999999999997414
 20
66.736481776669294
 30
0.0
 42
0.0991869513187082
  0
SEQEND
  5
9D
  8
0
  0
POLYLINE
  5
9E
  8
0
 66
     1
 10
0.0
 20
0.0
 30
0.0
  0
VERTEX
  5
9F
  8
0
 10
96.999999999998735
 20
66.736481776669294
 30
0.0
 42
0.0984914033570649
  0
VERTEX
  5
A0
  8
0
 10
96.923879532510114
 20
67.119165209034463
 30
0.0
 42
0.098491403357111
  0
VERTEX
  5
A1
  8
0
 10
96.707106781185672
 20
67.443588557855833
 30
0.0
 42
0.0984914033572209
 70
     2
 50
134.99999999996419
  0
VERTEX
  5
A2
  8
0
 10
96.354482030601247
 20
67.679204883398214
 30
0.0
 42
0.1167787968879798
 50
134.99999999996419
  0
VERTEX
  5
A3
  8
0
 10
96.0
 20
67.736481776669251
 30
0.0
 42
0.0984914033572819
  0
SEQEND
  5
A4
  8
0
  0
LINE
  5
A5
  8
2
 10
101.5414999999999
 20
68.0
 30
0.0
 11
96.0
 21
68.0
 31
0.0
  0
LINE
  5
A6
  8
2
 10
101.0
 20
67.458500000000072
 30
0.0
 11
94.0
 21
67.458500000000072
 31
0.0
  0
LINE
  5
A7
  8
2
 10
101.0
 20
62.5414999999999
 30
0.0
 11
94.0
 21
62.5414999999999
 31
0.0
  0
LINE
  5
A8
  8
2
 10
101.5414999999999
 20
62.0
 30
0.0
 11
96.0
 21
62.0
 31
0.0
  0
LINE
  5
A9
  8
2
 10
96.0
 20
68.0
 30
0.0
 11
96.0
 21
62.0
 31
0.0
  0
LINE
  5
AA
  8
2
 10
94.0
 20
67.458500000000072
 30
0.0
 11
94.0
 21
62.5414999999999
 31
0.0
  0
LINE
  5
AB
  8
2
 10
94.000000000000028
 20
67.458500000000043
 30
0.0
 11
92.522784168120694
 21
64.999999999999972
 31
0.0
  0
LINE
  5
AC
  8
2
 10
93.999999999999957
 20
62.5414999999999
 30
0.0
 11
92.522784168120694
 21
64.999999999999972
 31
0.0
  0
LINE
  5
AD
  8
2
 10
96.0
 20
62.0
 30
0.0
 11
95.062094487701614
 21
62.541499999999921
 31
0.0
  0
LINE
  5
AE
  8
2
 10
96.0
 20
67.999999999999886
 30
0.0
 11
95.062094487701614
 21
67.458499999999958
 31
0.0
  0
LINE
  5
AF
  8
2
 10
102.0
 20
68.4585000000001
 30
0.0
 11
101.0
 21
67.458500000000043
 31
0.0
  0
LINE
  5
B0
  8
2
 10
101.0
 20
62.5414999999999
 30
0.0
 11
102.0
 21
61.541499999999871
 31
0.0
  0
LINE
  5
B1
  8
2
 10
101.0
 20
67.458500000000072
 30
0.0
 11
101.0
 21
62.541499999999921
 31
0.0
  0
LINE
  5
B2
  8
0
 10
101.6999999999997
 20
60.0
 30
0.0
 11
102.0
 21
60.0
 31
0.0
  0
LINE
  5
B3
  8
2
 10
92.000000000000014
 20
60.000000000000007
 30
0.0
 11
101.6999999999997
 21
60.0
 31
0.0
  0
LINE
  5
B4
  8
2
 10
92.000000000000014
 20
69.999999999999957
 30
0.0
 11
101.6999999999997
 21
69.999999999999972
 31
0.0
  0
LINE
  5
B5
  8
0
 10
90.458980337503164
 20
74.999999999999986
 30
0.0
 11
91.458980337503107
 21
76.000000000001791
 31
0.0
  0
POLYLINE
  5
B6
  8
0
 66
     1
 10
0.0
 20
0.0
 30
0.0
  0
VERTEX
  5
B7
  8
0
 10
90.458980337503164
 20
71.980158586665894
 30
0.0
 42
0.1357624536129769
  0
VERTEX
  5
B8
  8
0
 10
90.820724589524417
 20
72.080225539555016
 30
0.0
 42
0.1069328816758945
  0
VERTEX
  5
B9
  8
0
 10
91.166087118689717
 20
72.403778920080995
 30
0.0
 42
0.0816835820661553
 70
     2
 50
55.339824071446117
  0
VERTEX
  5
BA
  8
0
 10
91.378413302416845
 20
72.852539510998426
 30
0.0
 42
0.0698441514689261
 50
55.339824071446117
  0
VERTEX
  5
BB
  8
0
 10
91.458980337503164
 20
73.426488874308731
 30
0.0
 42
0.0698441514689051
  0
SEQEND
  5
BC
  8
0
  0
POLYLINE
  5
BD
  8
0
 66
     1
 10
0.0
 20
0.0
 30
0.0
  0
VERTEX
  5
BE
  8
0
 10
90.458980337503135
 20
65.74422339480931
 30
0.0
 42
0.112952233495438
  0
VERTEX
  5
BF
  8
0
 10
90.833766594775497
 20
65.829983428763853
 30
0.0
 42
0.1033521303521588
  0
VERTEX
  5
C0
  8
0
 10
91.166087118689674
 20
66.085709519864864
 30
0.0
 42
0.0921557829877799
 70
     2
 50
49.38025332515128
  0
VERTEX
  5
C1
  8
0
 10
91.401238419759522
 20
66.491542839450361
 30
0.0
 42
0.102498577777232
 50
49.38025332515128
  0
VERTEX
  5
C2
  8
0
 10
91.458980337503164
 20
66.910129954336213
 30
0.0
 42
0.0855486455907096
  0
VERTEX
  5
C3
  8
0
 10
91.380733839869805
 20
67.364104675777938
 30
0.0
 42
0.0921557829877674
  0
VERTEX
  5
C4
  8
0
 10
91.166087118689674
 20
67.734550388807563
 30
0.0
 42
0.0006211829298046
 70
     2
 50
130.6197466748487
  0
VERTEX
  5
C5
  8
0
 10
91.164426394975095
 20
67.736481776669294
 30
0.0
 42
0.1129522334954706
 50
130.6197466748487
  0
SEQEND
  5
C6
  8
0
  0
POLYLINE
  5
C7
  8
0
 66
     1
 10
0.0
 20
0.0
 30
0.0
  0
VERTEX
  5
C8
  8
0
 10
91.458980337503164
 20
73.426488874308731
 30
0.0
 42
0.0281235132331599
  0
VERTEX
  5
C9
  8
0
 10
91.445810616749455
 20
73.660444431189745
 30
0.0
 42
0.0816835820661416
  0
SEQEND
  5
CA
  8
0
  0
POLYLINE
  5
CB
  8
0
 66
     1
 10
0.0
 20
0.0
 30
0.0
  0
VERTEX
  5
CC
  8
0
 10
90.458980337503135
 20
74.008349226211052
 30
0.0
 42
0.1264137453229119
  0
VERTEX
  5
CD
  8
0
 10
90.826134506911686
 20
74.102683394589434
 30
0.0
 42
0.106014725762345
  0
VERTEX
  5
CE
  8
0
 10
91.166087118689717
 20
74.397390385519998
 30
0.0
 42
0.0859711009775293
 70
     2
 50
53.025401037070111
  0
VERTEX
  5
CF
  8
0
 10
91.401197527364758
 20
74.855904583717944
 30
0.0
 42
0.091584542955487
 50
53.025401037070111
  0
VERTEX
  5
D0
  8
0
 10
91.458980337503164
 20
75.336618828645001
 30
0.0
 42
0.0085753637371852
  0
VERTEX
  5
D1
  8
0
 10
91.457945946013254
 20
75.396926207859082
 30
0.0
 42
0.0859711009775116
  0
SEQEND
  5
D2
  8
0
  0
POLYLINE
  5
D3
  8
0
 66
     1
 10
0.0
 20
0.0
 30
0.0
  0
VERTEX
  5
D4
  8
0
 10
91.164426394973731
 20
67.736481776670928
 30
0.0
 42
0.0036851577796042
  0
VERTEX
  5
D5
  8
0
 10
90.872259377343255
 20
67.734328384311084
 30
0.0
 42
0.0052085144068955
  0
VERTEX
  5
D6
  8
0
 10
90.665600703974945
 20
67.729128271844814
 30
0.0
 42
0.0125345551502357
 70
     2
 50
182.03826490512631
  0
VERTEX
  5
D7
  8
0
 10
90.464041751133848
 20
67.716890281904924
 30
0.0
 50
182.03826490512631
  0
VERTEX
  5
D8
  8
0
 10
90.458980337503164
 20
67.711375340762615
 30
0.0
  0
SEQEND
  5
D9
  8
0
  0
POLYLINE
  5
DA
  8
0
 66
     1
 10
0.0
 20
0.0
 30
0.0
  0
VERTEX
  5
DB
  8
0
 10
90.458980337503135
 20
69.110057805399649
 30
0.0
 42
0.1313437824762944
  0
VERTEX
  5
DC
  8
0
 10
90.823290636459433
 20
69.207437506364741
 30
0.0
 42
0.1065878680515746
  0
VERTEX
  5
DD
  8
0
 10
91.166087118689674
 20
69.517162448740763
 30
0.0
 42
0.0837035582594187
 70
     2
 50
54.266706664172197
  0
VERTEX
  5
DE
  8
0
 10
91.40124501464274
 20
69.995827912213301
 30
0.0
 42
0.0880311528106757
 50
54.266706664172197
  0
VERTEX
  5
DF
  8
0
 10
91.458980337503164
 20
70.499999999999957
 30
0.0
 42
0.0657692923710514
  0
VERTEX
  5
E0
  8
0
 10
91.392925317548745
 20
70.999999999999972
 30
0.0
 42
0.0837035935685364
  0
SEQEND
  5
E1
  8
0
  0
POLYLINE
  5
E2
  8
0
 66
     1
 10
0.0
 20
0.0
 30
0.0
  0
VERTEX
  5
E3
  8
0
 10
91.392925317548745
 20
70.999999999999972
 30
0.0
 42
0.0177189272708453
  0
VERTEX
  5
E4
  8
0
 10
91.007235729384817
 20
70.986327695914525
 30
0.0
 42
0.0247202943034733
  0
VERTEX
  5
E5
  8
0
 10
90.732526488903346
 20
70.95312015418024
 30
0.0
 42
0.0556996223540668
 70
     2
 50
189.72477460228609
  0
VERTEX
  5
E6
  8
0
 10
90.487323078251947
 20
70.882341687416854
 30
0.0
 50
189.72477460228609
  0
VERTEX
  5
E7
  8
0
 10
90.458980337503164
 20
70.839942194600283
 30
0.0
  0
SEQEND
  5
E8
  8
0
  0
POLYLINE
  5
E9
  8
0
 66
     1
 10
0.0
 20
0.0
 30
0.0
  0
VERTEX
  5
EA
  8
0
 10
91.445810616749412
 20
73.660444431189745
 30
0.0
 42
0.0412338094258564
  0
VERTEX
  5
EB
  8
0
 10
91.043476681215282
 20
73.627208400745744
 30
0.0
 42
0.0543157360887474
  0
VERTEX
  5
EC
  8
0
 10
90.748016234414294
 20
73.544365400822869
 30
0.0
 42
0.0973195254250049
 70
     2
 50
201.88077247667979
  0
VERTEX
  5
ED
  8
0
 10
90.501038069893667
 20
73.383989631912513
 30
0.0
 42
0.2359323889828584
 50
201.88077247667979
  0
VERTEX
  5
EE
  8
0
 10
90.458980337504158
 20
73.264125831401714
 30
0.0
 42
0.2029309459319423
  0
SEQEND
  5
EF
  8
0
  0
POLYLINE
  5
F0
  8
0
 66
     1
 10
0.0
 20
0.0
 30
0.0
  0
VERTEX
  5
F1
  8
0
 10
91.457945946013496
 20
75.396926207859082
 30
0.0
 42
0.07125740644457
  0
VERTEX
  5
F2
  8
0
 10
91.062159596721216
 20
75.340232923505994
 30
0.0
 42
0.0827568216601228
  0
VERTEX
  5
F3
  8
0
 10
90.751570590063665
 20
75.190321592317588
 30
0.0
 42
0.1067686003866145
 70
     2
 50
215.22678264085681
  0
VERTEX
  5
F4
  8
0
 10
90.513009406263876
 20
74.930748368449542
 30
0.0
 42
0.1554222116688372
 50
215.22678264085681
  0
VERTEX
  5
F5
  8
0
 10
90.458980337503164
 20
74.69153392742848
 30
0.0
 42
0.1334107515023988
  0
SEQEND
  5
F6
  8
0
  0
POLYLINE
  5
F7
  8
0
 66
     1
 10
0.0
 20
0.0
 30
0.0
  0
VERTEX
  5
F8
  8
0
 10
90.458980337503164
 20
74.950000000000003
 30
0.0
 42
0.0176232818351147
  0
VERTEX
  5
F9
  8
0
 10
90.526135521943345
 20
74.952367724852294
 30
0.0
 42
0.1002177893370621
  0
SEQEND
  5
FA
  8
0
  0
POLYLINE
  5
FB
  8
0
 66
     1
 10
0.0
 20
0.0
 30
0.0
  0
VERTEX
  5
FC
  8
0
 10
91.270595568917415
 20
75.384422800598927
 30
0.0
 42
0.0603807619314468
 70
     2
 50
46.397181027345468
  0
VERTEX
  5
FD
  8
0
 10
91.401500481973883
 20
75.626128654787934
 30
0.0
 42
0.112064963543386
 50
46.397181027345468
  0
VERTEX
  5
FE
  8
0
 10
91.458980337503164
 20
76.000000000001819
 30
0.0
 42
0.0942139302208779
  0
SEQEND
  5
FF
  8
0
  0
POLYLINE
  5
100
  8
0
 66
     1
 10
0.0
 20
0.0
 30
0.0
  0
VERTEX
  5
101
  8
0
 10
91.270595568917415
 20
54.615577199401038
 30
0.0
 42
-0.0603807619314468
 70
     2
 50
313.60281897265457
  0
VERTEX
  5
102
  8
0
 10
91.401500481973883
 20
54.373871345212038
 30
0.0
 42
-0.112064963543386
  0
VERTEX
  5
103
  8
0
 10
91.458980337503164
 20
53.999999999998153
 30
0.0
 42
-0.0942139302208779
  0
SEQEND
  5
104
  8
0
  0
POLYLINE
  5
105
  8
0
 66
     1
 10
0.0
 20
0.0
 30
0.0
  0
VERTEX
  5
106
  8
0
 10
90.458980337503164
 20
55.049999999999969
 30
0.0
 42
-0.0176232818351147
  0
VERTEX
  5
107
  8
0
 10
90.526135521943345
 20
55.047632275147677
 30
0.0
 42
-0.1002177893370621
  0
SEQEND
  5
108
  8
0
  0
POLYLINE
  5
109
  8
0
 66
     1
 10
0.0
 20
0.0
 30
0.0
  0
VERTEX
  5
10A
  8
0
 10
91.457945946013496
 20
54.60307379214089
 30
0.0
 42
-0.07125740644457
  0
VERTEX
  5
10B
  8
0
 10
91.062159596721216
 20
54.659767076493956
 30
0.0
 42
-0.0827568216601228
  0
VERTEX
  5
10C
  8
0
 10
90.751570590063665
 20
54.809678407682377
 30
0.0
 42
-0.1067686003866145
 70
     2
 50
144.77321735914319
  0
VERTEX
  5
10D
  8
0
 10
90.513009406263876
 20
55.069251631550429
 30
0.0
 42
-0.1554222116688372
  0
VERTEX
  5
10E
  8
0
 10
90.458980337503164
 20
55.308466072571491
 30
0.0
 42
-0.1334107515023988
  0
SEQEND
  5
10F
  8
0
  0
POLYLINE
  5
110
  8
0
 66
     1
 10
0.0
 20
0.0
 30
0.0
  0
VERTEX
  5
111
  8
0
 10
91.445810616749412
 20
56.339555568810233
 30
0.0
 42
-0.0412338094258564
  0
VERTEX
  5
112
  8
0
 10
91.043476681215282
 20
56.372791599254228
 30
0.0
 42
-0.0543157360887474
  0
VERTEX
  5
113
  8
0
 10
90.748016234414294
 20
56.455634599177102
 30
0.0
 42
-0.0973195254250049
 70
     2
 50
158.11922752332009
  0
VERTEX
  5
114
  8
0
 10
90.501038069893667
 20
56.616010368087437
 30
0.0
 42
-0.2359323889828584
  0
VERTEX
  5
115
  8
0
 10
90.458980337504158
 20
56.735874168598237
 30
0.0
 42
-0.2029309459319423
  0
SEQEND
  5
116
  8
0
  0
POLYLINE
  5
117
  8
0
 66
     1
 10
0.0
 20
0.0
 30
0.0
  0
VERTEX
  5
118
  8
0
 10
91.392925317548745
 20
59.0
 30
0.0
 42
-0.0177189272708453
  0
VERTEX
  5
119
  8
0
 10
91.007235729384817
 20
59.013672304085432
 30
0.0
 42
-0.0247202943034733
  0
VERTEX
  5
11A
  8
0
 10
90.732526488903346
 20
59.046879845819731
 30
0.0
 42
-0.0556996223540668
 70
     2
 50
170.27522539771391
  0
VERTEX
  5
11B
  8
0
 10
90.487323078251947
 20
59.11765831258311
 30
0.0
  0
VERTEX
  5
11C
  8
0
 10
90.458980337503164
 20
59.160057805399681
 30
0.0
  0
SEQEND
  5
11D
  8
0
  0
POLYLINE
  5
11E
  8
0
 66
     1
 10
0.0
 20
0.0
 30
0.0
  0
VERTEX
  5
11F
  8
0
 10
90.458980337503135
 20
60.889942194600323
 30
0.0
 42
-0.1313437824762944
  0
VERTEX
  5
120
  8
0
 10
90.823290636459433
 20
60.792562493635231
 30
0.0
 42
-0.1065878680515746
  0
VERTEX
  5
121
  8
0
 10
91.166087118689674
 20
60.482837551259209
 30
0.0
 42
-0.0837035582594187
 70
     2
 50
305.7332933358278
  0
VERTEX
  5
122
  8
0
 10
91.40124501464274
 20
60.004172087786671
 30
0.0
 42
-0.0880311528106757
  0
VERTEX
  5
123
  8
0
 10
91.458980337503164
 20
59.500000000000007
 30
0.0
 42
-0.0657692923710514
  0
VERTEX
  5
124
  8
0
 10
91.392925317548745
 20
59.0
 30
0.0
 42
-0.0837035935685364
  0
SEQEND
  5
125
  8
0
  0
POLYLINE
  5
126
  8
0
 66
     1
 10
0.0
 20
0.0
 30
0.0
  0
VERTEX
  5
127
  8
0
 10
91.164426394973731
 20
62.263518223329051
 30
0.0
 42
-0.0036851577796042
  0
VERTEX
  5
128
  8
0
 10
90.872259377343255
 20
62.265671615688873
 30
0.0
 42
-0.0052085144068955
  0
VERTEX
  5
129
  8
0
 10
90.665600703974945
 20
62.27087172815515
 30
0.0
 42
-0.0125345551502357
 70
     2
 50
177.96173509487369
  0
VERTEX
  5
12A
  8
0
 10
90.464041751133848
 20
62.283109718095027
 30
0.0
  0
VERTEX
  5
12B
  8
0
 10
90.458980337503164
 20
62.288624659237357
 30
0.0
  0
SEQEND
  5
12C
  8
0
  0
POLYLINE
  5
12D
  8
0
 66
     1
 10
0.0
 20
0.0
 30
0.0
  0
VERTEX
  5
12E
  8
0
 10
90.458980337503135
 20
55.991650773788912
 30
0.0
 42
-0.1264137453229119
  0
VERTEX
  5
12F
  8
0
 10
90.826134506911686
 20
55.897316605410538
 30
0.0
 42
-0.106014725762345
  0
VERTEX
  5
130
  8
0
 10
91.166087118689717
 20
55.602609614479981
 30
0.0
 42
-0.0859711009775293
 70
     2
 50
306.97459896292992
  0
VERTEX
  5
131
  8
0
 10
91.401197527364758
 20
55.144095416282013
 30
0.0
 42
-0.091584542955487
  0
VERTEX
  5
132
  8
0
 10
91.458980337503164
 20
54.66338117135497
 30
0.0
 42
-0.0085753637371852
  0
VERTEX
  5
133
  8
0
 10
91.457945946013254
 20
54.60307379214089
 30
0.0
 42
-0.0859711009775116
  0
SEQEND
  5
134
  8
0
  0
POLYLINE
  5
135
  8
0
 66
     1
 10
0.0
 20
0.0
 30
0.0
  0
VERTEX
  5
136
  8
0
 10
91.458980337503164
 20
56.57351112569124
 30
0.0
 42
-0.0281235132331599
  0
VERTEX
  5
137
  8
0
 10
91.445810616749455
 20
56.339555568810233
 30
0.0
 42
-0.0816835820661416
  0
SEQEND
  5
138
  8
0
  0
POLYLINE
  5
139
  8
0
 66
     1
 10
0.0
 20
0.0
 30
0.0
  0
VERTEX
  5
13A
  8
0
 10
90.458980337503135
 20
64.255776605190661
 30
0.0
 42
-0.112952233495438
  0
VERTEX
  5
13B
  8
0
 10
90.833766594775497
 20
64.170016571236104
 30
0.0
 42
-0.1033521303521588
  0
VERTEX
  5
13C
  8
0
 10
91.166087118689674
 20
63.914290480135101
 30
0.0
 42
-0.0921557829877799
 70
     2
 50
310.61974667484873
  0
VERTEX
  5
13D
  8
0
 10
91.401238419759522
 20
63.508457160549611
 30
0.0
 42
-0.102498577777232
  0
VERTEX
  5
13E
  8
0
 10
91.458980337503164
 20
63.089870045663751
 30
0.0
 42
-0.0855486455907096
  0
VERTEX
  5
13F
  8
0
 10
91.380733839869805
 20
62.635895324222027
 30
0.0
 42
-0.0921557829877674
  0
VERTEX
  5
140
  8
0
 10
91.166087118689674
 20
62.265449611192409
 30
0.0
 42
-0.0006211829298046
 70
     2
 50
229.3802533251513
  0
VERTEX
  5
141
  8
0
 10
91.164426394975095
 20
62.263518223330678
 30
0.0
 42
-0.1129522334954706
  0
SEQEND
  5
142
  8
0
  0
POLYLINE
  5
143
  8
0
 66
     1
 10
0.0
 20
0.0
 30
0.0
  0
VERTEX
  5
144
  8
0
 10
90.458980337503164
 20
58.019841413334063
 30
0.0
 42
-0.1357624536129769
  0
VERTEX
  5
145
  8
0
 10
90.820724589524417
 20
57.919774460444948
 30
0.0
 42
-0.1069328816758945
  0
VERTEX
  5
146
  8
0
 10
91.166087118689717
 20
57.596221079918983
 30
0.0
 42
-0.0816835820661553
 70
     2
 50
304.660175928554
  0
VERTEX
  5
147
  8
0
 10
91.378413302416845
 20
57.147460489001539
 30
0.0
 42
-0.0698441514689261
  0
VERTEX
  5
148
  8
0
 10
91.458980337503164
 20
56.57351112569124
 30
0.0
 42
-0.0698441514689051
  0
SEQEND
  5
149
  8
0
  0
LINE
  5
14A
  8
0
 10
90.458980337503164
 20
54.999999999999993
 30
0.0
 11
91.458980337503107
 21
53.999999999998181
 31
0.0
  0
POLYLINE
  5
14B
  8
0
 66
     1
 10
0.0
 20
0.0
 30
0.0
  0
VERTEX
  5
14C
  8
0
 10
96.999999999998735
 20
63.263518223330657
 30
0.0
 42
-0.0984914033570649
  0
VERTEX
  5
14D
  8
0
 10
96.923879532510114
 20
62.880834790965487
 30
0.0
 42
-0.098491403357111
  0
VERTEX
  5
14E
  8
0
 10
96.707106781185672
 20
62.556411442144139
 30
0.0
 42
-0.0984914033572209
 70
     2
 50
225.00000000003581
  0
VERTEX
  5
14F
  8
0
 10
96.354482030601247
 20
62.320795116601737
 30
0.0
 42
-0.1167787968879798
  0
VERTEX
  5
150
  8
0
 10
96.0
 20
62.263518223330721
 30
0.0
 42
-0.0984914033572819
  0
SEQEND
  5
151
  8
0
  0
POLYLINE
  5
152
  8
0
 66
     1
 10
0.0
 20
0.0
 30
0.0
  0
VERTEX
  5
153
  8
0
 10
96.0
 20
64.255776605190661
 30
0.0
 42
-0.0977997608286787
  0
VERTEX
  5
154
  8
0
 10
96.383051119553556
 20
64.180128430285379
 30
0.0
 42
-0.0982022191882202
  0
VERTEX
  5
155
  8
0
 10
96.707106781186553
 20
63.965150853833059
 30
0.0
 42
-0.0987767920503924
 70
     2
 50
315.222641710289
  0
VERTEX
  5
156
  8
0
 10
96.942760514394962
 20
63.614992759867022
 30
0.0
 42
-0.1175450871260601
  0
VERTEX
  5
157
  8
0
 10
96.999999999997414
 20
63.263518223330657
 30
0.0
 42
-0.0991869513187082
  0
SEQEND
  5
158
  8
0
  0
LINE
  5
159
  8
0
 10
90.458980337503164
 20
64.255776605190675
 30
0.0
 11
96.0
 21
64.255776605190661
 31
0.0
  0
LINE
  5
15A
  8
0
 10
91.164426394975095
 20
62.263518223330678
 30
0.0
 11
95.999999999999972
 21
62.263518223330678
 31
0.0
  0
POLYLINE
  5
15B
  8
0
 66
     1
 10
0.0
 20
0.0
 30
0.0
  0
VERTEX
  5
15C
  8
0
 10
96.0
 20
60.889942194600323
 30
0.0
 42
-0.0885228847778437
  0
VERTEX
  5
15D
  8
0
 10
96.387875136911248
 20
60.820728160480598
 30
0.0
 42
-0.0937884263503702
  0
VERTEX
  5
15E
  8
0
 10
96.707106781186553
 20
60.629284160665897
 30
0.0
 42
-0.1023419655820169
 70
     2
 50
318.33276554769259
  0
VERTEX
  5
15F
  8
0
 10
96.94343926767317
 20
60.311594549820207
 30
0.0
 42
-0.1287307123387808
  0
VERTEX
  5
160
  8
0
 10
96.999999999998863
 20
59.999999999999972
 30
0.0
 42
-0.1093371813473585
  0
SEQEND
  5
161
  8
0
  0
POLYLINE
  5
162
  8
0
 66
     1
 10
0.0
 20
0.0
 30
0.0
  0
VERTEX
  5
163
  8
0
 10
96.999999999998863
 20
60.000000000000007
 30
0.0
 42
-0.0984914033570566
  0
VERTEX
  5
164
  8
0
 10
96.923879532510227
 20
59.61731656763483
 30
0.0
 42
-0.0984914033570902
  0
VERTEX
  5
165
  8
0
 10
96.707106781185757
 20
59.292893218813482
 30
0.0
 42
-0.0984914033572319
 70
     2
 50
225.00000000003291
  0
VERTEX
  5
166
  8
0
 10
96.382683432364587
 20
59.076120467488721
 30
0.0
 42
-0.0984914033572867
  0
VERTEX
  5
167
  8
0
 10
96.0
 20
59.0
 30
0.0
 42
-0.0984914033572722
  0
SEQEND
  5
168
  8
0
  0
LINE
  5
169
  8
0
 10
90.458980337503107
 20
60.889942194600309
 30
0.0
 11
96.0
 21
60.889942194600323
 31
0.0
  0
LINE
  5
16A
  8
0
 10
91.392925317549697
 20
59.0
 30
0.0
 11
96.0
 21
59.0
 31
0.0
  0
POLYLINE
  5
16B
  8
0
 66
     1
 10
0.0
 20
0.0
 30
0.0
  0
VERTEX
  5
16C
  8
0
 10
97.000000000000014
 20
57.339555568810198
 30
0.0
 42
-0.0984914033571286
  0
VERTEX
  5
16D
  8
0
 10
96.92387953251135
 20
56.95687213644517
 30
0.0
 42
-0.0984914033571594
  0
VERTEX
  5
16E
  8
0
 10
96.707106781186553
 20
56.632448787623659
 30
0.0
 42
-0.0984914033572042
 70
     2
 50
224.9999999999979
  0
VERTEX
  5
16F
  8
0
 10
96.382683432365042
 20
56.41567603629894
 30
0.0
 42
-0.0984914033571863
  0
VERTEX
  5
170
  8
0
 10
95.999999999999972
 20
56.339555568810233
 30
0.0
 42
-0.0984914033571539
  0
SEQEND
  5
171
  8
0
  0
POLYLINE
  5
172
  8
0
 66
     1
 10
0.0
 20
0.0
 30
0.0
  0
VERTEX
  5
173
  8
0
 10
96.0
 20
58.019841413334078
 30
0.0
 42
-0.0687735942286349
  0
VERTEX
  5
174
  8
0
 10
96.397307474391084
 20
57.964933181926803
 30
0.0
 42
-0.0808530481494667
  0
VERTEX
  5
175
  8
0
 10
96.707106781186553
 20
57.820590302618257
 30
0.0
 42
-0.1070308378656403
 70
     2
 50
325.77310017331951
  0
VERTEX
  5
176
  8
0
 10
96.94644932197221
 20
57.568858380899343
 30
0.0
 42
-0.1600969164469462
  0
VERTEX
  5
177
  8
0
 10
96.99999999999585
 20
57.339555568810212
 30
0.0
 42
-0.1375896364343942
  0
SEQEND
  5
178
  8
0
  0
LINE
  5
179
  8
0
 10
90.458980337503107
 20
58.019841413334063
 30
0.0
 11
96.0
 21
58.019841413334078
 31
0.0
  0
LINE
  5
17A
  8
0
 10
91.445810616749014
 20
56.339555568810233
 30
0.0
 11
95.999999999999972
 21
56.339555568810233
 31
0.0
  0
POLYLINE
  5
17B
  8
0
 66
     1
 10
0.0
 20
0.0
 30
0.0
  0
VERTEX
  5
17C
  8
0
 10
96.818297507746479
 20
55.028278881940118
 30
0.0
 42
-0.0107439791054499
 70
     2
 50
357.13759477389101
  0
VERTEX
  5
17D
  8
0
 10
96.993483993077945
 20
55.010941811496672
 30
0.0
  0
VERTEX
  5
17E
  8
0
 10
97.000000000000881
 20
55.0
 30
0.0
  0
SEQEND
  5
17F
  8
0
  0
POLYLINE
  5
180
  8
0
 66
     1
 10
0.0
 20
0.0
 30
0.0
  0
VERTEX
  5
181
  8
0
 10
96.999999999982535
 20
55.603073792140869
 30
0.0
 42
-0.0984914033556077
  0
VERTEX
  5
182
  8
0
 10
96.923879532494908
 20
55.220390359774981
 30
0.0
 42
-0.098491403356525
  0
VERTEX
  5
183
  8
0
 10
96.707106781174232
 20
54.895967010954351
 30
0.0
 42
-0.0984914033578243
 70
     2
 50
225.00000000049951
  0
VERTEX
  5
184
  8
0
 10
96.382683432357538
 20
54.67919425962932
 30
0.0
 42
-0.0984914033587124
  0
VERTEX
  5
185
  8
0
 10
96.0
 20
54.60307379214089
 30
0.0
 42
-0.0984914033587305
  0
SEQEND
  5
186
  8
0
  0
POLYLINE
  5
187
  8
0
 66
     1
 10
0.0
 20
0.0
 30
0.0
  0
VERTEX
  5
188
  8
0
 10
96.0
 20
55.991650773788933
 30
0.0
 42
-0.0399174738601831
  0
VERTEX
  5
189
  8
0
 10
96.408096274776739
 20
55.959018432500642
 30
0.0
 42
-0.052807795065124
  0
VERTEX
  5
18A
  8
0
 10
96.707106781186553
 20
55.877839210877212
 30
0.0
 42
-0.0960069432422777
 70
     2
 50
338.7650194359951
  0
VERTEX
  5
18B
  8
0
 10
96.958212501727616
 20
55.719691444026971
 30
0.0
 42
-0.2411404351806645
  0
VERTEX
  5
18C
  8
0
 10
96.999999999998735
 20
55.603073792140862
 30
0.0
 42
-0.2072223791585372
  0
SEQEND
  5
18D
  8
0
  0
LINE
  5
18E
  8
0
 10
90.458980337503164
 20
55.991650773788948
 30
0.0
 11
96.0
 21
55.991650773788933
 31
0.0
  0
LINE
  5
18F
  8
0
 10
91.457945946013496
 20
54.60307379214089
 30
0.0
 11
96.0
 21
54.60307379214089
 31
0.0
  0
ARC
  5
190
  8
0
 10
96.0
 20
54.999999999998167
 30
0.0
 40
1.0
 50
270.0
 51
0.0000000000001158
  0
LINE
  5
191
  8
0
 10
91.458980337503107
 20
53.999999999998167
 30
0.0
 11
96.0
 21
53.999999999998167
 31
0.0
  0
LINE
  5
192
  8
0
 10
97.0
 20
54.999999999999993
 30
0.0
 11
97.5
 21
54.999999999999993
 31
0.0
  0
LINE
  5
3F9
  8
1
 10
158.5
 20
64.999999999999986
 30
0.0
 11
131.5
 21
64.999999999999986
 31
0.0
  0
LINE
  5
3FA
  8
1
 10
145.0
 20
78.499999999999787
 30
0.0
 11
145.0
 21
51.50000000000005
 31
0.0
  0
CIRCLE
  5
3FB
  8
0
 10
145.0
 20
64.999999999999986
 30
0.0
 40
10.0
  0
ARC
  5
3FC
  8
0
 10
145.0
 20
74.999999999999986
 30
0.0
 40
1.0
 50
357.13401601740128
 51
182.86598398259861
  0
ARC
  5
3FD
  8
0
 10
148.42020143325669
 20
74.396926207859082
 30
0.0
 40
1.0
 50
337.13401601740128
 51
162.86598398259869
  0
ARC
  5
3FE
  8
0
 10
151.42787609686539
 20
72.660444431189759
 30
0.0
 40
1.0
 50
317.13401601740128
 51
142.86598398259869
  0
ARC
  5
3FF
  8
0
 10
153.6602540378444
 20
69.999999999999972
 30
0.0
 40
1.0
 50
297.13401601740128
 51
122.86598398259871
  0
ARC
  5
400
  8
0
 10
154.84807753012211
 20
66.736481776669294
 30
0.0
 40
1.0
 50
277.13401601740128
 51
102.86598398259861
  0
ARC
  5
401
  8
0
 10
154.848077530122
 20
63.263518223330678
 30
0.0
 40
1.0
 50
257.13401601740128
 51
82.865983982598692
  0
ARC
  5
402
  8
0
 10
153.6602540378444
 20
59.999999999999993
 30
0.0
 40
1.0
 50
237.13401601740131
 51
62.865983982598692
  0
ARC
  5
403
  8
0
 10
151.42787609686539
 20
57.339555568810212
 30
0.0
 40
1.0
 50
217.13401601740131
 51
42.865983982598699
  0
ARC
  5
404
  8
0
 10
148.42020143325661
 20
55.603073792140911
 30
0.0
 40
1.0
 50
197.13401601740131
 51
22.865983982598731
  0
ARC
  5
405
  8
0
 10
145.0
 20
54.999999999999993
 30
0.0
 40
1.0
 50
177.13401601740131
 51
2.8659839825986482
  0
ARC
  5
406
  8
0
 10
141.57979856674331
 20
55.603073792140911
 30
0.0
 40
1.0
 50
157.13401601740131
 51
342.86598398259872
  0
ARC
  5
407
  8
0
 10
138.57212390313461
 20
57.339555568810212
 30
0.0
 40
1.0
 50
137.13401601740131
 51
322.86598398259872
  0
ARC
  5
408
  8
0
 10
136.3397459621556
 20
59.999999999999972
 30
0.0
 40
1.0
 50
117.13401601740129
 51
302.86598398259872
  0
ARC
  5
409
  8
0
 10
135.15192246987789
 20
63.263518223330678
 30
0.0
 40
1.0
 50
97.134016017401365
 51
282.86598398259872
  0
ARC
  5
40A
  8
0
 10
135.15192246987789
 20
66.736481776669279
 30
0.0
 40
1.0
 50
77.134016017401407
 51
262.86598398259872
  0
ARC
  5
40B
  8
0
 10
136.3397459621556
 20
69.999999999999972
 30
0.0
 40
1.0
 50
57.134016017401443
 51
242.86598398259869
  0
ARC
  5
40C
  8
0
 10
138.57212390313461
 20
72.660444431189745
 30
0.0
 40
1.0
 50
37.134016017401457
 51
222.86598398259881
  0
ARC
  5
40D
  8
0
 10
141.57979856674319
 20
74.396926207859067
 30
0.0
 40
1.0
 50
17.134016017401478
 51
202.86598398259881
  0
CIRCLE
  5
40E
  8
3
 10
145.0
 20
64.999999999999986
 30
0.0
 40
3.0
  0
CIRCLE
  5
40F
  8
0
 10
145.0
 20
64.999999999999986
 30
0.0
 40
2.458499999999999
  0
CIRCLE
  5
410
  8
0
 10
145.0
 20
64.999999999999986
 30
0.0
 40
7.4999999999999281
  0
CIRCLE
  5
411
  8
0
 10
145.0
 20
64.999999999999986
 30
0.0
 40
6.9999999999999281
  0
CIRCLE
  5
412
  8
0
 10
145.0
 20
64.999999999999986
 30
0.0
 40
5.0
  0
TEXT
  5
56A
  8
0
 62
     3
 10
0.0
 20
0.0
 30
0.0
 40
10.0
  1
KN20-SUS
  7
STANDARD1
  0
ENDSEC
  0
EOF
