  0
SECTION
  2
HEADER
  9
$ACADVER
  1
AC1009
  9
$INSBASE
 10
0.0
 20
0.0
 30
0.0
  9
$EXTMIN
 10
0.0
 20
-2.960436562073669
 30
0.0
  9
$EXTMAX
 10
143.0751336613742
 20
84.161444126423987
 30
0.0
  9
$LIMMIN
 10
0.0
 20
0.0
  9
$LIMMAX
 10
187.5
 20
135.0
  9
$ORTHOMODE
 70
     1
  9
$REGENMODE
 70
     1
  9
$FILLMODE
 70
     1
  9
$QTEXTMODE
 70
     0
  9
$MIRRTEXT
 70
     0
  9
$DRAGMODE
 70
     2
  9
$LTSCALE
 40
5.0
  9
$OSMODE
 70
  3071
  9
$ATTMODE
 70
     1
  9
$TEXTSIZE
 40
1.6000000000000489
  9
$TRACEWID
 40
0.05
  9
$TEXTSTYLE
  7
STANDARD
  9
$CLAYER
  8
0
  9
$CELTYPE
  6
BYLAYER
  9
$CECOLOR
 62
   256
  9
$DIMSCALE
 40
0.5
  9
$DIMASZ
 40
3.0
  9
$DIMEXO
 40
2.0
  9
$DIMDLI
 40
0.38
  9
$DIMRND
 40
0.0
  9
$DIMDLE
 40
0.0
  9
$DIMEXE
 40
2.0
  9
$DIMTP
 40
0.0
  9
$DIMTM
 40
0.0
  9
$DIMTXT
 40
3.0
  9
$DIMCEN
 40
0.0
  9
$DIMTSZ
 40
0.0
  9
$DIMTOL
 70
     0
  9
$DIMLIM
 70
     0
  9
$DIMTIH
 70
     0
  9
$DIMTOH
 70
     0
  9
$DIMSE1
 70
     0
  9
$DIMSE2
 70
     0
  9
$DIMTAD
 70
     1
  9
$DIMZIN
 70
     0
  9
$DIMBLK
  1

  9
$DIMASO
 70
     0
  9
$DIMSHO
 70
     0
  9
$DIMPOST
  1

  9
$DIMAPOST
  1

  9
$DIMALT
 70
     0
  9
$DIMALTD
 70
     2
  9
$DIMALTF
 40
25.399999999999999
  9
$DIMLFAC
 40
1.0
  9
$DIMTOFL
 70
     1
  9
$DIMTVP
 40
1.6000000000000001
  9
$DIMTIX
 70
     1
  9
$DIMSOXD
 70
     0
  9
$DIMSAH
 70
     0
  9
$DIMBLK1
  1

  9
$DIMBLK2
  1

  9
$DIMSTYLE
  2
STANDARD
  9
$DIMCLRD
 70
     0
  9
$DIMCLRE
 70
     0
  9
$DIMCLRT
 70
     0
  9
$DIMTFAC
 40
1.0
  9
$DIMGAP
 40
0.09
  9
$LUNITS
 70
     2
  9
$LUPREC
 70
     4
  9
$SKETCHINC
 40
0.1
  9
$FILLETRAD
 40
0.0
  9
$AUNITS
 70
     0
  9
$AUPREC
 70
     4
  9
$MENU
  1
E:\r13\win\SUPPORT\ACAD
  9
$ELEVATION
 40
0.0
  9
$PELEVATION
 40
0.0
  9
$THICKNESS
 40
0.0
  9
$LIMCHECK
 70
     0
  9
$BLIPMODE
 70
     0
  9
$CHAMFERA
 40
0.0
  9
$CHAMFERB
 40
0.0
  9
$SKPOLY
 70
     0
  9
$TDCREATE
 40
2449839.7857986111
  9
$TDUPDATE
 40
2456597.4858353818
  9
$TDINDWG
 40
0.0112956597
  9
$TDUSRTIMER
 40
0.0112956597
  9
$USRTIMER
 70
     1
  9
$ANGBASE
 50
0.0
  9
$ANGDIR
 70
     0
  9
$PDMODE
 70
     0
  9
$PDSIZE
 40
0.0
  9
$PLINEWID
 40
0.0
  9
$COORDS
 70
     1
  9
$SPLFRAME
 70
     0
  9
$SPLINETYPE
 70
     6
  9
$SPLINESEGS
 70
     8
  9
$ATTDIA
 70
     0
  9
$ATTREQ
 70
     1
  9
$HANDLING
 70
     1
  9
$HANDSEED
  5
718
  9
$SURFTAB1
 70
     6
  9
$SURFTAB2
 70
     6
  9
$SURFTYPE
 70
     6
  9
$SURFU
 70
     6
  9
$SURFV
 70
     6
  9
$UCSNAME
  2

  9
$UCSORG
 10
0.0
 20
0.0
 30
0.0
  9
$UCSXDIR
 10
1.0
 20
0.0
 30
0.0
  9
$UCSYDIR
 10
0.0
 20
1.0
 30
0.0
  9
$PUCSNAME
  2

  9
$PUCSORG
 10
0.0
 20
0.0
 30
0.0
  9
$PUCSXDIR
 10
1.0
 20
0.0
 30
0.0
  9
$PUCSYDIR
 10
0.0
 20
1.0
 30
0.0
  9
$USERI1
 70
     0
  9
$USERI2
 70
     1
  9
$USERI3
 70
     1
  9
$USERI4
 70
     0
  9
$USERI5
 70
     0
  9
$USERR1
 40
0.0
  9
$USERR2
 40
0.0
  9
$USERR3
 40
0.0
  9
$USERR4
 40
0.0
  9
$USERR5
 40
0.0
  9
$WORLDVIEW
 70
     1
  9
$SHADEDGE
 70
     3
  9
$SHADEDIF
 70
    70
  9
$TILEMODE
 70
     1
  9
$MAXACTVP
 70
    16
  9
$PLIMCHECK
 70
     0
  9
$PEXTMIN
 10
1.0000000000000000E+020
 20
1.0000000000000000E+020
 30
1.0000000000000000E+020
  9
$PEXTMAX
 10
-1.0000000000000000E+020
 20
-1.0000000000000000E+020
 30
-1.0000000000000000E+020
  9
$PLIMMIN
 10
0.0
 20
0.0
  9
$PLIMMAX
 10
12.0
 20
9.0
  9
$UNITMODE
 70
     0
  9
$VISRETAIN
 70
     0
  9
$PLINEGEN
 70
     0
  9
$PSLTSCALE
 70
     0
  0
ENDSEC
  0
SECTION
  2
TABLES
  0
TABLE
  2
VPORT
 70
     1
  0
VPORT
  2
*ACTIVE
 70
     0
 10
0.0
 20
0.0
 11
1.0
 21
1.0
 12
93.74713919532617
 22
80.848703909439024
 13
0.0
 23
0.0
 14
5.0
 24
5.0
 15
5.0
 25
5.0
 16
0.0
 26
0.0
 36
1.0
 17
0.0
 27
0.0
 37
0.0
 40
169.22413112104309
 41
1.9089595375722539
 42
50.0
 43
0.0
 44
0.0
 50
0.0
 51
0.0
 71
     0
 72
   500
 73
     1
 74
     0
 75
     0
 76
     0
 77
     0
 78
     2
  0
ENDTAB
  0
TABLE
  2
LTYPE
 70
     4
  0
LTYPE
  2
CONTINUOUS
 70
     0
  3
Solid Line
 72
    65
 73
     0
 40
0.0
  0
LTYPE
  2
CENTER
 70
     0
  3
____ _ ____ _ ____ _ ____ _ ____ _ ____ _ ____
 72
    65
 73
     4
 40
2.0
 49
1.25
 49
-0.25
 49
0.25
 49
-0.25
  0
LTYPE
  2
HIDDEN
 70
     0
  3
_ _ _ _ _ _ _ _ _ _ _ _ _ _ _ _ _ _ _ _ _ _ _
 72
    65
 73
     2
 40
0.375
 49
0.25
 49
-0.125
  0
LTYPE
  2
PHANTOM2
 70
     0
  3
___ _ _ ___ _ _ ___ _ _ ___ _ _
 72
    65
 73
     6
 40
1.25
 49
0.625
 49
-0.125
 49
0.125
 49
-0.125
 49
0.125
 49
-0.125
  0
ENDTAB
  0
TABLE
  2
LAYER
 70
     4
  0
LAYER
  2
0
 70
     0
 62
     7
  6
CONTINUOUS
  0
LAYER
  2
1
 70
     0
 62
     1
  6
CENTER
  0
LAYER
  2
3
 70
     0
 62
     3
  6
CONTINUOUS
  0
LAYER
  2
2
 70
     0
 62
     2
  6
HIDDEN
  0
ENDTAB
  0
TABLE
  2
STYLE
 70
     2
  0
STYLE
  2
STANDARD
 70
     0
 40
0.0
 41
1.0
 50
0.0
 71
     0
 42
1.6000000000000489
  3
TXT
  4
BIGFONT
  0
STYLE
  2
STANDARD1
 70
     0
 40
0.0
 41
1.0
 50
0.0
 71
     0
 42
3.0
  3
txt
  4

  0
ENDTAB
  0
TABLE
  2
VIEW
 70
     1
  0
VIEW
  2
ALL
 70
     0
 40
135.0
 10
110.4957983193277
 20
67.5
 41
0.0
 11
0.0
 21
0.0
 31
1.0
 12
0.0
 22
0.0
 32
0.0
 42
0.0
 43
0.0
 44
0.0
 50
0.0
 71
     0
  0
ENDTAB
  0
TABLE
  2
UCS
 70
     0
  0
ENDTAB
  0
TABLE
  2
APPID
 70
     3
  0
APPID
  2
ACAD
 70
     0
  0
APPID
  2
ACAD_MLEADERVER
 70
     0
  0
APPID
  2
ACAD_NAV_VCDISPLAY
 70
     0
  0
ENDTAB
  0
TABLE
  2
DIMSTYLE
 70
     1
  0
DIMSTYLE
  2
STANDARD
 70
     0
  3

  4

  5

  6

  7

 40
1.0
 41
0.18
 42
0.0625
 43
0.38
 44
0.18
 45
0.0
 46
0.0
 47
0.0
 48
0.0
140
0.18
141
0.09
142
0.0
143
25.399999999999999
144
1.0
145
0.0
146
1.0
147
0.09
 71
     0
 72
     0
 73
     1
 74
     1
 75
     0
 76
     0
 77
     0
 78
     0
170
     0
171
     2
172
     0
173
     0
174
     0
175
     0
176
     0
177
     0
178
     0
  0
ENDTAB
  0
ENDSEC
  0
SECTION
  2
BLOCKS
  0
BLOCK
  8
0
  2
$MODEL_SPACE
 70
     0
 10
0.0
 20
0.0
 30
0.0
  3
$MODEL_SPACE
  1

  0
ENDBLK
  5
3E2
  8
0
  0
BLOCK
 67
     1
  8
0
  2
$PAPER_SPACE
 70
     0
 10
0.0
 20
0.0
 30
0.0
  3
$PAPER_SPACE
  1

  0
ENDBLK
  5
3E0
 67
     1
  8
0
  0
ENDSEC
  0
SECTION
  2
ENTITIES
  0
ARC
  5
4C6
  8
0
 10
90.928359461934576
 20
75.497181488625259
 30
0.0
 40
0.4879259606929179
 50
270.0
 51
303.16628177080207
  0
ARC
  5
4C7
  8
0
 10
90.711040033222588
 20
75.829707321790536
 30
0.0
 40
0.8851679068894036
 50
303.16628177080389
 51
327.63354177821782
  0
LINE
  5
4C8
  8
2
 10
91.219107461934627
 20
75.420696126423962
 30
0.0
 11
91.219107461934641
 21
71.402192126423955
 31
0.0
  0
ARC
  5
4C9
  8
0
 10
95.743053642912344
 20
76.079289107336294
 30
0.0
 40
1.059190130407214
 50
289.0299035293861
 51
309.78381232143067
  0
LINE
  5
4CA
  8
2
 10
100.23761146193441
 20
75.420696126423991
 30
0.0
 11
100.23761146193441
 21
71.402192126423984
 31
0.0
  0
LINE
  5
4CB
  8
0
 10
97.728359461934673
 20
81.161444126423973
 30
0.0
 11
97.728359461934673
 21
65.661444126423973
 31
0.0
  0
LINE
  5
4CC
  8
0
 10
100.42835946193431
 20
79.411444126424215
 30
0.0
 11
100.42835946193441
 21
67.411444126423817
 31
0.0
  0
LINE
  5
4CD
  8
0
 10
90.928359461934576
 20
81.661444126423078
 30
0.0
 11
90.928359461934647
 21
65.161444126423987
 31
0.0
  0
LINE
  5
4CE
  8
0
 10
89.659367934477856
 20
81.661444126423987
 30
0.0
 11
89.659367934477856
 21
65.161444126423987
 31
0.0
  0
LINE
  5
4CF
  8
0
 10
99.928359461934434
 20
79.911444126424215
 30
0.0
 11
99.928359461934434
 21
66.911444126423817
 31
0.0
  0
LINE
  5
4D0
  8
0
 10
100.7283594619344
 20
69.411444126423973
 30
0.0
 11
100.7283594619344
 21
77.411444126423973
 31
0.0
  0
LINE
  5
4D2
  8
0
 10
88.728359461934375
 20
69.738712173429306
 30
0.0
 11
88.728359461934375
 21
77.084176079418668
 31
0.0
  0
CIRCLE
  5
4D3
  8
0
 10
132.3251336613742
 20
73.411444126423987
 30
0.0
 40
2.009252
  0
ARC
  5
4D6
  8
0
 10
124.71668153101299
 20
75.883580081423588
 30
0.0
 40
1.0
 50
83.034862721523211
 51
240.9651372784775
  0
ARC
  5
4D7
  8
0
 10
139.93358579173551
 20
75.883580081423588
 30
0.0
 40
1.0
 50
299.03486272152259
 51
96.965137278476803
  0
CIRCLE
  5
4D8
  8
0
 10
132.3251336613742
 20
73.411444126423987
 30
0.0
 40
8.25
  0
ARC
  5
4DA
  8
0
 10
133.9884271879163
 20
65.586263320553542
 30
0.0
 40
1.0
 50
203.0348627215225
 51
0.9651372784769922
  0
ARC
  5
4DC
  8
0
 10
137.02741567971401
 20
66.939308171424386
 30
0.0
 40
1.0
 50
227.0348627215227
 51
24.965137278477041
  0
ARC
  5
4DD
  8
0
 10
139.25333689164981
 20
69.411444126423973
 30
0.0
 40
1.0
 50
251.03486272152321
 51
48.965137278477663
  0
ARC
  5
4DE
  8
0
 10
140.2813088243204
 20
72.575216420282743
 30
0.0
 40
1.0
 50
275.0348627215231
 51
72.965137278477513
  0
ARC
  5
4DF
  8
0
 10
95.714253253069799
 20
72.475360278256645
 30
0.0
 40
1.049438601536467
 50
5.4600662197237382
 51
69.334449509683097
  0
ARC
  5
4E0
  8
0
 10
95.697854121352549
 20
69.463453179106651
 30
0.0
 40
1.048302818200455
 50
291.52869423954479
 51
313.60281897270971
  0
ARC
  5
4E1
  8
0
 10
95.781073131823035
 20
69.054292062154403
 30
0.0
 40
1.0965043013123441
 50
54.306884430942652
 51
73.428722450111479
  0
ARC
  5
4E2
  8
0
 10
95.710813847229474
 20
72.664472461320159
 30
0.0
 40
1.079411945687722
 50
290.89932593617777
 51
312.67190521264098
  0
LINE
  5
4E3
  8
2
 10
100.7283594619344
 20
70.911444126423987
 30
0.0
 11
90.728359461934389
 21
70.911444126423959
 31
0.0
  0
LINE
  5
4E4
  8
2
 10
100.23761146193441
 20
71.402192126423984
 30
0.0
 11
91.219107461934627
 21
71.402192126423955
 31
0.0
  0
LINE
  5
4E5
  8
2
 10
100.42835946193441
 20
69.411444126423973
 30
0.0
 11
90.928359461934363
 21
69.411444126423973
 31
0.0
  0
ARC
  5
4E6
  8
0
 10
95.697854121352947
 20
65.638272373237243
 30
0.0
 40
1.0483028182013661
 50
291.52869423952689
 51
313.60281897268032
  0
LINE
  5
4E7
  8
0
 10
96.420821582180523
 20
65.598173846013864
 30
0.0
 11
95.678359461934704
 21
65.603107347193657
 31
0.0
  0
ARC
  5
4E8
  8
0
 10
95.859055352128564
 20
65.84021580336784
 30
0.0
 40
1.5062189295941351
 50
68.101436095847561
 51
80.546928848391943
  0
ARC
  5
4E9
  8
0
 10
95.697854121352691
 20
66.991317224107434
 30
0.0
 40
1.0483028182007601
 50
291.52869423953751
 51
313.60281897269579
  0
LINE
  5
4EA
  8
1
 10
103.2283594619346
 20
73.411444126423987
 30
0.0
 11
86.228359461934659
 21
73.411444126423987
 31
0.0
  0
ARC
  5
4EB
  8
0
 10
127.62285164303439
 20
66.939308171424443
 30
0.0
 40
1.0
 50
155.0348627215229
 51
312.96513727847667
  0
ARC
  5
4EC
  8
0
 10
130.66184013483209
 20
65.586263320553542
 30
0.0
 40
1.0
 50
179.03486272152301
 51
336.96513727847753
  0
ARC
  5
4EE
  8
0
 10
125.3969304310987
 20
69.411444126423973
 30
0.0
 40
1.0
 50
131.0348627215229
 51
288.9651372784769
  0
ARC
  5
4EF
  8
0
 10
124.3689584984281
 20
72.575216420282786
 30
0.0
 40
1.0
 50
107.034862721523
 51
264.96513727847679
  0
ARC
  5
4F0
  8
0
 10
95.984273055763566
 20
66.884132744718457
 30
0.0
 40
0.7461292834094091
 50
336.4946099011961
 51
4.2408299909822871
  0
ARC
  5
4F1
  8
0
 10
97.228359461934659
 20
65.661444126423973
 30
0.0
 40
0.5
 50
270.0
 51
0.0
  0
LINE
  5
4F2
  8
0
 10
97.228359461934659
 20
65.161444126423987
 30
0.0
 11
96.633953026026475
 21
65.161444126423987
 31
0.0
  0
ARC
  5
4F3
  8
0
 10
95.669587590192833
 20
65.667952230955279
 30
0.0
 40
1.0892892883834611
 50
313.6028189726843
 51
336.4946099011845
  0
ARC
  5
4F4
  8
0
 10
95.984273055764774
 20
65.531087893847513
 30
0.0
 40
0.7461292834088286
 50
336.49460990118519
 51
4.2408299909937739
  0
LINE
  5
4F5
  8
0
 10
96.728359461934645
 20
65.586263320554394
 30
0.0
 11
96.724911574616286
 21
65.589847324665683
 31
0.0
  0
ARC
  5
4F6
  8
0
 10
96.205569462267889
 20
52.180080254132797
 30
0.0
 40
13.41982001055181
 50
87.782120506933808
 51
89.08094394046104
  0
ARC
  5
4F7
  8
0
 10
95.669587590192137
 20
67.020997081825826
 30
0.0
 40
1.089289288383424
 50
313.60281897270443
 51
336.49460990120048
  0
LINE
  5
4F8
  8
2
 10
100.23761146193441
 20
71.402192126423984
 30
0.0
 11
100.7283594619344
 21
70.911444126423987
 31
0.0
  0
LINE
  5
4FA
  8
0
 10
100.7283594619344
 20
69.411444126423973
 30
0.0
 11
100.42835946193441
 21
69.411444126423973
 31
0.0
  0
ARC
  5
4FB
  8
0
 10
95.669587590191995
 20
69.493133036825441
 30
0.0
 40
1.0892892883833949
 50
313.60281897270102
 51
336.4946099011961
  0
ARC
  5
4FC
  8
0
 10
95.98427305576331
 20
69.356268699717546
 30
0.0
 40
0.7461292834093229
 50
336.49460990123112
 51
4.2408299910223137
  0
ARC
  5
4FD
  8
0
 10
96.178348871920633
 20
69.411444126423973
 30
0.0
 40
0.5500105900140248
 50
0.0000000000008142
 51
29.967119228420831
  0
ARC
  5
4FE
  8
0
 10
95.93815721687784
 20
69.272953136394634
 30
0.0
 40
0.8272682057282011
 50
29.9671192284355
 51
54.306884430948053
  0
LINE
  5
4FF
  8
0
 10
99.928359461934363
 20
66.91144412642376
 30
0.0
 11
100.42835946193431
 21
67.41144412642376
 31
0.0
  0
LINE
  5
500
  8
0
 10
97.728359461934673
 20
66.911444126423817
 30
0.0
 11
99.928359461934363
 21
66.91144412642376
 31
0.0
  0
ARC
  5
501
  8
0
 10
96.538906735647117
 20
66.939308171424358
 30
0.0
 40
0.1894527262875396
 50
0.0000000000105849
 51
45.859549571224733
  0
ARC
  5
502
  8
0
 10
96.132528115349004
 20
66.520549944079931
 30
0.0
 40
0.7729782492975027
 50
45.859549571201697
 51
68.101436095851184
  0
ARC
  5
503
  8
0
 10
95.704633333673627
 20
72.671176812884141
 30
0.0
 40
1.0885304476319899
 50
312.67190521264791
 51
335.8046245149838
  0
ARC
  5
504
  8
0
 10
96.038913047032096
 20
72.520977981976898
 30
0.0
 40
0.7220572350107845
 50
335.80462451510459
 51
4.3079182152336113
  0
ARC
  5
505
  8
0
 10
90.292368748702671
 20
66.287088179850414
 30
0.0
 40
1.3687492773852741
 50
14.204311748353909
 51
31.428403859714091
  0
ARC
  5
506
  8
0
 10
118.502694719022
 20
73.411444126423987
 30
0.0
 40
30.0
 50
187.03204224208559
 51
195.96201416284751
  0
LINE
  5
507
  8
0
 10
89.885032677390498
 20
65.161444126423987
 30
0.0
 11
90.928359461934647
 21
65.161444126423987
 31
0.0
  0
ARC
  5
508
  8
0
 10
91.372833395159816
 20
65.161444126423959
 30
0.0
 40
0.4444739332251615
 50
179.99999999999591
 51
208.4471165457511
  0
ARC
  5
509
  8
0
 10
91.521059732129487
 20
65.241747405964347
 30
0.0
 40
0.6130552598197481
 50
208.44711654575769
 51
232.59961011290909
  0
ARC
  5
50A
  8
0
 10
91.665510867009303
 20
65.430678982813561
 30
0.0
 40
0.8508813961016919
 50
232.59961011291429
 51
252.4272841518692
  0
ARC
  5
50B
  8
0
 10
91.633393588001169
 20
65.329264957531095
 30
0.0
 40
0.7445031834128124
 50
252.42728415191709
 51
273.63954215011012
  0
ARC
  5
50C
  8
0
 10
90.3107925560236
 20
64.586263320553712
 30
0.0
 40
1.3698615605488591
 50
359.99999999999352
 51
17.037621345128361
  0
ARC
  5
50D
  8
0
 10
90.614068743852982
 20
64.679201949482817
 30
0.0
 40
1.0526644060036889
 50
17.037621345132731
 51
36.495253812385513
  0
ARC
  5
50E
  8
0
 10
90.806353742244923
 20
64.821460715495746
 30
0.0
 40
0.8134760343923083
 50
36.495253812378991
 51
60.756648340379527
  0
ARC
  5
50F
  8
0
 10
90.928359461934676
 20
65.03937691226399
 30
0.0
 40
0.5637304349296772
 50
60.756648340377708
 51
90.000000000002444
  0
ARC
  5
510
  8
0
 10
91.040039839955568
 20
66.207539630168213
 30
0.0
 40
0.1116803780209139
 50
179.9999999999861
 51
228.9332195375689
  0
ARC
  5
511
  8
0
 10
91.337844533393493
 20
66.549319379681037
 30
0.0
 40
0.565002595224867
 50
228.9332195376133
 51
250.1545328797302
  0
ARC
  5
512
  8
0
 10
91.592982239104472
 20
67.256230999423522
 30
0.0
 40
1.316547196032033
 50
250.1545328797155
 51
261.49739578293719
  0
ARC
  5
513
  8
0
 10
91.613572299618795
 20
67.393959488395879
 30
0.0
 40
1.455806261326152
 50
261.49739578294287
 51
272.2824174812078
  0
ARC
  5
514
  8
0
 10
89.672909054985837
 20
66.130291177048903
 30
0.0
 40
2.0077450615866228
 50
354.54159294546662
 51
0.0000000000162844
  0
ARC
  5
515
  8
0
 10
89.672909054985965
 20
66.130291177049557
 30
0.0
 40
2.0077450615864971
 50
359.99999999999761
 51
14.204311748353909
  0
ARC
  5
516
  8
0
 10
95.678359461934676
 20
65.68768985795684
 30
0.0
 40
1.101426537403289
 50
270.0000000000008
 51
291.52869423952359
  0
ARC
  5
517
  8
0
 10
95.678359461934676
 20
67.040734708826335
 30
0.0
 40
1.101426537401945
 50
270.0000000000025
 51
291.52869423953751
  0
LINE
  5
518
  8
0
 10
91.671550024216813
 20
65.939308171424386
 30
0.0
 11
95.678359461934704
 21
65.939308171424386
 31
0.0
  0
LINE
  5
519
  8
0
 10
90.928359461934647
 20
65.603107347193657
 30
0.0
 11
95.678359461934704
 21
65.603107347193657
 31
0.0
  0
LINE
  5
51A
  8
0
 10
91.680654116572455
 20
64.586263320553542
 30
0.0
 11
95.678359461934704
 21
64.586263320553542
 31
0.0
  0
LINE
  5
51B
  8
2
 10
90.728359461934161
 20
69.911444126423973
 30
0.0
 11
88.754024204846814
 21
69.738712173429306
 31
0.0
  0
LINE
  5
51C
  8
2
 10
91.219107461934641
 20
71.402192126423955
 30
0.0
 11
90.728359461934645
 21
70.911444126423959
 31
0.0
  0
LINE
  5
51D
  8
0
 10
90.928359461934576
 20
68.465727627649343
 30
0.0
 11
90.938906331508306
 21
68.452993967810812
 31
0.0
  0
ARC
  5
51E
  8
0
 10
91.270056166999751
 20
70.200148723958705
 30
0.0
 40
1.778260373363862
 50
259.26765885647268
 51
265.51099368292262
  0
ARC
  5
51F
  8
0
 10
91.532605718534725
 20
73.544360696071578
 30
0.0
 40
5.1327627181885447
 50
265.51099368290221
 51
268.13743511578917
  0
ARC
  5
520
  8
0
 10
91.560277463868289
 20
74.395292496374395
 30
0.0
 40
5.9841443331276976
 50
268.13743511582089
 51
270.56984564135718
  0
ARC
  5
521
  8
0
 10
89.596370937105334
 20
68.911444126423703
 30
0.0
 40
2.0842831794671279
 50
346.11991479310387
 51
0.000000000007328
  0
ARC
  5
522
  8
0
 10
89.596370937105576
 20
68.911444126424072
 30
0.0
 40
2.0842831794668828
 50
359.99999999999761
 51
13.95165056963911
  0
ARC
  5
523
  8
0
 10
90.253862432467216
 20
69.074785972417956
 30
0.0
 40
1.4068057812272221
 50
13.95165056964621
 51
30.953964928276271
  0
ARC
  5
524
  8
0
 10
90.668559989879554
 20
69.323508133492041
 30
0.0
 40
0.9232390562211316
 50
30.953964928279198
 51
55.370132571593317
  0
ARC
  5
525
  8
0
 10
90.928359461934633
 20
69.699689218458317
 30
0.0
 40
0.4660651567403004
 50
55.370132571579781
 51
89.999999999998366
  0
ARC
  5
526
  8
0
 10
95.678359461934676
 20
69.512870663825296
 30
0.0
 40
1.1014265374013661
 50
270.0000000000025
 51
291.52869423954297
  0
ARC
  5
527
  8
0
 10
95.678359461934605
 20
68.709113971239503
 30
0.0
 40
1.456640403959103
 50
73.428722450102981
 51
89.999999999995936
  0
LINE
  5
528
  8
0
 10
90.928359461934576
 20
70.165754375198617
 30
0.0
 11
95.678359461934704
 21
70.165754375198617
 31
0.0
  0
LINE
  5
529
  8
0
 10
91.619792883267394
 20
68.411444126423987
 30
0.0
 11
95.678359461934704
 21
68.411444126423987
 31
0.0
  0
ARC
  5
52A
  8
0
 10
90.683226840537884
 20
66.525935017832651
 30
0.0
 40
0.9106904820683677
 50
31.428403859714091
 51
55.869210340440617
  0
ARC
  5
52B
  8
0
 10
90.928359461934619
 20
66.887575619846984
 30
0.0
 40
0.4737992746744454
 50
55.869210340432943
 51
89.999999999995936
  0
ARC
  5
52C
  8
0
 10
95.678359461934534
 20
64.754959925224412
 30
0.0
 40
2.6064149692970089
 50
80.546928848390195
 51
89.999999999995936
  0
LINE
  5
52D
  8
0
 10
90.928359461934576
 20
67.361374894521418
 30
0.0
 11
95.678359461934704
 21
67.361374894521418
 31
0.0
  0
ARC
  5
52E
  8
0
 10
90.190353288584689
 20
72.470687957015102
 30
0.0
 40
1.490300827987759
 50
0.0000000000008142
 51
16.37229916548851
  0
ARC
  5
52F
  8
0
 10
90.553188444675385
 20
72.577285562429381
 30
0.0
 40
1.1121310248894609
 50
16.372299165493651
 51
35.347070222092178
  0
ARC
  5
530
  8
0
 10
90.78295135513855
 20
72.740250321064025
 30
0.0
 40
0.8304423535138434
 50
35.347070222078841
 51
59.715204150750303
  0
ARC
  5
531
  8
0
 10
90.928359461934576
 20
72.989238127528523
 30
0.0
 40
0.5421049724998598
 50
59.71520415075392
 51
89.999999999998366
  0
ARC
  5
532
  8
0
 10
90.928359689055327
 20
72.217315383925907
 30
0.0
 40
0.6382404457333221
 50
270.00005135937232
 51
296.14750138222348
  0
ARC
  5
533
  8
0
 10
90.868237617676002
 20
72.339782703026415
 30
0.0
 40
0.7746695764738419
 50
296.14750138222718
 51
319.84419550278579
  0
ARC
  5
534
  8
0
 10
90.774227949193914
 20
72.419102812721135
 30
0.0
 40
0.8976715990998689
 50
319.84419550278648
 51
340.7359945477441
  0
ARC
  5
535
  8
0
 10
90.626627481682107
 20
72.470687686545503
 30
0.0
 40
1.0540266348907821
 50
340.73599454774183
 51
0.0000513593771563
  0
ARC
  5
536
  8
0
 10
95.678359461934676
 20
72.380197112991283
 30
0.0
 40
1.151145987037093
 50
69.334449509837953
 51
90.000000000002444
  0
ARC
  5
537
  8
0
 10
95.678359461934718
 20
76.266856580907032
 30
0.0
 40
1.2576010529746871
 50
269.99999999999682
 51
289.02990352938087
  0
ARC
  5
538
  8
0
 10
95.678359461934534
 20
72.749465095513116
 30
0.0
 40
1.1703901573206781
 50
270.00000000000807
 51
290.89932593618988
  0
LINE
  5
539
  8
0
 10
90.928359461934576
 20
75.009255527932325
 30
0.0
 11
95.678359461934704
 21
75.009255527932325
 31
0.0
  0
LINE
  5
53A
  8
0
 10
90.928359461934576
 20
73.53134310002838
 30
0.0
 11
95.678359461934704
 21
73.53134310002838
 31
0.0
  0
LINE
  5
53B
  8
0
 10
90.928359461934576
 20
71.579074938192491
 30
0.0
 11
95.678359461934704
 21
71.579074938192491
 31
0.0
  0
ARC
  5
53C
  8
0
 10
138.2702922651934
 20
78.764488977294832
 30
0.0
 40
1.0
 50
323.0348627215231
 51
120.9651372784771
  0
ARC
  5
53D
  8
0
 10
135.57902680598059
 20
80.719807787564775
 30
0.0
 40
1.0
 50
347.0348627215231
 51
144.96513727847679
  0
ARC
  5
53E
  8
0
 10
95.678359461934647
 20
81.361444126423976
 30
0.0
 40
1.05
 50
13.291815182867779
 51
90.0
  0
LINE
  5
53F
  8
0
 10
96.171792119719356
 20
81.602850376423987
 30
0.0
 11
96.700231774145223
 21
81.602850376423987
 31
0.0
  0
ARC
  5
540
  8
0
 10
95.697854121352634
 20
80.667798734882155
 30
0.0
 40
1.04830281820037
 50
46.397181027292667
 51
68.471305760460666
  0
ARC
  5
541
  8
0
 10
95.885333581909407
 20
83.067255804367534
 30
0.0
 40
2.5626647098219681
 50
275.05788903784821
 51
282.06126583735721
  0
ARC
  5
542
  8
0
 10
95.697854121352577
 20
78.712479924611401
 30
0.0
 40
1.048302818201224
 50
46.397181027307049
 51
68.471305760463977
  0
ARC
  5
543
  8
0
 10
95.822067838411854
 20
79.384788507218616
 30
0.0
 40
1.204816682184163
 50
283.34490797681758
 51
299.79951910555218
  0
ARC
  5
544
  8
0
 10
95.697854121352734
 20
75.83157102874091
 30
0.0
 40
1.048302818200322
 50
46.397181027299581
 51
68.471305760467601
  0
LINE
  5
545
  8
2
 10
100.42835946193441
 20
77.411444126423973
 30
0.0
 11
90.728359461934389
 21
77.411444126423973
 31
0.0
  0
LINE
  5
546
  8
2
 10
100.7283594619344
 20
75.911444126423987
 30
0.0
 11
90.728359461934389
 21
75.911444126423959
 31
0.0
  0
LINE
  5
547
  8
2
 10
100.23761146193441
 20
75.420696126423991
 30
0.0
 11
91.219107461934627
 21
75.420696126423948
 31
0.0
  0
ARC
  5
548
  8
0
 10
129.0712405167678
 20
80.719807787564775
 30
0.0
 40
1.0
 50
35.034862721522749
 51
192.9651372784769
  0
ARC
  5
549
  8
0
 10
132.3251336613742
 20
81.411444126423987
 30
0.0
 40
1.0
 50
11.034862721522821
 51
168.96513727847699
  0
ARC
  5
54A
  8
0
 10
126.3799750575551
 20
78.764488977294832
 30
0.0
 40
1.0
 50
59.034862721522927
 51
216.96513727847761
  0
ARC
  5
54B
  8
0
 10
95.727986197914703
 20
78.744118605001518
 30
0.0
 40
1.004611307186227
 50
23.505390098819181
 51
46.397181027312818
  0
LINE
  5
54C
  8
0
 10
100.7283594619344
 20
77.411444126423973
 30
0.0
 11
100.42835946193441
 21
77.411444126423973
 31
0.0
  0
ARC
  5
54D
  8
0
 10
95.774822797020164
 20
78.764488977294803
 30
0.0
 40
0.9535366649150115
 50
0.0000000000016284
 51
23.505390098812661
  0
ARC
  5
54E
  8
0
 10
96.017309015704939
 20
79.043871559020729
 30
0.0
 40
0.8119509508211956
 50
299.79951910555189
 51
324.12284778124541
  0
ARC
  5
54F
  8
0
 10
96.442372326881724
 20
78.736435283634762
 30
0.0
 40
0.2873597938887124
 50
324.12284778125718
 51
5.6024625616347832
  0
LINE
  5
550
  8
2
 10
100.7283594619344
 20
75.911444126423987
 30
0.0
 11
100.23761146193441
 21
75.420696126423991
 31
0.0
  0
ARC
  5
551
  8
0
 10
95.774822797019155
 20
75.883580081423588
 30
0.0
 40
0.9535366649155099
 50
0.0
 51
23.505390098798021
  0
ARC
  5
552
  8
0
 10
95.797732641302986
 20
76.013623619525305
 30
0.0
 40
0.9737398574149218
 50
309.78381232142829
 51
333.55239837164947
  0
ARC
  5
553
  8
0
 10
96.151090010398491
 20
75.837849435027906
 30
0.0
 40
0.5790779841235901
 50
333.55239837164521
 51
4.529448926969188
  0
ARC
  5
554
  8
0
 10
95.727986197914177
 20
75.863209709130473
 30
0.0
 40
1.0046113071862071
 50
23.505390098807531
 51
46.397181027297272
  0
LINE
  5
555
  8
0
 10
96.684590051808996
 20
81.661444126423987
 30
0.0
 11
97.228359461934659
 21
81.661444126423987
 31
0.0
  0
ARC
  5
556
  8
0
 10
97.228359461934659
 20
81.161444126423973
 30
0.0
 40
0.5
 50
0.0
 51
90.0
  0
ARC
  5
557
  8
0
 10
95.774822797019084
 20
80.719807787564804
 30
0.0
 40
0.9535366649155677
 50
359.99999999999761
 51
23.505390098797371
  0
ARC
  5
558
  8
0
 10
95.727986197914277
 20
80.699437415271646
 30
0.0
 40
1.004611307186156
 50
23.505390098812661
 51
46.397181027301308
  0
LINE
  5
559
  8
0
 10
96.70031382796715
 20
80.661093563075823
 30
0.0
 11
96.728359461934602
 21
80.719807787564775
 31
0.0
  0
LINE
  5
55A
  8
0
 10
97.728359461934673
 20
79.911444126424215
 30
0.0
 11
99.928359461934363
 21
79.911444126424215
 31
0.0
  0
LINE
  5
55B
  8
0
 10
99.928359461934363
 20
79.911444126424215
 30
0.0
 11
100.42835946193431
 21
79.411444126424215
 31
0.0
  0
ARC
  5
55C
  8
0
 10
96.186739407064792
 20
81.656671287382224
 30
0.0
 40
1.1202382295477471
 50
282.06126583735141
 51
297.28720330288428
  0
LINE
  5
55D
  8
0
 10
89.885032677390498
 20
81.661444126423987
 30
0.0
 11
90.928359461934647
 21
81.661444126423078
 31
0.0
  0
LINE
  5
55E
  8
2
 10
90.728359461934161
 20
76.911444126423973
 30
0.0
 11
88.754024204846814
 21
77.084176079418668
 31
0.0
  0
ARC
  5
55F
  8
0
 10
90.095556997604902
 20
79.345988023919688
 30
0.0
 40
1.585226460589344
 50
346.25933206552662
 51
3.1689347902467548
  0
ARC
  5
560
  8
0
 10
90.928359461934619
 20
78.621402935043264
 30
0.0
 40
0.4582429243527706
 50
269.99999999999761
 51
305.05562852165781
  0
ARC
  5
561
  8
0
 10
90.656530750598606
 20
79.008813468709391
 30
0.0
 40
0.9315058215907272
 50
305.0556285216623
 51
329.44505073332238
  0
ARC
  5
562
  8
0
 10
90.078175630858325
 20
79.350238216915955
 30
0.0
 40
1.6031199244933649
 50
329.44505073332681
 51
346.25933206553168
  0
LINE
  5
563
  8
0
 10
91.451360399501084
 20
76.87620020307395
 30
0.0
 11
91.449847585181161
 21
76.877765430633644
 31
0.0
  0
ARC
  5
564
  8
0
 10
91.190841653925389
 20
69.274725196634023
 30
0.0
 40
7.607450615826731
 50
88.048910740301693
 51
89.191573490426975
  0
LINE
  5
565
  8
0
 10
91.298176971454794
 20
76.881418565099295
 30
0.0
 11
90.928359461934576
 21
76.883580081423574
 31
0.0
  0
ARC
  5
566
  8
0
 10
95.678359461934761
 20
79.990596421563694
 30
0.0
 40
1.827436410873196
 50
269.99999999999682
 51
283.3449079768119
  0
ARC
  5
567
  8
0
 10
95.678359461934605
 20
75.782153544022322
 30
0.0
 40
1.1014265374012771
 50
68.471305760455493
 51
89.999999999997556
  0
LINE
  5
568
  8
0
 10
90.928359461934576
 20
78.16316001069049
 30
0.0
 11
95.678359461934647
 21
78.16316001069049
 31
0.0
  0
LINE
  5
569
  8
0
 10
90.928359461934576
 20
76.883580081423574
 30
0.0
 11
95.678359461934704
 21
76.883580081423574
 31
0.0
  0
LINE
  5
56A
  8
2
 10
90.728359461934616
 20
75.911444126423959
 30
0.0
 11
91.219107461934627
 21
75.420696126423962
 31
0.0
  0
ARC
  5
56B
  8
0
 10
90.242083503771084
 20
76.126931227875033
 30
0.0
 40
1.440381628678888
 50
327.63354177822362
 51
345.2902005971103
  0
ARC
  5
56C
  8
0
 10
90.295527386312557
 20
76.112900717613954
 30
0.0
 40
1.385126730259886
 50
345.29020059706909
 51
33.440336345158137
  0
LINE
  5
56D
  8
0
 10
90.928359461934647
 20
81.661444126423078
 30
0.0
 11
91.678359461935557
 21
82.411444126423973
 31
0.0
  0
LINE
  5
56E
  8
0
 10
91.162053764953555
 20
81.602850376423987
 30
0.0
 11
90.928359461934576
 21
81.602850376423987
 31
0.0
  0
ARC
  5
56F
  8
0
 10
90.928359461934718
 20
82.299882637094768
 30
0.0
 40
0.6970322606707687
 50
269.99999999999022
 51
294.06429669188668
  0
ARC
  5
570
  8
0
 10
90.90419318485462
 20
82.353997469677537
 30
0.0
 40
0.7562979678999461
 50
294.06429669190447
 51
317.15296278907169
  0
ARC
  5
571
  8
0
 10
90.812669295581728
 20
82.438889193061442
 30
0.0
 40
0.8811307640983962
 50
317.15296278905959
 51
338.98332017914578
  0
ARC
  5
572
  8
0
 10
91.006337465098085
 20
82.364482252853037
 30
0.0
 40
0.6736608804164657
 50
338.98332017903078
 51
3.997413760492134
  0
ARC
  5
573
  8
0
 10
91.678359461935514
 20
80.403451451104786
 30
0.0
 40
1.3163563364600079
 50
90.094604082603411
 51
103.23714831916929
  0
ARC
  5
574
  8
0
 10
91.574850918219141
 20
80.843478900766627
 30
0.0
 40
0.8643185337507867
 50
103.2371483191811
 51
119.5922567952275
  0
ARC
  5
575
  8
0
 10
91.417400085419175
 20
81.120729726101516
 30
0.0
 40
0.5454787857608493
 50
119.59225679522341
 51
143.89384033026749
  0
ARC
  5
576
  8
0
 10
91.180001913772884
 20
81.293882546558038
 30
0.0
 40
0.2516424518383
 50
143.893840330264
 51
179.99999999999591
  0
ARC
  5
577
  8
0
 10
90.322883439768177
 20
81.5773514273898
 30
0.0
 40
1.360324859485853
 50
326.61085160942991
 51
344.7297527137751
  0
ARC
  5
578
  8
0
 10
90.394621607365011
 20
81.557766120212193
 30
0.0
 40
1.285961232978053
 50
344.72975271377157
 51
3.3697134931772519
  0
ARC
  5
579
  8
0
 10
89.957911630376898
 20
81.633353245207374
 30
0.0
 40
1.720447831558658
 50
0.0000000000008142
 51
2.8803341064819432
  0
ARC
  5
57A
  8
0
 10
90.928359461934562
 20
81.000862007241579
 30
0.0
 40
0.5054123581662351
 50
270.0000000000033
 51
302.14717657320841
  0
ARC
  5
57B
  8
0
 10
91.678359461935614
 20
75.820048616509496
 30
0.0
 40
3.9444403607853258
 50
90.372736465521882
 51
94.50054806242521
  0
ARC
  5
57C
  8
0
 10
91.528959292743409
 20
77.718125630386481
 30
0.0
 40
2.0404926826274421
 50
94.500548062424386
 51
100.7594028879188
  0
ARC
  5
57D
  8
0
 10
91.306054043090924
 20
78.891150856665575
 30
0.0
 40
0.8464763796358353
 50
100.75940288791961
 51
114.6439181388192
  0
LINE
  5
57E
  8
0
 10
90.953092341971015
 20
79.66052742169984
 30
0.0
 11
90.928359461934576
 21
79.621969504146023
 31
0.0
  0
ARC
  5
57F
  8
0
 10
89.533454340625894
 20
79.433619583654661
 30
0.0
 40
2.144905121309673
 50
359.99999999997402
 51
8.8737819796994977
  0
ARC
  5
580
  8
0
 10
90.738022940337487
 20
81.303730158869783
 30
0.0
 40
0.8631232871638939
 50
302.1471765732008
 51
326.61085160941821
  0
ARC
  5
581
  8
0
 10
95.678359461934605
 20
80.618381250163523
 30
0.0
 40
1.101426537401311
 50
68.471305760455493
 51
89.999999999997556
  0
ARC
  5
582
  8
0
 10
95.678359461935059
 20
85.405765641414746
 30
0.0
 40
4.9103159923393953
 50
269.99999999999511
 51
275.05788903783667
  0
ARC
  5
583
  8
0
 10
95.678359461934676
 20
78.663062439892059
 30
0.0
 40
1.1014265374027741
 50
68.471305760478188
 51
90.000000000002444
  0
LINE
  5
584
  8
0
 10
91.678359461935557
 20
82.411444126423973
 30
0.0
 11
95.678359461934647
 21
82.411444126423973
 31
0.0
  0
LINE
  5
585
  8
0
 10
91.676185867284815
 20
81.719807787564775
 30
0.0
 11
95.678359461934647
 21
81.719807787564775
 31
0.0
  0
LINE
  5
586
  8
0
 10
90.928359461934576
 20
80.49544964907534
 30
0.0
 11
95.678359461934647
 21
80.49544964907534
 31
0.0
  0
LINE
  5
587
  8
0
 10
91.652686141013206
 20
79.764488977294832
 30
0.0
 11
95.678359461934647
 21
79.764488977294832
 31
0.0
  0
ARC
  5
588
  8
0
 10
118.502694719022
 20
73.411444126423987
 30
0.0
 40
30.0
 50
164.03798583715241
 51
172.96795775791441
  0
LINE
  5
58B
  8
2
 10
90.728359461934389
 20
69.411444126423973
 30
0.0
 11
90.728359461934389
 21
77.411444126423973
 31
0.0
  0
CIRCLE
  5
58D
  8
3
 10
132.3251336613742
 20
73.410944126423985
 30
0.0
 40
2.5005000000000019
  0
ARC
  5
58E
  8
0
 10
51.186426658675913
 20
78.764488977294832
 30
0.0
 40
1.0
 50
59.034862721522941
 51
216.96513727847699
  0
ARC
  5
58F
  8
0
 10
52.429303244155307
 20
66.939308171424386
 30
0.0
 40
1.0
 50
155.0348627215229
 51
312.96513727847741
  0
CIRCLE
  5
591
  8
0
 10
57.131585262495072
 20
73.411444126423987
 30
0.0
 40
8.25
  0
ARC
  5
592
  8
0
 10
64.059788492770593
 20
69.411444126423973
 30
0.0
 40
1.0
 50
251.03486272152321
 51
48.965137278477052
  0
ARC
  5
594
  8
0
 10
58.794878789037199
 20
65.586263320553542
 30
0.0
 40
1.0
 50
203.0348627215225
 51
0.9651372784769815
  0
ARC
  5
595
  8
0
 10
61.83386728083488
 20
66.939308171424443
 30
0.0
 40
1.0
 50
227.03486272152321
 51
24.965137278477041
  0
ARC
  5
596
  8
0
 10
55.468291735952981
 20
65.586263320553542
 30
0.0
 40
1.0
 50
179.03486272152301
 51
336.96513727847753
  0
ARC
  5
597
  8
0
 10
65.087760425441246
 20
72.575216420282786
 30
0.0
 40
1.0
 50
275.0348627215231
 51
72.965137278476973
  0
ARC
  5
598
  8
0
 10
63.076743866314217
 20
78.764488977294832
 30
0.0
 40
1.0
 50
323.03486272152242
 51
120.9651372784771
  0
CIRCLE
  5
599
  8
3
 10
57.131585262495072
 20
73.410944126423985
 30
0.0
 40
2.5005000000000019
  0
CIRCLE
  5
59A
  8
0
 10
57.131585262495072
 20
73.411444126423987
 30
0.0
 40
3.5
  0
CIRCLE
  5
59B
  8
0
 10
57.131585262495072
 20
73.411444126423987
 30
0.0
 40
2.009252
  0
ARC
  5
59C
  8
0
 10
64.740037392856294
 20
75.883580081423588
 30
0.0
 40
1.0
 50
299.03486272152259
 51
96.965137278476803
  0
ARC
  5
59E
  8
0
 10
60.385478407101481
 20
80.719807787564775
 30
0.0
 40
1.0
 50
347.03486272152321
 51
144.96513727847719
  0
ARC
  5
59F
  8
0
 10
57.131585262495072
 20
81.411444126423987
 30
0.0
 40
1.0
 50
11.03486272152297
 51
168.96513727847719
  0
ARC
  5
5A0
  8
0
 10
53.877692117888699
 20
80.719807787564775
 30
0.0
 40
1.0
 50
35.034862721523211
 51
192.9651372784769
  0
ARC
  5
5A1
  8
0
 10
50.20338203221953
 20
69.411444126423973
 30
0.0
 40
1.0
 50
131.0348627215223
 51
288.9651372784769
  0
ARC
  5
5A2
  8
0
 10
49.175410099548877
 20
72.575216420282743
 30
0.0
 40
1.0
 50
107.0348627215224
 51
264.96513727847679
  0
ARC
  5
5A3
  8
0
 10
49.523133132133843
 20
75.883580081423588
 30
0.0
 40
1.0
 50
83.034862721523226
 51
240.9651372784775
  0
CIRCLE
  5
5A7
  8
0
 10
132.32563366137421
 20
73.411444126423987
 30
0.0
 40
4.000000031249999
  0
CIRCLE
  5
5A8
  8
0
 10
132.3251336613742
 20
73.411444126423987
 30
0.0
 40
6.0000000000002274
  0
CIRCLE
  5
5A9
  8
0
 10
132.3251336613742
 20
73.410944126423985
 30
0.0
 40
6.5005000000002289
  0
LINE
  5
5AA
  8
1
 10
57.131585262495072
 20
84.161444126423987
 30
0.0
 11
57.131585262495072
 21
62.661444126423987
 31
0.0
  0
LINE
  5
5AB
  8
1
 10
67.881585262495065
 20
73.411444126423987
 30
0.0
 11
46.381585262495058
 21
73.411444126423987
 31
0.0
  0
LINE
  5
5AE
  8
1
 10
132.3251336613742
 20
84.161444126423987
 30
0.0
 11
132.3251336613742
 21
62.661444126423987
 31
0.0
  0
LINE
  5
5AF
  8
1
 10
143.0751336613742
 20
73.411444126423987
 30
0.0
 11
121.5751336613742
 21
73.411444126423987
 31
0.0
  0
TEXT
  5
67F
  8
0
 62
     3
 10
0.0
 20
0.0
 30
0.0
 40
10.0
  1
KN18T
  7
STANDARD1
  0
ENDSEC
  0
EOF
