  0
SECTION
  2
HEADER
  9
$ACADVER
  1
AC1009
  9
$INSBASE
 10
0.0
 20
0.0
 30
0.0
  9
$EXTMIN
 10
0.0
 20
-2.960436562073669
 30
0.0
  9
$EXTMAX
 10
145.00000000000199
 20
80.000000000002004
 30
0.0
  9
$LIMMIN
 10
0.0
 20
0.0
  9
$LIMMAX
 10
187.5
 20
135.0
  9
$ORTHOMODE
 70
     1
  9
$REGENMODE
 70
     1
  9
$FILLMODE
 70
     1
  9
$QTEXTMODE
 70
     0
  9
$MIRRTEXT
 70
     0
  9
$DRAGMODE
 70
     2
  9
$LTSCALE
 40
5.0
  9
$OSMODE
 70
    37
  9
$ATTMODE
 70
     1
  9
$TEXTSIZE
 40
1.6000000000000489
  9
$TRACEWID
 40
0.05
  9
$TEXTSTYLE
  7
STANDARD
  9
$CLAYER
  8
0
  9
$CELTYPE
  6
BYLAYER
  9
$CECOLOR
 62
   256
  9
$DIMSCALE
 40
0.5
  9
$DIMASZ
 40
3.0
  9
$DIMEXO
 40
2.0
  9
$DIMDLI
 40
0.38
  9
$DIMRND
 40
0.0
  9
$DIMDLE
 40
0.0
  9
$DIMEXE
 40
2.0
  9
$DIMTP
 40
0.0
  9
$DIMTM
 40
0.0
  9
$DIMTXT
 40
3.0
  9
$DIMCEN
 40
0.0
  9
$DIMTSZ
 40
0.0
  9
$DIMTOL
 70
     0
  9
$DIMLIM
 70
     0
  9
$DIMTIH
 70
     0
  9
$DIMTOH
 70
     0
  9
$DIMSE1
 70
     0
  9
$DIMSE2
 70
     0
  9
$DIMTAD
 70
     1
  9
$DIMZIN
 70
     0
  9
$DIMBLK
  1

  9
$DIMASO
 70
     0
  9
$DIMSHO
 70
     0
  9
$DIMPOST
  1

  9
$DIMAPOST
  1

  9
$DIMALT
 70
     0
  9
$DIMALTD
 70
     2
  9
$DIMALTF
 40
25.399999999999999
  9
$DIMLFAC
 40
1.0
  9
$DIMTOFL
 70
     1
  9
$DIMTVP
 40
1.6000000000000001
  9
$DIMTIX
 70
     1
  9
$DIMSOXD
 70
     0
  9
$DIMSAH
 70
     0
  9
$DIMBLK1
  1

  9
$DIMBLK2
  1

  9
$DIMSTYLE
  2
STANDARD
  9
$DIMCLRD
 70
     0
  9
$DIMCLRE
 70
     0
  9
$DIMCLRT
 70
     0
  9
$DIMTFAC
 40
1.0
  9
$DIMGAP
 40
0.09
  9
$LUNITS
 70
     2
  9
$LUPREC
 70
     4
  9
$SKETCHINC
 40
0.1
  9
$FILLETRAD
 40
0.0
  9
$AUNITS
 70
     0
  9
$AUPREC
 70
     4
  9
$MENU
  1
E:\r13\win\SUPPORT\ACAD
  9
$ELEVATION
 40
0.0
  9
$PELEVATION
 40
0.0
  9
$THICKNESS
 40
0.0
  9
$LIMCHECK
 70
     0
  9
$BLIPMODE
 70
     0
  9
$CHAMFERA
 40
0.0
  9
$CHAMFERB
 40
0.0
  9
$SKPOLY
 70
     0
  9
$TDCREATE
 40
2449839.7857754631
  9
$TDUPDATE
 40
2457162.6033357759
  9
$TDINDWG
 40
0.008521875
  9
$TDUSRTIMER
 40
0.008521875
  9
$USRTIMER
 70
     1
  9
$ANGBASE
 50
0.0
  9
$ANGDIR
 70
     0
  9
$PDMODE
 70
     0
  9
$PDSIZE
 40
0.0
  9
$PLINEWID
 40
0.0
  9
$COORDS
 70
     1
  9
$SPLFRAME
 70
     0
  9
$SPLINETYPE
 70
     6
  9
$SPLINESEGS
 70
     8
  9
$ATTDIA
 70
     0
  9
$ATTREQ
 70
     1
  9
$HANDLING
 70
     1
  9
$HANDSEED
  5
81C
  9
$SURFTAB1
 70
     6
  9
$SURFTAB2
 70
     6
  9
$SURFTYPE
 70
     6
  9
$SURFU
 70
     6
  9
$SURFV
 70
     6
  9
$UCSNAME
  2

  9
$UCSORG
 10
0.0
 20
0.0
 30
0.0
  9
$UCSXDIR
 10
1.0
 20
0.0
 30
0.0
  9
$UCSYDIR
 10
0.0
 20
1.0
 30
0.0
  9
$PUCSNAME
  2

  9
$PUCSORG
 10
0.0
 20
0.0
 30
0.0
  9
$PUCSXDIR
 10
1.0
 20
0.0
 30
0.0
  9
$PUCSYDIR
 10
0.0
 20
1.0
 30
0.0
  9
$USERI1
 70
     0
  9
$USERI2
 70
     1
  9
$USERI3
 70
     1
  9
$USERI4
 70
     0
  9
$USERI5
 70
     0
  9
$USERR1
 40
0.0
  9
$USERR2
 40
0.0
  9
$USERR3
 40
0.0
  9
$USERR4
 40
0.0
  9
$USERR5
 40
0.0
  9
$WORLDVIEW
 70
     1
  9
$SHADEDGE
 70
     3
  9
$SHADEDIF
 70
    70
  9
$TILEMODE
 70
     1
  9
$MAXACTVP
 70
    16
  9
$PLIMCHECK
 70
     0
  9
$PEXTMIN
 10
1.0000000000000000E+020
 20
1.0000000000000000E+020
 30
1.0000000000000000E+020
  9
$PEXTMAX
 10
-1.0000000000000000E+020
 20
-1.0000000000000000E+020
 30
-1.0000000000000000E+020
  9
$PLIMMIN
 10
0.0
 20
0.0
  9
$PLIMMAX
 10
12.0
 20
9.0
  9
$UNITMODE
 70
     0
  9
$VISRETAIN
 70
     0
  9
$PLINEGEN
 70
     0
  9
$PSLTSCALE
 70
     0
  0
ENDSEC
  0
SECTION
  2
TABLES
  0
TABLE
  2
VPORT
 70
     1
  0
VPORT
  2
*ACTIVE
 70
     0
 10
0.0
 20
0.0
 11
1.0
 21
1.0
 12
172.54273504273499
 22
95.0
 13
0.0
 23
0.0
 14
5.0
 24
5.0
 15
5.0
 25
5.0
 16
0.0
 26
0.0
 36
1.0
 17
0.0
 27
0.0
 37
0.0
 40
190.0
 41
1.816239316239316
 42
50.0
 43
0.0
 44
0.0
 50
0.0
 51
0.0
 71
     0
 72
   500
 73
     1
 74
     0
 75
     0
 76
     0
 77
     0
 78
     2
  0
ENDTAB
  0
TABLE
  2
LTYPE
 70
     4
  0
LTYPE
  2
CONTINUOUS
 70
     0
  3
Solid Line
 72
    65
 73
     0
 40
0.0
  0
LTYPE
  2
CENTER
 70
     0
  3
____ _ ____ _ ____ _ ____ _ ____ _ ____ _ ____
 72
    65
 73
     4
 40
2.0
 49
1.25
 49
-0.25
 49
0.25
 49
-0.25
  0
LTYPE
  2
HIDDEN
 70
     0
  3
_ _ _ _ _ _ _ _ _ _ _ _ _ _ _ _ _ _ _ _ _ _ _
 72
    65
 73
     2
 40
0.375
 49
0.25
 49
-0.125
  0
LTYPE
  2
PHANTOM2
 70
     0
  3
___ _ _ ___ _ _ ___ _ _ ___ _ _
 72
    65
 73
     6
 40
1.25
 49
0.625
 49
-0.125
 49
0.125
 49
-0.125
 49
0.125
 49
-0.125
  0
ENDTAB
  0
TABLE
  2
LAYER
 70
     4
  0
LAYER
  2
0
 70
     0
 62
     7
  6
CONTINUOUS
  0
LAYER
  2
1
 70
     0
 62
     1
  6
CENTER
  0
LAYER
  2
3
 70
     0
 62
     3
  6
CONTINUOUS
  0
LAYER
  2
2
 70
     0
 62
     2
  6
HIDDEN
  0
ENDTAB
  0
TABLE
  2
STYLE
 70
     2
  0
STYLE
  2
STANDARD
 70
     0
 40
0.0
 41
1.0
 50
0.0
 71
     0
 42
1.6000000000000489
  3
TXT
  4
BIGFONT
  0
STYLE
  2
STANDARD1
 70
     0
 40
0.0
 41
1.0
 50
0.0
 71
     0
 42
3.0
  3
txt
  4

  0
ENDTAB
  0
TABLE
  2
VIEW
 70
     1
  0
VIEW
  2
ALL
 70
     0
 40
135.0
 10
110.4957983193277
 20
67.5
 41
0.0
 11
0.0
 21
0.0
 31
1.0
 12
0.0
 22
0.0
 32
0.0
 42
0.0
 43
0.0
 44
0.0
 50
0.0
 71
     0
  0
ENDTAB
  0
TABLE
  2
UCS
 70
     0
  0
ENDTAB
  0
TABLE
  2
APPID
 70
     4
  0
APPID
  2
ACAD
 70
     0
  0
APPID
  2
ACAD_MLEADERVER
 70
     0
  0
APPID
  2
ACAD_EXEMPT_FROM_CAD_STANDARDS
 70
     0
  0
APPID
  2
ACAD_NAV_VCDISPLAY
 70
     0
  0
ENDTAB
  0
TABLE
  2
DIMSTYLE
 70
     1
  0
DIMSTYLE
  2
STANDARD
 70
     0
  3

  4

  5

  6

  7

 40
1.0
 41
0.18
 42
0.0625
 43
0.38
 44
0.18
 45
0.0
 46
0.0
 47
0.0
 48
0.0
140
0.18
141
0.09
142
0.0
143
25.399999999999999
144
1.0
145
0.0
146
1.0
147
0.09
 71
     0
 72
     0
 73
     1
 74
     1
 75
     0
 76
     0
 77
     0
 78
     0
170
     0
171
     2
172
     0
173
     0
174
     0
175
     0
176
     0
177
     0
178
     0
  0
ENDTAB
  0
ENDSEC
  0
SECTION
  2
BLOCKS
  0
BLOCK
  8
0
  2
$MODEL_SPACE
 70
     0
 10
0.0
 20
0.0
 30
0.0
  3
$MODEL_SPACE
  1

  0
ENDBLK
  5
3DC
  8
0
  0
BLOCK
 67
     1
  8
0
  2
$PAPER_SPACE
 70
     0
 10
0.0
 20
0.0
 30
0.0
  3
$PAPER_SPACE
  1

  0
ENDBLK
  5
3DA
 67
     1
  8
0
  0
ENDSEC
  0
SECTION
  2
ENTITIES
  0
LINE
  5
36
  8
1
 10
55.0
 20
80.000000000002004
 30
0.0
 11
55.0
 21
59.999999999998181
 31
0.0
  0
LINE
  5
37
  8
1
 10
44.999999999997982
 20
70.0
 30
0.0
 11
65.000000000001975
 21
70.0
 31
0.0
  0
CIRCLE
  5
38
  8
0
 10
55.0
 20
70.0
 30
0.0
 40
7.0
  0
ARC
  5
39
  8
0
 10
55.0
 20
76.600000000001273
 30
0.0
 40
0.9
 50
22.937740059522209
 51
157.06225994047779
  0
ARC
  5
3A
  8
0
 10
57.684461844300813
 20
76.029400020442338
 30
0.0
 40
0.9
 50
358.93774005952218
 51
133.06225994047779
  0
ARC
  5
3B
  8
0
 10
59.904755848151751
 20
74.416262001969329
 30
0.0
 40
0.9
 50
334.93774005952218
 51
109.0622599404778
  0
ARC
  5
3C
  8
0
 10
61.27697300754923
 20
72.03951216287507
 30
0.0
 40
0.9
 50
310.9377400595223
 51
85.06225994047783
  0
ARC
  5
3D
  8
0
 10
61.563844509431902
 20
69.310112142433354
 30
0.0
 40
0.9
 50
286.93774005952218
 51
61.062259940477823
  0
ARC
  5
3E
  8
0
 10
60.715767664978408
 20
66.699999999999349
 30
0.0
 40
0.9
 50
262.9377400595223
 51
37.062259940477823
  0
ARC
  5
3F
  8
0
 10
58.879382665131089
 20
64.660487837124293
 30
0.0
 40
0.9
 50
238.93774005952221
 51
13.0622599404778
  0
ARC
  5
40
  8
0
 10
56.372217159397479
 20
63.544225835155608
 30
0.0
 40
0.9
 50
214.93774005952221
 51
349.06225994047782
  0
ARC
  5
41
  8
0
 10
53.627782840602492
 20
63.544225835155629
 30
0.0
 40
0.9
 50
190.93774005952221
 51
325.06225994047782
  0
ARC
  5
42
  8
0
 10
51.120617334868911
 20
64.660487837124322
 30
0.0
 40
0.9
 50
166.9377400595221
 51
301.06225994047782
  0
ARC
  5
43
  8
0
 10
49.284232335021578
 20
66.699999999999349
 30
0.0
 40
0.9
 50
142.93774005952221
 51
277.06225994047782
  0
ARC
  5
44
  8
0
 10
48.436155490568098
 20
69.310112142433368
 30
0.0
 40
0.9
 50
118.9377400595222
 51
253.06225994047779
  0
ARC
  5
45
  8
0
 10
48.72302699245077
 20
72.039512162875056
 30
0.0
 40
0.9
 50
94.937740059522227
 51
229.0622599404779
  0
ARC
  5
46
  8
0
 10
50.095244151848249
 20
74.416262001969301
 30
0.0
 40
0.9
 50
70.937740059522184
 51
205.06225994047779
  0
ARC
  5
47
  8
0
 10
52.315538155699187
 20
76.029400020442338
 30
0.0
 40
0.9
 50
46.93774005952227
 51
181.0622599404779
  0
LINE
  5
48
  8
0
 10
100.5
 20
66.5
 30
0.0
 11
100.5
 21
73.5
 31
0.0
  0
LINE
  5
49
  8
0
 10
100.5
 20
73.5
 30
0.0
 11
100.1999999999997
 21
73.5
 31
0.0
  0
LINE
  5
4A
  8
0
 10
90.5
 20
77.0
 30
0.0
 11
91.5
 21
77.0
 31
0.0
  0
LINE
  5
4B
  8
0
 10
91.999999999999716
 20
77.5
 30
0.0
 11
96.699999999999989
 21
77.5
 31
0.0
  0
LINE
  5
4C
  8
0
 10
98.0
 20
77.0
 30
0.0
 11
97.5
 21
77.0
 31
0.0
  0
LINE
  5
4D
  8
0
 10
98.500000000000014
 20
75.499999999999929
 30
0.0
 11
99.89999999999975
 21
75.499999999999929
 31
0.0
  0
LINE
  5
4E
  8
0
 10
100.1999999999997
 20
75.199999999999932
 30
0.0
 11
100.1999999999997
 21
64.800000000000097
 31
0.0
  0
LINE
  5
4F
  8
0
 10
98.500000000000014
 20
76.5
 30
0.0
 11
98.500000000000014
 21
63.500000000000028
 31
0.0
  0
LINE
  5
50
  8
0
 10
91.499999999999716
 20
77.0
 30
0.0
 11
91.5
 21
63.000000000000043
 31
0.0
  0
LINE
  5
51
  8
0
 10
90.5
 20
77.0
 30
0.0
 11
90.5
 21
63.000000000000043
 31
0.0
  0
ARC
  5
52
  8
0
 10
114.5
 20
70.0
 30
0.0
 40
25.0
 50
163.73979529168801
 51
196.26020470831199
  0
LINE
  5
53
  8
0
 10
91.499999999999716
 20
77.0
 30
0.0
 11
91.999999999999716
 21
77.499999999999986
 31
0.0
  0
ARC
  5
54
  8
0
 10
98.0
 20
76.5
 30
0.0
 40
0.5
 50
0.0000000000000763
 51
90.000000000000028
  0
LINE
  5
55
  8
0
 10
99.89999999999975
 20
75.499999999999929
 30
0.0
 11
100.1999999999997
 21
75.199999999999932
 31
0.0
  0
LINE
  5
56
  8
0
 10
99.89999999999975
 20
64.500000000000085
 30
0.0
 11
100.1999999999997
 21
64.800000000000097
 31
0.0
  0
LINE
  5
57
  8
0
 10
98.500000000000014
 20
64.500000000000085
 30
0.0
 11
99.89999999999975
 21
64.500000000000085
 31
0.0
  0
ARC
  5
58
  8
0
 10
98.0
 20
63.500000000000028
 30
0.0
 40
0.5
 50
270.00000000000011
 51
360.0
  0
LINE
  5
59
  8
0
 10
98.0
 20
63.000000000000028
 30
0.0
 11
97.388775298314727
 21
63.000000000000028
 31
0.0
  0
LINE
  5
5A
  8
1
 10
103.0
 20
70.0
 30
0.0
 11
87.0
 21
70.0
 31
0.0
  0
LINE
  5
5B
  8
0
 10
91.499999999999801
 20
72.936172098107477
 30
0.0
 11
96.700000000000017
 21
72.936172098107477
 31
0.0
  0
LINE
  5
5C
  8
0
 10
91.499999999999815
 20
71.359632331271513
 30
0.0
 11
96.700000000000017
 21
71.359632331271513
 31
0.0
  0
POLYLINE
  5
5D
  8
0
 66
     1
 10
0.0
 20
0.0
 30
0.0
  0
VERTEX
  5
72E
  8
0
 10
96.700000000000017
 20
71.359632331271513
 30
0.0
 42
0.084820698077237
  0
VERTEX
  5
72F
  8
0
 10
97.01179050021274
 20
71.412908203002075
 30
0.0
 42
0.0917396304147322
  0
VERTEX
  5
730
  8
0
 10
97.265685424949254
 20
71.558764523556249
 30
0.0
 42
0.1035870499853452
  0
VERTEX
  5
731
  8
0
 10
97.455054254257746
 20
71.802787889723618
 30
0.0
 42
0.1337296478510843
  0
VERTEX
  5
732
  8
0
 10
97.5
 20
72.039512162875084
 30
0.0
 42
0.1138667826143858
  0
SEQEND
  5
733
  8
0
  0
POLYLINE
  5
64
  8
0
 66
     1
 10
0.0
 20
0.0
 30
0.0
  0
VERTEX
  5
734
  8
0
 10
97.500000000000554
 20
72.03951216287507
 30
0.0
 42
0.0887302727901319
  0
VERTEX
  5
735
  8
0
 10
97.437807766117032
 20
72.387209677336358
 30
0.0
 42
0.0938982457625659
  0
VERTEX
  5
736
  8
0
 10
97.265685424949638
 20
72.673546483496196
 30
0.0
 42
0.1022687129458039
  0
VERTEX
  5
737
  8
0
 10
97.001543828353917
 20
72.869587536836207
 30
0.0
 42
0.1090921545779243
  0
VERTEX
  5
738
  8
0
 10
96.700000000000017
 20
72.936172098107477
 30
0.0
 42
0.1090921545779193
  0
SEQEND
  5
739
  8
0
  0
LINE
  5
6B
  8
0
 10
91.499999999999787
 20
74.035019443095351
 30
0.0
 11
96.700000000000017
 21
74.035019443095351
 31
0.0
  0
POLYLINE
  5
6C
  8
0
 66
     1
 10
0.0
 20
0.0
 30
0.0
  0
VERTEX
  5
73A
  8
0
 10
97.500000000001421
 20
74.416262001969315
 30
0.0
 42
0.0884260944204741
  0
VERTEX
  5
73B
  8
0
 10
97.437768662711093
 20
74.765393895838486
 30
0.0
 42
0.0937369940414797
  0
VERTEX
  5
73C
  8
0
 10
97.265685424950249
 20
75.05265810503721
 30
0.0
 42
0.1023760341356386
  0
VERTEX
  5
73D
  8
0
 10
97.00138482894296
 20
75.249487815854266
 30
0.0
 42
0.109451844686441
  0
VERTEX
  5
73E
  8
0
 10
96.700000000000017
 20
75.316262001969335
 30
0.0
 42
0.109451844686438
  0
SEQEND
  5
73F
  8
0
  0
POLYLINE
  5
73
  8
0
 66
     1
 10
0.0
 20
0.0
 30
0.0
  0
VERTEX
  5
740
  8
0
 10
96.700000000000017
 20
74.035019443095337
 30
0.0
 42
0.0487609169509712
  0
VERTEX
  5
741
  8
0
 10
97.024205312634578
 20
74.066711892568463
 30
0.0
 42
0.0625377209738474
  0
VERTEX
  5
742
  8
0
 10
97.265685424949226
 20
74.146682803312615
 30
0.0
 42
0.1030003547984925
  0
VERTEX
  5
743
  8
0
 10
97.462610454307381
 20
74.296383486619831
 30
0.0
 42
0.2095873959744552
  0
VERTEX
  5
744
  8
0
 10
97.5
 20
74.416262001969329
 30
0.0
 42
0.1808147028095984
  0
SEQEND
  5
745
  8
0
  0
LINE
  5
7A
  8
0
 10
91.499999999999744
 20
76.012715036207155
 30
0.0
 11
96.700000000000017
 21
76.012715036207169
 31
0.0
  0
POLYLINE
  5
7B
  8
0
 66
     1
 10
0.0
 20
0.0
 30
0.0
  0
VERTEX
  5
746
  8
0
 10
96.700000000000017
 20
76.012715036207169
 30
0.0
  0
VERTEX
  5
747
  8
0
 10
97.265685424949226
 20
76.017601954945661
 30
0.0
 42
0.0073640581750843
  0
VERTEX
  5
748
  8
0
 10
97.497844162554316
 20
76.025865895972544
 30
0.0
  0
VERTEX
  5
749
  8
0
 10
97.5
 20
76.029400020442338
 30
0.0
  0
SEQEND
  5
74A
  8
0
  0
POLYLINE
  5
81
  8
0
 66
     1
 10
0.0
 20
0.0
 30
0.0
  0
VERTEX
  5
74B
  8
0
 10
97.5
 20
76.029400020442353
 30
0.0
 42
0.0884260944203366
  0
VERTEX
  5
74C
  8
0
 10
97.437768662709772
 20
76.37853191431148
 30
0.0
 42
0.0937369940414775
  0
VERTEX
  5
74D
  8
0
 10
97.265685424949226
 20
76.665796123510233
 30
0.0
 42
0.10237603413573
  0
VERTEX
  5
74E
  8
0
 10
97.001384828942264
 20
76.862625834327332
 30
0.0
 42
0.109451844686613
  0
VERTEX
  5
74F
  8
0
 10
96.700000000000017
 20
76.92940002044233
 30
0.0
 42
0.1094518446865995
  0
SEQEND
  5
750
  8
0
  0
LINE
  5
88
  8
0
 10
91.499999999999702
 20
76.950757575757507
 30
0.0
 11
97.5
 21
76.950757575757507
 31
0.0
  0
POLYLINE
  5
89
  8
0
 66
     1
 10
0.0
 20
0.0
 30
0.0
  0
VERTEX
  5
751
  8
0
 10
97.5
 20
76.950757575757507
 30
0.0
 42
0.1365543211489012
  0
VERTEX
  5
752
  8
0
 10
97.444776785591117
 20
77.14918946026711
 30
0.0
 42
0.106978483895589
  0
VERTEX
  5
753
  8
0
 10
97.265685424949226
 20
77.339130618454703
 30
0.0
 42
0.0813232630570527
  0
VERTEX
  5
754
  8
0
 10
97.017631682682264
 20
77.455713984528074
 30
0.0
 42
0.0693773007987346
  0
VERTEX
  5
755
  8
0
 10
96.700000000000017
 20
77.5
 30
0.0
 42
0.0693773007987297
  0
SEQEND
  5
756
  8
0
  0
POLYLINE
  5
90
  8
0
 66
     1
 10
0.0
 20
0.0
 30
0.0
  0
VERTEX
  5
757
  8
0
 10
91.499999999999815
 20
71.359632331271513
 30
0.0
 42
0.1693013436267476
  0
VERTEX
  5
758
  8
0
 10
91.670982032870384
 20
71.419235715597566
 30
0.0
 42
0.1051146160715176
  0
VERTEX
  5
759
  8
0
 10
91.853553390593035
 20
71.640222607491722
 30
0.0
 42
0.0671308023179707
  0
VERTEX
  5
75A
  8
0
 10
91.971591490312903
 20
71.966655099680992
 30
0.0
 42
0.0661687674236275
  0
VERTEX
  5
75B
  8
0
 10
91.999999999999716
 20
72.317627457812534
 30
0.0
 42
0.0532781065161093
  0
SEQEND
  5
75C
  8
0
  0
POLYLINE
  5
97
  8
0
 66
     1
 10
0.0
 20
0.0
 30
0.0
  0
VERTEX
  5
75D
  8
0
 10
91.999999999999716
 20
72.31762745781252
 30
0.0
 42
0.080950176347141
  0
VERTEX
  5
75E
  8
0
 10
91.960521156014693
 20
72.559876107613206
 30
0.0
 42
0.089415904878838
  0
VERTEX
  5
75F
  8
0
 10
91.853553390593035
 20
72.755004567431683
 30
0.0
 42
0.1047434678398569
  0
VERTEX
  5
760
  8
0
 10
91.672965912737155
 20
72.901714739016342
 30
0.0
 42
0.1393379481643415
  0
VERTEX
  5
761
  8
0
 10
91.499999999999801
 20
72.936172098106056
 30
0.0
 42
0.1189395261856425
  0
SEQEND
  5
762
  8
0
  0
LINE
  5
9E
  8
0
 10
91.976873017002546
 20
75.316262001969307
 30
0.0
 11
96.700000000000017
 21
75.316262001969335
 31
0.0
  0
LINE
  5
9F
  8
0
 10
91.997840267204538
 20
76.92940002044233
 30
0.0
 11
96.700000000000017
 21
76.92940002044233
 31
0.0
  0
POLYLINE
  5
A0
  8
0
 66
     1
 10
0.0
 20
0.0
 30
0.0
  0
VERTEX
  5
763
  8
0
 10
91.499999999999787
 20
74.035019443095351
 30
0.0
 42
0.1725977341064411
  0
VERTEX
  5
764
  8
0
 10
91.670003759844406
 20
74.095505859578225
 30
0.0
 42
0.1045759356935113
  0
VERTEX
  5
765
  8
0
 10
91.853553390593035
 20
74.323068238705389
 30
0.0
 42
0.0657934531255044
  0
VERTEX
  5
766
  8
0
 10
91.971642454609935
 20
74.658014558184959
 30
0.0
 42
0.0646144333252036
  0
VERTEX
  5
767
  8
0
 10
91.999999999999716
 20
75.018479547692323
 30
0.0
 42
0.038766698201342
  0
VERTEX
  5
768
  8
0
 10
91.976881261777535
 20
75.316209237583337
 30
0.0
 42
0.065793453125482
  0
SEQEND
  5
769
  8
0
  0
POLYLINE
  5
A8
  8
0
 66
     1
 10
0.0
 20
0.0
 30
0.0
  0
VERTEX
  5
76A
  8
0
 10
91.976881261777535
 20
75.316209237583337
 30
0.0
 42
0.0090745727271662
  0
VERTEX
  5
76B
  8
0
 10
91.793101360639525
 20
75.312034274941226
 30
0.0
 42
0.0143819295871378
  0
VERTEX
  5
76C
  8
0
 10
91.646446609406453
 20
75.301807082403414
 30
0.0
 42
0.0338992355660602
  0
VERTEX
  5
76D
  8
0
 10
91.506448089457038
 20
75.278328713679684
 30
0.0
  0
VERTEX
  5
76E
  8
0
 10
91.499999999999616
 20
75.26690981954475
 30
0.0
  0
SEQEND
  5
76F
  8
0
  0
POLYLINE
  5
AF
  8
0
 66
     1
 10
0.0
 20
0.0
 30
0.0
  0
VERTEX
  5
770
  8
0
 10
91.49999999999973
 20
76.012715036207155
 30
0.0
 42
0.1530093298729163
  0
VERTEX
  5
771
  8
0
 10
91.675808748863105
 20
76.067805565388539
 30
0.0
 42
0.1068968575474033
  0
VERTEX
  5
772
  8
0
 10
91.853553390593007
 20
76.258416097604879
 30
0.0
 42
0.0739980512359383
  0
VERTEX
  5
773
  8
0
 10
91.971355203213903
 20
76.545185626889946
 30
0.0
 42
0.0745527066866755
  0
VERTEX
  5
774
  8
0
 10
91.999999999999716
 20
76.85159093232069
 30
0.0
 42
0.0138753326343392
  0
VERTEX
  5
775
  8
0
 10
91.997840393197365
 20
76.929397752571376
 30
0.0
 42
0.0739980512359473
  0
SEQEND
  5
776
  8
0
  0
POLYLINE
  5
B7
  8
0
 66
     1
 10
0.0
 20
0.0
 30
0.0
  0
VERTEX
  5
777
  8
0
 10
91.997840393197365
 20
76.929397752571376
 30
0.0
 42
0.0490677666176228
  0
VERTEX
  5
778
  8
0
 10
91.797517089321047
 20
76.909266581267332
 30
0.0
 42
0.0634045608159079
  0
VERTEX
  5
779
  8
0
 10
91.646446609406425
 20
76.858388341997511
 30
0.0
 42
0.1034566318356368
  0
VERTEX
  5
77A
  8
0
 10
91.530097060764575
 20
76.768521931896032
 30
0.0
 42
0.1785993307650415
  0
VERTEX
  5
77B
  8
0
 10
91.499999999999716
 20
76.686950984809158
 30
0.0
 42
0.1785993307650476
  0
SEQEND
  5
77C
  8
0
  0
POLYLINE
  5
BE
  8
0
 66
     1
 10
0.0
 20
0.0
 30
0.0
  0
VERTEX
  5
77D
  8
0
 10
91.499999999999716
 20
76.950757575757507
 30
0.0
 42
0.1071599301239226
  0
VERTEX
  5
77E
  8
0
 10
91.688996892520606
 20
76.991733904805983
 30
0.0
 42
0.1016693890430089
  0
VERTEX
  5
77F
  8
0
 10
91.853553390592992
 20
77.111626957302775
 30
0.0
 42
0.0947597749533865
  0
VERTEX
  5
780
  8
0
 10
91.971189688634567
 20
77.303692332093107
 30
0.0
 42
0.1078501517118088
  0
VERTEX
  5
781
  8
0
 10
91.999999999999716
 20
77.499999999999986
 30
0.0
 42
0.0903926215511384
  0
SEQEND
  5
782
  8
0
  0
LINE
  5
C5
  8
0
 10
91.499999999999858
 20
70.097743546621302
 30
0.0
 11
96.700000000000017
 21
70.097743546621302
 31
0.0
  0
POLYLINE
  5
C6
  8
0
 66
     1
 10
0.0
 20
0.0
 30
0.0
  0
VERTEX
  5
783
  8
0
 10
97.504123959300145
 20
69.310112142433354
 30
0.0
 42
0.3005210117397037
  0
VERTEX
  5
784
  8
0
 10
97.006733981543292
 20
70.037603363780036
 30
0.0
 42
0.0971086656708483
  0
VERTEX
  5
785
  8
0
 10
96.700000000000017
 20
70.097743546621302
 30
0.0
 42
0.0971086656708664
  0
SEQEND
  5
786
  8
0
  0
LINE
  5
CB
  8
0
 10
99.899999999999778
 20
75.499999999999929
 30
0.0
 11
99.899999999999778
 21
64.500000000000128
 31
0.0
  0
ARC
  5
D4
  8
0
 10
132.31553815569919
 20
76.029400020442338
 30
0.0
 40
0.9
 50
46.93774005952227
 51
181.0622599404779
  0
ARC
  5
D5
  8
0
 10
130.09524415184819
 20
74.416262001969301
 30
0.0
 40
0.9
 50
70.937740059522184
 51
205.06225994047779
  0
ARC
  5
D6
  8
0
 10
128.72302699245071
 20
72.039512162875056
 30
0.0
 40
0.9
 50
94.937740059522227
 51
229.0622599404779
  0
ARC
  5
D7
  8
0
 10
128.4361554905681
 20
69.310112142433368
 30
0.0
 40
0.9
 50
118.9377400595222
 51
253.06225994047779
  0
ARC
  5
D8
  8
0
 10
129.28423233502161
 20
66.699999999999349
 30
0.0
 40
0.9
 50
142.93774005952221
 51
277.06225994047782
  0
ARC
  5
D9
  8
0
 10
131.12061733486891
 20
64.660487837124322
 30
0.0
 40
0.9
 50
166.9377400595221
 51
301.06225994047782
  0
ARC
  5
DA
  8
0
 10
133.62778284060249
 20
63.544225835155629
 30
0.0
 40
0.9
 50
190.93774005952221
 51
325.06225994047782
  0
ARC
  5
DB
  8
0
 10
136.37221715939751
 20
63.544225835155608
 30
0.0
 40
0.9
 50
214.93774005952221
 51
349.06225994047782
  0
ARC
  5
DC
  8
0
 10
138.87938266513109
 20
64.660487837124293
 30
0.0
 40
0.9
 50
238.93774005952221
 51
13.0622599404778
  0
ARC
  5
DD
  8
0
 10
140.71576766497839
 20
66.699999999999349
 30
0.0
 40
0.9
 50
262.9377400595223
 51
37.062259940477823
  0
ARC
  5
DE
  8
0
 10
141.5638445094319
 20
69.310112142433354
 30
0.0
 40
0.9
 50
286.93774005952218
 51
61.062259940477823
  0
ARC
  5
DF
  8
0
 10
141.2769730075492
 20
72.03951216287507
 30
0.0
 40
0.9
 50
310.9377400595223
 51
85.06225994047783
  0
ARC
  5
E0
  8
0
 10
139.90475584815169
 20
74.416262001969329
 30
0.0
 40
0.9
 50
334.93774005952218
 51
109.0622599404778
  0
ARC
  5
E1
  8
0
 10
137.68446184430081
 20
76.029400020442338
 30
0.0
 40
0.9
 50
358.93774005952218
 51
133.06225994047779
  0
ARC
  5
E2
  8
0
 10
135.0
 20
76.600000000001273
 30
0.0
 40
0.9
 50
22.937740059522209
 51
157.06225994047779
  0
CIRCLE
  5
E3
  8
0
 10
135.0
 20
70.0
 30
0.0
 40
7.0
  0
LINE
  5
E4
  8
1
 10
124.999999999998
 20
70.0
 30
0.0
 11
145.00000000000199
 21
70.0
 31
0.0
  0
LINE
  5
E5
  8
1
 10
135.0
 20
80.000000000002004
 30
0.0
 11
135.0
 21
59.999999999998181
 31
0.0
  0
CIRCLE
  5
E8
  8
0
 10
135.0
 20
70.0
 30
0.0
 40
5.4999999999999067
  0
CIRCLE
  5
E9
  8
0
 10
135.0
 20
70.0
 30
0.0
 40
5.1999999999999531
  0
CIRCLE
  5
EA
  8
0
 10
135.0
 20
70.0
 30
0.0
 40
3.5
  0
LINE
  5
EC
  8
0
 10
100.1999999999997
 20
66.500000000000014
 30
0.0
 11
100.5
 21
66.500000000000014
 31
0.0
  0
LINE
  5
F4
  8
0
 10
91.499999999999886
 20
68.449152437498839
 30
0.0
 11
96.699999999999989
 21
68.449152437498839
 31
0.0
  0
LINE
  5
F5
  8
0
 10
91.499999999999915
 20
67.242414247952055
 30
0.0
 11
96.699999999999989
 21
67.242414247952055
 31
0.0
  0
LINE
  5
F6
  8
0
 10
91.499999999999943
 20
65.799999999999358
 30
0.0
 11
96.700000000000017
 21
65.799999999999358
 31
0.0
  0
POLYLINE
  5
F7
  8
0
 66
     1
 10
0.0
 20
0.0
 30
0.0
  0
VERTEX
  5
787
  8
0
 10
96.700000000000017
 20
68.449152437498839
 30
0.0
 42
0.1047373095233984
  0
VERTEX
  5
788
  8
0
 10
97.005019274607704
 20
68.51375491684621
 30
0.0
 42
0.1008628348932723
  0
VERTEX
  5
789
  8
0
 10
97.268601504535326
 20
68.701321696745794
 30
0.0
 42
0.095827105349752
  0
VERTEX
  5
78A
  8
0
 10
97.457849794597792
 20
69.003038761420953
 30
0.0
 42
0.1102268019169668
  0
VERTEX
  5
78B
  8
0
 10
97.504123959300045
 20
69.310112142433354
 30
0.0
 42
0.0925468656453023
  0
SEQEND
  5
78C
  8
0
  0
POLYLINE
  5
FE
  8
0
 66
     1
 10
0.0
 20
0.0
 30
0.0
  0
VERTEX
  5
78D
  8
0
 10
96.700000000000017
 20
65.799999999999358
 30
0.0
 42
0.109451844686567
  0
VERTEX
  5
78E
  8
0
 10
97.001384828942349
 20
65.866774186114355
 30
0.0
 42
0.1023760341356968
  0
VERTEX
  5
78F
  8
0
 10
97.265685424949353
 20
66.063603896931468
 30
0.0
 42
0.0937369940414567
  0
VERTEX
  5
790
  8
0
 10
97.453857847106434
 20
66.377726310871495
 30
0.0
 42
0.1056789781821704
  0
VERTEX
  5
791
  8
0
 10
97.500000000000142
 20
66.699999999999363
 30
0.0
 42
0.0884260944203311
  0
SEQEND
  5
792
  8
0
  0
POLYLINE
  5
105
  8
0
 66
     1
 10
0.0
 20
0.0
 30
0.0
  0
VERTEX
  5
793
  8
0
 10
97.500000000000142
 20
66.699999999999335
 30
0.0
 42
0.1379678187719779
  0
VERTEX
  5
794
  8
0
 10
97.445002820272606
 20
66.895517702410118
 30
0.0
 42
0.1070479250165925
  0
VERTEX
  5
795
  8
0
 10
97.265685424949339
 20
67.083544792938909
 30
0.0
 42
0.0806815452171447
  0
VERTEX
  5
796
  8
0
 10
97.017923310379018
 20
67.198617995415432
 30
0.0
 42
0.068554928873505
  0
VERTEX
  5
797
  8
0
 10
96.699999999999989
 20
67.24241424795207
 30
0.0
 42
0.0685549288734955
  0
SEQEND
  5
798
  8
0
  0
POLYLINE
  5
10C
  8
0
 66
     1
 10
0.0
 20
0.0
 30
0.0
  0
VERTEX
  5
799
  8
0
 10
91.499999999999886
 20
68.449152437498839
 30
0.0
 42
0.1424461909456755
  0
VERTEX
  5
79A
  8
0
 10
91.678918776124277
 20
68.501180735690625
 30
0.0
 42
0.1071692163336771
  0
VERTEX
  5
79B
  8
0
 10
91.853553390593163
 20
68.673767586488111
 30
0.0
 42
0.0786621310584457
  0
VERTEX
  5
79C
  8
0
 10
91.971227486443254
 20
68.93672769157584
 30
0.0
 42
0.080734269475578
  0
VERTEX
  5
79D
  8
0
 10
91.999999999999886
 20
69.21603652549247
 30
0.0
 42
0.0660383150183297
  0
SEQEND
  5
79E
  8
0
  0
POLYLINE
  5
113
  8
0
 66
     1
 10
0.0
 20
0.0
 30
0.0
  0
VERTEX
  5
79F
  8
0
 10
91.999999999999886
 20
69.21603652549247
 30
0.0
 42
0.0577416765609236
  0
VERTEX
  5
7A0
  8
0
 10
91.958937817989522
 20
69.570419000829531
 30
0.0
 42
0.0714091702525743
  0
VERTEX
  5
7A1
  8
0
 10
91.853553390593135
 20
69.839497539152461
 30
0.0
 42
0.1064177416035658
  0
VERTEX
  5
7A2
  8
0
 10
91.674026149561882
 20
70.04095460550333
 30
0.0
 42
0.1590353561062324
  0
VERTEX
  5
7A3
  8
0
 10
91.499999999999858
 20
70.097743546621302
 30
0.0
 42
0.1590353561062325
  0
SEQEND
  5
7A4
  8
0
  0
POLYLINE
  5
11A
  8
0
 66
     1
 10
0.0
 20
0.0
 30
0.0
  0
VERTEX
  5
7A5
  8
0
 10
91.499999999999943
 20
65.799999999999358
 30
0.0
 42
0.0894458167924512
  0
VERTEX
  5
7A6
  8
0
 10
91.693702417820219
 20
65.834931210997382
 30
0.0
 42
0.0942731609262745
  0
VERTEX
  5
7A7
  8
0
 10
91.853553390593177
 20
65.931801948465406
 30
0.0
 42
0.1020133445945687
  0
VERTEX
  5
7A8
  8
0
 10
91.971677689209287
 20
66.092237373310866
 30
0.0
 42
0.1275357601605807
  0
VERTEX
  5
7A9
  8
0
 10
91.999999999999886
 20
66.249999999999346
 30
0.0
 42
0.1082535630563688
  0
SEQEND
  5
7AA
  8
0
  0
POLYLINE
  5
121
  8
0
 66
     1
 10
0.0
 20
0.0
 30
0.0
  0
VERTEX
  5
7AB
  8
0
 10
92.002349827280966
 20
66.249999999999361
 30
0.0
 42
0.0517152061915078
  0
VERTEX
  5
7AC
  8
0
 10
91.960748271402537
 20
66.65114211206506
 30
0.0
 42
0.0655713246559271
  0
VERTEX
  5
7AD
  8
0
 10
91.855214969398219
 20
66.951742844472875
 30
0.0
 42
0.104480368498406
  0
VERTEX
  5
7AE
  8
0
 10
91.670638179064568
 20
67.181496021041895
 30
0.0
 42
0.1731495608390602
  0
VERTEX
  5
7AF
  8
0
 10
91.499999999999915
 20
67.242414247952055
 30
0.0
 42
0.173149560839035
  0
SEQEND
  5
7B0
  8
0
  0
LINE
  5
128
  8
0
 10
91.499999999999957
 20
64.863896577692003
 30
0.0
 11
96.699999999999989
 21
64.863896577692003
 31
0.0
  0
LINE
  5
129
  8
0
 10
91.499999999999986
 20
63.373457849183758
 30
0.0
 11
97.500000000000142
 21
63.373457849183758
 31
0.0
  0
LINE
  5
12A
  8
0
 10
91.499999999999986
 20
63.760487837124302
 30
0.0
 11
96.699999999999989
 21
63.760487837124302
 31
0.0
  0
LINE
  5
12B
  8
0
 10
91.935415786179277
 20
62.644225835155609
 30
0.0
 11
96.699999999999989
 21
62.644225835155609
 31
0.0
  0
POLYLINE
  5
12C
  8
0
 66
     1
 10
0.0
 20
0.0
 30
0.0
  0
VERTEX
  5
7B1
  8
0
 10
97.500000000000156
 20
64.660487837124293
 30
0.0
  0
VERTEX
  5
7B2
  8
0
 10
97.467149214455389
 20
64.719199131763759
 30
0.0
 42
0.0755304115360041
  0
VERTEX
  5
7B3
  8
0
 10
97.265685424949339
 20
64.804319536932354
 30
0.0
 42
0.0360289294856224
  0
VERTEX
  5
7B4
  8
0
 10
97.029207438744564
 20
64.846608597023106
 30
0.0
 42
0.0262388941048682
  0
VERTEX
  5
7B5
  8
0
 10
96.700000000000017
 20
64.863896577692003
 30
0.0
 42
0.0262388941048767
  0
SEQEND
  5
7B6
  8
0
  0
POLYLINE
  5
133
  8
0
 66
     1
 10
0.0
 20
0.0
 30
0.0
  0
VERTEX
  5
7B7
  8
0
 10
96.700000000000017
 20
63.760487837124302
 30
0.0
 42
0.1094518446865843
  0
VERTEX
  5
7B8
  8
0
 10
97.001384828942392
 20
63.827262023239328
 30
0.0
 42
0.102376034135693
  0
VERTEX
  5
7B9
  8
0
 10
97.265685424949339
 20
64.024091734056412
 30
0.0
 42
0.0937369940414574
  0
VERTEX
  5
7BA
  8
0
 10
97.453857847106406
 20
64.33821414799641
 30
0.0
 42
0.1056789781821949
  0
VERTEX
  5
7BB
  8
0
 10
97.500000000000142
 20
64.660487837124293
 30
0.0
 42
0.0884260944203305
  0
SEQEND
  5
7BC
  8
0
  0
POLYLINE
  5
13A
  8
0
 66
     1
 10
0.0
 20
0.0
 30
0.0
  0
VERTEX
  5
7BD
  8
0
 10
96.700000000000017
 20
62.644225835155609
 30
0.0
 42
0.0905018488886135
  0
VERTEX
  5
7BE
  8
0
 10
97.009491163909189
 20
62.700707498094147
 30
0.0
 42
0.0948152213876634
  0
VERTEX
  5
7BF
  8
0
 10
97.265685424949353
 20
62.857812947006138
 30
0.0
 42
0.1016292794480442
  0
VERTEX
  5
7C0
  8
0
 10
97.454611359844705
 20
63.117431823966001
 30
0.0
 42
0.1261922513728324
  0
VERTEX
  5
7C1
  8
0
 10
97.500000000000256
 20
63.373457849183758
 30
0.0
 42
0.10703491817773
  0
SEQEND
  5
7C2
  8
0
  0
POLYLINE
  5
141
  8
0
 66
     1
 10
0.0
 20
0.0
 30
0.0
  0
VERTEX
  5
7C3
  8
0
 10
91.499999999999986
 20
63.760487837124302
 30
0.0
 42
0.0353755201018935
  0
VERTEX
  5
7C4
  8
0
 10
91.704684073851524
 20
63.774987593655403
 30
0.0
 42
0.0474531546627637
  0
VERTEX
  5
7C5
  8
0
 10
91.853553390593177
 20
63.810831701654877
 30
0.0
 42
0.0906507402724792
  0
VERTEX
  5
7C6
  8
0
 10
91.980680622717102
 20
63.882262348202183
 30
0.0
  0
VERTEX
  5
7C7
  8
0
 10
91.999999999999858
 20
63.932372542186847
 30
0.0
  0
SEQEND
  5
7C8
  8
0
  0
POLYLINE
  5
148
  8
0
 66
     1
 10
0.0
 20
0.0
 30
0.0
  0
VERTEX
  5
7C9
  8
0
 10
91.999999999999858
 20
63.932372542186869
 30
0.0
 42
0.054747779625635
  0
VERTEX
  5
7CA
  8
0
 10
91.958762755955846
 20
64.307854827812434
 30
0.0
 42
0.0685683081940128
  0
VERTEX
  5
7CB
  8
0
 10
91.853553390593163
 20
64.591059504530818
 30
0.0
 42
0.1056237021745601
  0
VERTEX
  5
7CC
  8
0
 10
91.672019087255137
 20
64.80524040063753
 30
0.0
 42
0.1658060814224231
  0
VERTEX
  5
7CD
  8
0
 10
91.499999999999957
 20
64.863896577692003
 30
0.0
 42
0.1658060814224554
  0
SEQEND
  5
7CE
  8
0
  0
LINE
  5
14F
  8
0
 10
91.5
 20
63.000000000000043
 30
0.0
 11
90.5
 21
63.000000000000028
 31
0.0
  0
POLYLINE
  5
150
  8
0
 66
     1
 10
0.0
 20
0.0
 30
0.0
  0
VERTEX
  5
7CF
  8
0
 10
91.999807260066206
 20
62.644225835155609
 30
0.0
 42
0.0048999274164337
  0
VERTEX
  5
7D0
  8
0
 10
91.999999999999886
 20
62.663892994495193
 30
0.0
 42
0.0711168803362826
  0
VERTEX
  5
7D1
  8
0
 10
91.959804563620082
 20
62.945064942159512
 30
0.0
 42
0.0826512826045296
  0
VERTEX
  5
7D2
  8
0
 10
91.853553390593177
 20
63.165631114937128
 30
0.0
 42
0.1067866567410894
  0
VERTEX
  5
7D3
  8
0
 10
91.681488877350304
 20
63.324066800185619
 30
0.0
 42
0.133641581777159
  0
VERTEX
  5
7D4
  8
0
 10
91.5
 20
63.373457849183758
 30
0.0
 42
0.1336415817771489
  0
SEQEND
  5
7D5
  8
0
  0
POLYLINE
  5
158
  8
0
 66
     1
 10
0.0
 20
0.0
 30
0.0
  0
VERTEX
  5
7D6
  8
0
 10
91.5
 20
63.000000000000043
 30
0.0
 42
0.1325624329507443
  0
VERTEX
  5
7D7
  8
0
 10
91.534910274095637
 20
62.870639056196289
 30
0.0
 42
0.1066985872012934
  0
VERTEX
  5
7D8
  8
0
 10
91.646446609406681
 20
62.748429675467563
 30
0.0
 42
0.0831450225330238
  0
VERTEX
  5
7D9
  8
0
 10
91.818542648156026
 20
62.664760980360647
 30
0.0
 42
0.087184510723947
  0
VERTEX
  5
7DA
  8
0
 10
91.999999999999886
 20
62.644225835154863
 30
0.0
 42
0.0717773050186755
  0
SEQEND
  5
7DB
  8
0
  0
LINE
  5
4C9
  8
2
 10
93.499999999999986
 20
73.5
 30
0.0
 11
91.5
 21
71.5
 31
0.0
  0
LINE
  5
4D3
  8
2
 10
93.499999999999986
 20
66.5
 30
0.0
 11
91.5
 21
68.5
 31
0.0
  0
LINE
  5
4F6
  8
2
 10
100.2
 20
66.5
 30
0.0
 11
93.499999999999986
 21
66.5
 31
0.0
  0
LINE
  5
551
  8
2
 10
100.2
 20
73.5
 30
0.0
 11
93.499999999999986
 21
73.5
 31
0.0
  0
LINE
  5
594
  8
2
 10
100.009252
 20
72.099999999999724
 30
0.0
 11
93.499999999999986
 21
72.099999999999724
 31
0.0
  0
LINE
  5
595
  8
2
 10
92.287564434701935
 20
69.999999999999986
 30
0.0
 11
93.499999999999986
 21
72.099999999999724
 31
0.0
  0
LINE
  5
596
  8
2
 10
100.40925200000009
 20
72.499999999999787
 30
0.0
 11
94.500000000000014
 21
72.499999999999787
 31
0.0
  0
LINE
  5
597
  8
2
 10
100.009252
 20
72.099999999999724
 30
0.0
 11
100.5
 21
72.590747999999721
 31
0.0
  0
LINE
  5
598
  8
2
 10
93.807179676972339
 20
72.099999999999724
 30
0.0
 11
94.500000000000014
 21
72.499999999999787
 31
0.0
  0
LINE
  5
599
  8
2
 10
92.287564434701935
 20
69.999999999999986
 30
0.0
 11
93.499999999999986
 21
67.900000000000233
 31
0.0
  0
LINE
  5
59A
  8
2
 10
93.807179676972339
 20
67.900000000000233
 30
0.0
 11
94.500000000000014
 21
67.500000000000185
 31
0.0
  0
LINE
  5
59B
  8
2
 10
93.499999999999986
 20
72.099999999999724
 30
0.0
 11
93.499999999999986
 21
67.900000000000233
 31
0.0
  0
LINE
  5
59C
  8
2
 10
94.500000000000014
 20
72.499999999999787
 30
0.0
 11
94.500000000000014
 21
67.500000000000185
 31
0.0
  0
LINE
  5
59D
  8
2
 10
100.009252
 20
67.900000000000233
 30
0.0
 11
100.009252
 21
72.099999999999724
 31
0.0
  0
LINE
  5
59E
  8
2
 10
100.009252
 20
67.900000000000233
 30
0.0
 11
100.5
 21
67.409252000000237
 31
0.0
  0
LINE
  5
59F
  8
2
 10
100.40925200000009
 20
67.500000000000185
 30
0.0
 11
94.500000000000014
 21
67.500000000000185
 31
0.0
  0
LINE
  5
5A0
  8
2
 10
100.009252
 20
67.900000000000233
 30
0.0
 11
93.499999999999986
 21
67.900000000000233
 31
0.0
  0
CIRCLE
  5
5A4
  8
0
 10
135.0
 20
70.0
 30
0.0
 40
2.0999999999997239
  0
CIRCLE
  5
5A5
  8
3
 10
135.0
 20
70.0
 30
0.0
 40
2.4999999999997859
  0
TEXT
  5
673
  8
0
 62
     3
 10
0.0
 20
0.0
 30
0.0
 40
10.0
  1
KN15B-SUS
  7
STANDARD1
  0
ENDSEC
  0
EOF
