  0
SECTION
  2
HEADER
  9
$ACADVER
  1
AC1009
  9
$INSBASE
 10
0.0
 20
0.0
 30
0.0
  9
$EXTMIN
 10
0.0
 20
-2.960436562073669
 30
0.0
  9
$EXTMAX
 10
302.5
 20
227.5
 30
0.0
  9
$LIMMIN
 10
0.0
 20
0.0
  9
$LIMMAX
 10
375.0
 20
270.0
  9
$ORTHOMODE
 70
     1
  9
$REGENMODE
 70
     1
  9
$FILLMODE
 70
     1
  9
$QTEXTMODE
 70
     0
  9
$MIRRTEXT
 70
     0
  9
$DRAGMODE
 70
     2
  9
$LTSCALE
 40
10.0
  9
$OSMODE
 70
  3071
  9
$ATTMODE
 70
     1
  9
$TEXTSIZE
 40
4.000000000000048
  9
$TRACEWID
 40
0.05
  9
$TEXTSTYLE
  7
STANDARD
  9
$CLAYER
  8
0
  9
$CELTYPE
  6
BYLAYER
  9
$CECOLOR
 62
   256
  9
$DIMSCALE
 40
1.0
  9
$DIMASZ
 40
3.0
  9
$DIMEXO
 40
2.0
  9
$DIMDLI
 40
0.38
  9
$DIMRND
 40
0.0
  9
$DIMDLE
 40
0.0
  9
$DIMEXE
 40
2.0
  9
$DIMTP
 40
0.0
  9
$DIMTM
 40
0.0
  9
$DIMTXT
 40
3.2000000000000002
  9
$DIMCEN
 40
0.0
  9
$DIMTSZ
 40
0.0
  9
$DIMTOL
 70
     0
  9
$DIMLIM
 70
     0
  9
$DIMTIH
 70
     0
  9
$DIMTOH
 70
     0
  9
$DIMSE1
 70
     0
  9
$DIMSE2
 70
     0
  9
$DIMTAD
 70
     1
  9
$DIMZIN
 70
     0
  9
$DIMBLK
  1

  9
$DIMASO
 70
     1
  9
$DIMSHO
 70
     0
  9
$DIMPOST
  1

  9
$DIMAPOST
  1

  9
$DIMALT
 70
     0
  9
$DIMALTD
 70
     2
  9
$DIMALTF
 40
25.399999999999999
  9
$DIMLFAC
 40
1.0
  9
$DIMTOFL
 70
     1
  9
$DIMTVP
 40
1.6000000000000001
  9
$DIMTIX
 70
     1
  9
$DIMSOXD
 70
     0
  9
$DIMSAH
 70
     0
  9
$DIMBLK1
  1

  9
$DIMBLK2
  1

  9
$DIMSTYLE
  2
STANDARD
  9
$DIMCLRD
 70
     0
  9
$DIMCLRE
 70
     0
  9
$DIMCLRT
 70
     0
  9
$DIMTFAC
 40
1.0
  9
$DIMGAP
 40
0.09
  9
$LUNITS
 70
     2
  9
$LUPREC
 70
     4
  9
$SKETCHINC
 40
0.1
  9
$FILLETRAD
 40
0.0
  9
$AUNITS
 70
     0
  9
$AUPREC
 70
     4
  9
$MENU
  1
E:\r13\win\SUPPORT\ACAD
  9
$ELEVATION
 40
0.0
  9
$PELEVATION
 40
0.0
  9
$THICKNESS
 40
0.0
  9
$LIMCHECK
 70
     0
  9
$BLIPMODE
 70
     0
  9
$CHAMFERA
 40
0.0
  9
$CHAMFERB
 40
0.0
  9
$SKPOLY
 70
     0
  9
$TDCREATE
 40
2449839.7870949069
  9
$TDUPDATE
 40
2456597.4745890158
  9
$TDINDWG
 40
0.0001406597
  9
$TDUSRTIMER
 40
0.0001406597
  9
$USRTIMER
 70
     1
  9
$ANGBASE
 50
0.0
  9
$ANGDIR
 70
     0
  9
$PDMODE
 70
     0
  9
$PDSIZE
 40
0.0
  9
$PLINEWID
 40
0.0
  9
$COORDS
 70
     1
  9
$SPLFRAME
 70
     0
  9
$SPLINETYPE
 70
     6
  9
$SPLINESEGS
 70
     8
  9
$ATTDIA
 70
     0
  9
$ATTREQ
 70
     1
  9
$HANDLING
 70
     1
  9
$HANDSEED
  5
795
  9
$SURFTAB1
 70
     6
  9
$SURFTAB2
 70
     6
  9
$SURFTYPE
 70
     6
  9
$SURFU
 70
     6
  9
$SURFV
 70
     6
  9
$UCSNAME
  2

  9
$UCSORG
 10
0.0
 20
0.0
 30
0.0
  9
$UCSXDIR
 10
1.0
 20
0.0
 30
0.0
  9
$UCSYDIR
 10
0.0
 20
1.0
 30
0.0
  9
$PUCSNAME
  2

  9
$PUCSORG
 10
0.0
 20
0.0
 30
0.0
  9
$PUCSXDIR
 10
1.0
 20
0.0
 30
0.0
  9
$PUCSYDIR
 10
0.0
 20
1.0
 30
0.0
  9
$USERI1
 70
     0
  9
$USERI2
 70
     1
  9
$USERI3
 70
     1
  9
$USERI4
 70
     0
  9
$USERI5
 70
     0
  9
$USERR1
 40
0.0
  9
$USERR2
 40
0.0
  9
$USERR3
 40
0.0
  9
$USERR4
 40
0.0
  9
$USERR5
 40
0.0
  9
$WORLDVIEW
 70
     1
  9
$SHADEDGE
 70
     3
  9
$SHADEDIF
 70
    70
  9
$TILEMODE
 70
     1
  9
$MAXACTVP
 70
    16
  9
$PLIMCHECK
 70
     0
  9
$PEXTMIN
 10
1.0000000000000000E+020
 20
1.0000000000000000E+020
 30
1.0000000000000000E+020
  9
$PEXTMAX
 10
-1.0000000000000000E+020
 20
-1.0000000000000000E+020
 30
-1.0000000000000000E+020
  9
$PLIMMIN
 10
0.0
 20
0.0
  9
$PLIMMAX
 10
12.0
 20
9.0
  9
$UNITMODE
 70
     0
  9
$VISRETAIN
 70
     0
  9
$PLINEGEN
 70
     0
  9
$PSLTSCALE
 70
     0
  0
ENDSEC
  0
SECTION
  2
TABLES
  0
TABLE
  2
VPORT
 70
     1
  0
VPORT
  2
*ACTIVE
 70
     0
 10
0.0
 20
0.0
 11
1.0
 21
1.0
 12
187.49427839065231
 22
162.8616388594717
 13
0.0
 23
0.0
 14
10.0
 24
10.0
 15
10.0
 25
10.0
 16
0.0
 26
0.0
 36
1.0
 17
0.0
 27
0.0
 37
0.0
 40
334.81001162774987
 41
1.9089595375722539
 42
50.0
 43
0.0
 44
0.0
 50
0.0
 51
0.0
 71
     0
 72
   500
 73
     1
 74
     0
 75
     0
 76
     0
 77
     0
 78
     2
  0
ENDTAB
  0
TABLE
  2
LTYPE
 70
     4
  0
LTYPE
  2
CONTINUOUS
 70
     0
  3
Solid Line
 72
    65
 73
     0
 40
0.0
  0
LTYPE
  2
CENTER
 70
     0
  3
____ _ ____ _ ____ _ ____ _ ____ _ ____ _ ____
 72
    65
 73
     4
 40
2.0
 49
1.25
 49
-0.25
 49
0.25
 49
-0.25
  0
LTYPE
  2
HIDDEN
 70
     0
  3
_ _ _ _ _ _ _ _ _ _ _ _ _ _ _ _ _ _ _ _ _ _ _
 72
    65
 73
     2
 40
0.375
 49
0.25
 49
-0.125
  0
LTYPE
  2
PHANTOM2
 70
     0
  3
___ _ _ ___ _ _ ___ _ _ ___ _ _
 72
    65
 73
     6
 40
1.25
 49
0.625
 49
-0.125
 49
0.125
 49
-0.125
 49
0.125
 49
-0.125
  0
ENDTAB
  0
TABLE
  2
LAYER
 70
     4
  0
LAYER
  2
0
 70
     0
 62
     7
  6
CONTINUOUS
  0
LAYER
  2
1
 70
     0
 62
     1
  6
CENTER
  0
LAYER
  2
2
 70
     0
 62
     2
  6
HIDDEN
  0
LAYER
  2
3
 70
     0
 62
     3
  6
CONTINUOUS
  0
ENDTAB
  0
TABLE
  2
STYLE
 70
     2
  0
STYLE
  2
STANDARD
 70
     0
 40
0.0
 41
1.0
 50
0.0
 71
     0
 42
4.000000000000048
  3
TXT
  4
BIGFONT
  0
STYLE
  2
STANDARD1
 70
     0
 40
0.0
 41
1.0
 50
0.0
 71
     0
 42
3.0
  3
txt
  4

  0
ENDTAB
  0
TABLE
  2
VIEW
 70
     1
  0
VIEW
  2
ALL
 70
     0
 40
270.0
 10
220.99159663865549
 20
135.0
 41
0.0
 11
0.0
 21
0.0
 31
1.0
 12
0.0
 22
0.0
 32
0.0
 42
0.0
 43
0.0
 44
0.0
 50
0.0
 71
     0
  0
ENDTAB
  0
TABLE
  2
UCS
 70
     0
  0
ENDTAB
  0
TABLE
  2
APPID
 70
     3
  0
APPID
  2
ACAD
 70
     0
  0
APPID
  2
ACAD_MLEADERVER
 70
     0
  0
APPID
  2
ACAD_NAV_VCDISPLAY
 70
     0
  0
ENDTAB
  0
TABLE
  2
DIMSTYLE
 70
     1
  0
DIMSTYLE
  2
STANDARD
 70
     0
  3

  4

  5

  6

  7

 40
1.0
 41
0.18
 42
0.0625
 43
0.38
 44
0.18
 45
0.0
 46
0.0
 47
0.0
 48
0.0
140
0.18
141
0.09
142
0.0
143
25.399999999999999
144
1.0
145
0.0
146
1.0
147
0.09
 71
     0
 72
     0
 73
     1
 74
     1
 75
     0
 76
     0
 77
     0
 78
     0
170
     0
171
     2
172
     0
173
     0
174
     0
175
     0
176
     0
177
     0
178
     0
  0
ENDTAB
  0
ENDSEC
  0
SECTION
  2
BLOCKS
  0
BLOCK
  8
0
  2
$MODEL_SPACE
 70
     0
 10
0.0
 20
0.0
 30
0.0
  3
$MODEL_SPACE
  1

  0
ENDBLK
  5
612
  8
0
  0
BLOCK
 67
     1
  8
0
  2
$PAPER_SPACE
 70
     0
 10
0.0
 20
0.0
 30
0.0
  3
$PAPER_SPACE
  1

  0
ENDBLK
  5
610
 67
     1
  8
0
  0
ENDSEC
  0
SECTION
  2
ENTITIES
  0
LINE
  5
36
  8
1
 10
210.5
 20
135.28951838529181
 30
0.0
 11
155.0
 21
135.28951838529181
 31
0.0
  0
LINE
  5
37
  8
0
 10
160.0
 20
151.78951838529181
 30
0.0
 11
160.0
 21
118.7895183852917
 31
0.0
  0
LINE
  5
38
  8
0
 10
205.5
 20
150.58951838529171
 30
0.0
 11
205.5
 21
119.9895183852917
 31
0.0
  0
LINE
  5
39
  8
0
 10
160.0
 20
118.7895183852917
 30
0.0
 11
175.0
 21
118.7895183852917
 31
0.0
  0
LINE
  5
3A
  8
0
 10
175.0
 20
117.7895183852917
 30
0.0
 11
203.30000000000001
 21
117.7895183852917
 31
0.0
  0
LINE
  5
3B
  8
0
 10
160.0
 20
151.78951838529181
 30
0.0
 11
175.0
 21
151.78951838529181
 31
0.0
  0
LINE
  5
3C
  8
0
 10
205.5
 20
150.58951838529171
 30
0.0
 11
203.80000000000001
 21
152.2895183852917
 31
0.0
  0
LINE
  5
3D
  8
0
 10
205.5
 20
119.9895183852917
 30
0.0
 11
203.30000000000001
 21
117.7895183852917
 31
0.0
  0
LINE
  5
3E
  8
3
 10
203.30000000000001
 20
134.4475741200992
 30
0.0
 11
175.0
 21
134.4475741200992
 31
0.0
  0
LINE
  5
3F
  8
3
 10
203.30000000000001
 20
133.93403197993041
 30
0.0
 11
175.0
 21
133.93403197993041
 31
0.0
  0
LINE
  5
40
  8
3
 10
203.30000000000001
 20
132.9878604242414
 30
0.0
 11
175.0
 21
132.9878604242414
 31
0.0
  0
LINE
  5
41
  8
3
 10
203.30000000000001
 20
132.47882292393379
 30
0.0
 11
175.0
 21
132.47882292393379
 31
0.0
  0
LINE
  5
42
  8
3
 10
203.30000000000001
 20
131.54429120524199
 30
0.0
 11
175.0
 21
131.54429120524199
 31
0.0
  0
LINE
  5
43
  8
3
 10
203.30000000000001
 20
131.04332887711681
 30
0.0
 11
175.0
 21
131.04332887711681
 31
0.0
  0
LINE
  5
44
  8
3
 10
203.30000000000001
 20
130.1269920639682
 30
0.0
 11
175.0
 21
130.1269920639682
 31
0.0
  0
LINE
  5
45
  8
3
 10
203.30000000000001
 20
129.6376187988165
 30
0.0
 11
175.0
 21
129.6376187988165
 31
0.0
  0
LINE
  5
46
  8
3
 10
203.30000000000001
 20
128.74590433556861
 30
0.0
 11
175.0
 21
128.74590433556861
 31
0.0
  0
LINE
  5
47
  8
3
 10
203.30000000000001
 20
128.2715527352313
 30
0.0
 11
175.0
 21
128.2715527352313
 31
0.0
  0
LINE
  5
48
  8
3
 10
203.30000000000001
 20
127.4107153581476
 30
0.0
 11
175.0
 21
127.4107153581476
 31
0.0
  0
LINE
  5
49
  8
3
 10
203.30000000000001
 20
126.9547126582798
 30
0.0
 11
175.0
 21
126.9547126582798
 31
0.0
  0
LINE
  5
4A
  8
3
 10
203.30000000000001
 20
126.1307905230498
 30
0.0
 11
175.0
 21
126.1307905230498
 31
0.0
  0
LINE
  5
4B
  8
3
 10
203.30000000000001
 20
125.6963352549536
 30
0.0
 11
175.0
 21
125.6963352549536
 31
0.0
  0
LINE
  5
4C
  8
3
 10
203.30000000000001
 20
124.91510758336879
 30
0.0
 11
175.0
 21
124.91510758336879
 31
0.0
  0
LINE
  5
4D
  8
3
 10
203.30000000000001
 20
124.5052471385942
 30
0.0
 11
175.0
 21
124.5052471385942
 31
0.0
  0
LINE
  5
4E
  8
3
 10
203.30000000000001
 20
123.7721936814593
 30
0.0
 11
175.0
 21
123.7721936814593
 31
0.0
  0
LINE
  5
4F
  8
3
 10
203.30000000000001
 20
123.3898029365422
 30
0.0
 11
175.0
 21
123.3898029365422
 31
0.0
  0
LINE
  5
50
  8
3
 10
203.30000000000001
 20
122.7100655371609
 30
0.0
 11
175.0
 21
122.7100655371609
 31
0.0
  0
LINE
  5
51
  8
3
 10
203.30000000000001
 20
122.3578266884293
 30
0.0
 11
175.0
 21
122.3578266884293
 31
0.0
  0
LINE
  5
52
  8
3
 10
203.30000000000001
 20
121.7361732162678
 30
0.0
 11
175.0
 21
121.7361732162678
 31
0.0
  0
LINE
  5
53
  8
3
 10
203.30000000000001
 20
121.4165569661624
 30
0.0
 11
175.0
 21
121.4165569661624
 31
0.0
  0
LINE
  5
54
  8
3
 10
203.30000000000001
 20
120.85734787367019
 30
0.0
 11
175.0
 21
120.85734787367019
 31
0.0
  0
LINE
  5
55
  8
3
 10
203.30000000000001
 20
120.5725961005416
 30
0.0
 11
175.0
 21
120.5725961005416
 31
0.0
  0
LINE
  5
56
  8
3
 10
203.30000000000001
 20
120.07975383771129
 30
0.0
 11
175.0
 21
120.07975383771129
 31
0.0
  0
LINE
  5
57
  8
3
 10
203.30000000000001
 20
119.8318638706541
 30
0.0
 11
175.0
 21
119.8318638706541
 31
0.0
  0
LINE
  5
58
  8
3
 10
203.30000000000001
 20
119.4088453718533
 30
0.0
 11
175.0
 21
119.4088453718533
 31
0.0
  0
LINE
  5
59
  8
3
 10
203.30000000000001
 20
119.1995559808777
 30
0.0
 11
175.0
 21
119.1995559808777
 31
0.0
  0
LINE
  5
5A
  8
3
 10
203.30000000000001
 20
118.8493284169364
 30
0.0
 11
175.0
 21
118.8493284169364
 31
0.0
  0
LINE
  5
5B
  8
3
 10
203.30000000000001
 20
118.6801076167459
 30
0.0
 11
175.0
 21
118.6801076167459
 31
0.0
  0
LINE
  5
5C
  8
3
 10
203.30000000000001
 20
118.40512758238761
 30
0.0
 11
175.0
 21
118.40512758238761
 31
0.0
  0
LINE
  5
5D
  8
3
 10
203.30000000000001
 20
118.27716233531039
 30
0.0
 11
175.0
 21
118.27716233531039
 31
0.0
  0
LINE
  5
5E
  8
3
 10
203.30000000000001
 20
118.0793586179029
 30
0.0
 11
175.0
 21
118.0793586179029
 31
0.0
  0
LINE
  5
5F
  8
3
 10
203.30000000000001
 20
117.9935465082048
 30
0.0
 11
175.0
 21
117.9935465082048
 31
0.0
  0
LINE
  5
60
  8
3
 10
203.30000000000001
 20
117.87430655870391
 30
0.0
 11
175.0
 21
117.87430655870391
 31
0.0
  0
LINE
  5
61
  8
3
 10
203.30000000000001
 20
117.8312494966778
 30
0.0
 11
175.0
 21
117.8312494966778
 31
0.0
  0
LINE
  5
62
  8
3
 10
203.2999999999995
 20
135.39874879914521
 30
0.0
 11
203.80000000000001
 21
135.0954737726731
 31
0.0
  0
LINE
  5
63
  8
3
 10
203.80000000000001
 20
135.0954737726731
 30
0.0
 11
203.80000000000001
 21
134.77155305113831
 31
0.0
  0
LINE
  5
64
  8
3
 10
203.80000000000001
 20
134.77155305113831
 30
0.0
 11
203.30000000000001
 21
134.4475741200992
 31
0.0
  0
LINE
  5
65
  8
3
 10
203.30000000000001
 20
134.4475741200992
 30
0.0
 11
203.30000000000001
 21
133.93403197993041
 31
0.0
  0
LINE
  5
66
  8
3
 10
203.30000000000001
 20
133.93403197993041
 30
0.0
 11
203.80000000000001
 21
133.6737236498671
 31
0.0
  0
LINE
  5
67
  8
3
 10
203.80000000000001
 20
133.6737236498671
 30
0.0
 11
203.80000000000001
 21
133.3515067324422
 31
0.0
  0
LINE
  5
68
  8
3
 10
203.80000000000001
 20
133.3515067324422
 30
0.0
 11
203.30000000000001
 21
132.9878604242414
 31
0.0
  0
LINE
  5
69
  8
3
 10
203.30000000000001
 20
132.9878604242414
 30
0.0
 11
203.30000000000001
 21
132.47882292393379
 31
0.0
  0
LINE
  5
6A
  8
3
 10
203.30000000000001
 20
132.47882292393379
 30
0.0
 11
203.80000000000001
 21
132.2633071661831
 31
0.0
  0
LINE
  5
6B
  8
3
 10
203.80000000000001
 20
132.2633071661831
 30
0.0
 11
203.80000000000001
 21
131.94505417303199
 31
0.0
  0
LINE
  5
6C
  8
3
 10
203.80000000000001
 20
131.94505417303199
 30
0.0
 11
203.30000000000001
 21
131.54429120524199
 31
0.0
  0
LINE
  5
6D
  8
3
 10
203.30000000000001
 20
131.54429120524199
 30
0.0
 11
203.30000000000001
 21
131.04332887711681
 31
0.0
  0
LINE
  5
6E
  8
3
 10
203.30000000000001
 20
131.04332887711681
 30
0.0
 11
203.80000000000001
 21
130.87411737987151
 31
0.0
  0
LINE
  5
6F
  8
3
 10
203.80000000000001
 20
130.87411737987151
 30
0.0
 11
203.80000000000001
 21
130.56206062707619
 31
0.0
  0
LINE
  5
70
  8
3
 10
203.80000000000001
 20
130.56206062707619
 30
0.0
 11
203.30000000000001
 21
130.1269920639682
 31
0.0
  0
LINE
  5
71
  8
3
 10
203.30000000000001
 20
130.1269920639682
 30
0.0
 11
203.30000000000001
 21
129.6376187988165
 31
0.0
  0
LINE
  5
72
  8
3
 10
203.30000000000001
 20
129.6376187988165
 30
0.0
 11
203.80000000000001
 21
129.51589845915149
 31
0.0
  0
LINE
  5
73
  8
3
 10
203.80000000000001
 20
129.51589845915149
 30
0.0
 11
203.80000000000001
 21
129.21222680062061
 31
0.0
  0
LINE
  5
74
  8
3
 10
203.80000000000001
 20
129.21222680062061
 30
0.0
 11
203.30000000000001
 21
128.74590433556861
 31
0.0
  0
LINE
  5
75
  8
3
 10
203.30000000000001
 20
128.74590433556861
 30
0.0
 11
203.30000000000001
 21
128.2715527352313
 31
0.0
  0
LINE
  5
76
  8
3
 10
203.30000000000001
 20
128.2715527352313
 30
0.0
 11
203.80000000000001
 21
128.1981773338733
 31
0.0
  0
LINE
  5
77
  8
3
 10
203.80000000000001
 20
128.1981773338733
 30
0.0
 11
203.80000000000001
 21
127.9050208081037
 31
0.0
  0
LINE
  5
78
  8
3
 10
203.80000000000001
 20
127.9050208081037
 30
0.0
 11
203.30000000000001
 21
127.4107153581476
 31
0.0
  0
LINE
  5
79
  8
3
 10
203.30000000000001
 20
127.4107153581476
 30
0.0
 11
203.30000000000001
 21
126.9547126582798
 31
0.0
  0
LINE
  5
7A
  8
3
 10
203.30000000000001
 20
126.9547126582798
 30
0.0
 11
203.80000000000001
 21
126.9301968709492
 31
0.0
  0
LINE
  5
7B
  8
3
 10
203.80000000000001
 20
126.9301968709492
 30
0.0
 11
203.80000000000001
 21
126.6496117603363
 31
0.0
  0
LINE
  5
7C
  8
3
 10
203.80000000000001
 20
126.6496117603363
 30
0.0
 11
203.30000000000001
 21
126.1307905230498
 31
0.0
  0
LINE
  5
7D
  8
3
 10
203.30000000000001
 20
126.1307905230498
 30
0.0
 11
203.30000000000001
 21
125.6963352549536
 31
0.0
  0
LINE
  5
7E
  8
3
 10
203.30000000000001
 20
125.6963352549536
 30
0.0
 11
203.80000000000001
 21
125.7208510422841
 31
0.0
  0
LINE
  5
7F
  8
3
 10
203.80000000000001
 20
125.7208510422841
 30
0.0
 11
203.80000000000001
 21
125.4548054497788
 31
0.0
  0
LINE
  5
80
  8
3
 10
203.80000000000001
 20
125.4548054497788
 30
0.0
 11
203.30000000000001
 21
124.91510758336879
 31
0.0
  0
LINE
  5
81
  8
3
 10
203.30000000000001
 20
124.91510758336879
 30
0.0
 11
203.30000000000001
 21
124.5052471385942
 31
0.0
  0
LINE
  5
82
  8
3
 10
203.30000000000001
 20
124.5052471385942
 30
0.0
 11
203.80000000000001
 21
124.57862253995209
 31
0.0
  0
LINE
  5
83
  8
3
 10
203.80000000000001
 20
124.57862253995209
 30
0.0
 11
203.80000000000001
 21
124.32898258423231
 31
0.0
  0
LINE
  5
84
  8
3
 10
203.80000000000001
 20
124.32898258423231
 30
0.0
 11
203.30000000000001
 21
123.7721936814593
 31
0.0
  0
LINE
  5
85
  8
3
 10
203.30000000000001
 20
123.7721936814593
 30
0.0
 11
203.30000000000001
 21
123.3898029365422
 31
0.0
  0
LINE
  5
86
  8
3
 10
203.30000000000001
 20
123.3898029365422
 30
0.0
 11
203.80000000000001
 21
123.5115232762073
 31
0.0
  0
LINE
  5
87
  8
3
 10
203.80000000000001
 20
123.5115232762073
 30
0.0
 11
203.80000000000001
 21
123.2800400021962
 31
0.0
  0
LINE
  5
88
  8
3
 10
203.80000000000001
 20
123.2800400021962
 30
0.0
 11
203.30000000000001
 21
122.7100655371609
 31
0.0
  0
LINE
  5
89
  8
3
 10
203.30000000000001
 20
122.7100655371609
 30
0.0
 11
203.30000000000001
 21
122.3578266884293
 31
0.0
  0
LINE
  5
8A
  8
3
 10
203.30000000000001
 20
122.3578266884293
 30
0.0
 11
203.80000000000001
 21
122.5270381856746
 31
0.0
  0
LINE
  5
8B
  8
3
 10
203.80000000000001
 20
122.5270381856746
 30
0.0
 11
203.80000000000001
 21
122.31533528221929
 31
0.0
  0
LINE
  5
8C
  8
3
 10
203.80000000000001
 20
122.31533528221929
 30
0.0
 11
203.30000000000001
 21
121.7361732162678
 31
0.0
  0
LINE
  5
8D
  8
3
 10
203.30000000000001
 20
121.7361732162678
 30
0.0
 11
203.30000000000001
 21
121.4165569661624
 31
0.0
  0
LINE
  5
8E
  8
3
 10
203.30000000000001
 20
121.4165569661624
 30
0.0
 11
203.80000000000001
 21
121.6320727239131
 31
0.0
  0
LINE
  5
8F
  8
3
 10
203.80000000000001
 20
121.6320727239131
 30
0.0
 11
203.80000000000001
 21
121.4416351347726
 31
0.0
  0
LINE
  5
90
  8
3
 10
203.80000000000001
 20
121.4416351347726
 30
0.0
 11
203.30000000000001
 21
120.85734787367019
 31
0.0
  0
LINE
  5
91
  8
3
 10
203.30000000000001
 20
120.85734787367019
 30
0.0
 11
203.30000000000001
 21
120.5725961005416
 31
0.0
  0
LINE
  5
92
  8
3
 10
203.30000000000001
 20
120.5725961005416
 30
0.0
 11
203.80000000000001
 21
120.8329044306049
 31
0.0
  0
LINE
  5
93
  8
3
 10
203.80000000000001
 20
120.8329044306049
 30
0.0
 11
203.80000000000001
 21
120.6650679386378
 31
0.0
  0
LINE
  5
94
  8
3
 10
203.80000000000001
 20
120.6650679386378
 30
0.0
 11
203.30000000000001
 21
120.07975383771129
 31
0.0
  0
LINE
  5
95
  8
3
 10
203.30000000000001
 20
120.07975383771129
 30
0.0
 11
203.30000000000001
 21
119.8318638706541
 31
0.0
  0
LINE
  5
96
  8
3
 10
203.30000000000001
 20
119.8318638706541
 30
0.0
 11
203.80000000000001
 21
120.135138897126
 31
0.0
  0
LINE
  5
97
  8
3
 10
203.80000000000001
 20
120.135138897126
 30
0.0
 11
203.80000000000001
 21
119.9910807547335
 31
0.0
  0
LINE
  5
98
  8
3
 10
203.80000000000001
 20
119.9910807547335
 30
0.0
 11
203.30000000000001
 21
119.4088453718533
 31
0.0
  0
LINE
  5
99
  8
3
 10
203.30000000000001
 20
119.4088453718533
 30
0.0
 11
203.30000000000001
 21
119.1995559808777
 31
0.0
  0
LINE
  5
9A
  8
3
 10
203.30000000000001
 20
119.1995559808777
 30
0.0
 11
203.80000000000001
 21
119.54367044735019
 31
0.0
  0
LINE
  5
9B
  8
3
 10
203.80000000000001
 20
119.54367044735019
 30
0.0
 11
203.80000000000001
 21
119.42440111889501
 31
0.0
  0
LINE
  5
9C
  8
3
 10
203.80000000000001
 20
119.42440111889501
 30
0.0
 11
203.30000000000001
 21
118.8493284169364
 31
0.0
  0
LINE
  5
9D
  8
3
 10
203.30000000000001
 20
118.8493284169364
 30
0.0
 11
203.30000000000001
 21
118.6801076167459
 31
0.0
  0
LINE
  5
9E
  8
3
 10
203.30000000000001
 20
118.6801076167459
 30
0.0
 11
203.80000000000001
 21
119.0626478074827
 31
0.0
  0
LINE
  5
9F
  8
3
 10
203.80000000000001
 20
119.0626478074827
 30
0.0
 11
203.80000000000001
 21
118.9690038816095
 31
0.0
  0
LINE
  5
A0
  8
3
 10
203.80000000000001
 20
118.9690038816095
 30
0.0
 11
203.30000000000001
 21
118.40512758238761
 31
0.0
  0
LINE
  5
A1
  8
3
 10
203.30000000000001
 20
118.40512758238761
 30
0.0
 11
203.30000000000001
 21
118.27716233531039
 31
0.0
  0
LINE
  5
A2
  8
3
 10
203.30000000000001
 20
118.27716233531039
 30
0.0
 11
203.80000000000001
 21
118.6954450057282
 31
0.0
  0
LINE
  5
A3
  8
3
 10
203.80000000000001
 20
118.6954450057282
 30
0.0
 11
203.80000000000001
 21
118.6280833272935
 31
0.0
  0
LINE
  5
A4
  8
3
 10
203.80000000000001
 20
118.6280833272935
 30
0.0
 11
203.30000000000001
 21
118.0793586179029
 31
0.0
  0
LINE
  5
A5
  8
3
 10
203.30000000000001
 20
118.0793586179029
 30
0.0
 11
203.30000000000001
 21
117.9935465082048
 31
0.0
  0
LINE
  5
A6
  8
3
 10
203.30000000000001
 20
117.9935465082048
 30
0.0
 11
203.80000000000001
 21
118.444637705906
 31
0.0
  0
LINE
  5
A7
  8
3
 10
203.80000000000001
 20
118.444637705906
 30
0.0
 11
203.80000000000001
 21
118.4040307686851
 31
0.0
  0
LINE
  5
A8
  8
3
 10
203.80000000000001
 20
118.4040307686851
 30
0.0
 11
203.30000000000001
 21
117.87430655870391
 31
0.0
  0
LINE
  5
A9
  8
3
 10
203.30000000000001
 20
117.87430655870391
 30
0.0
 11
203.30000000000001
 21
117.8312494966778
 31
0.0
  0
LINE
  5
AA
  8
3
 10
203.30000000000001
 20
117.8312494966778
 30
0.0
 11
203.80000000000001
 21
118.31198514101951
 31
0.0
  0
LINE
  5
AB
  8
3
 10
203.80000000000001
 20
118.31198514101951
 30
0.0
 11
203.80000000000001
 21
118.2984177735009
 31
0.0
  0
LINE
  5
AC
  8
3
 10
203.80000000000001
 20
118.2984177735009
 30
0.0
 11
203.30000000000001
 21
117.7895183852917
 31
0.0
  0
LINE
  5
AD
  8
0
 10
175.0
 20
152.78305197454549
 30
0.0
 11
175.0
 21
117.7895183852917
 31
0.0
  0
LINE
  5
AE
  8
1
 10
186.5
 20
155.2895183852917
 30
0.0
 11
186.5
 21
137.7895183852917
 31
0.0
  0
ARC
  5
AF
  8
0
 10
80.0
 20
135.2895183852917
 30
0.0
 40
17.5
 50
269.15762756265048
 51
270.84237243734998
  0
CIRCLE
  5
B0
  8
0
 10
80.0
 20
135.2895183852917
 30
0.0
 40
16.5
  0
CIRCLE
  5
B1
  8
0
 10
80.0
 20
135.2895183852917
 30
0.0
 40
14.0
  0
CIRCLE
  5
B2
  8
0
 10
80.0
 20
135.2895183852917
 30
0.0
 40
7.5
  0
CIRCLE
  5
B3
  8
0
 10
80.0
 20
135.2895183852917
 30
0.0
 40
5.0
  0
CIRCLE
  5
B4
  8
0
 10
80.0
 20
135.2895183852917
 30
0.0
 40
3.1000000000000001
  0
LINE
  5
B5
  8
1
 10
80.0
 20
135.2895183852917
 30
0.0
 11
68.528471272979118
 21
118.90647749951189
 31
0.0
  0
LINE
  5
B6
  8
1
 10
91.471528727020925
 20
118.90647749951189
 30
0.0
 11
79.999999999999986
 21
135.2895183852917
 31
0.0
  0
LINE
  5
B7
  8
1
 10
80.0
 20
157.7895183852917
 30
0.0
 11
80.0
 21
112.7895183852917
 31
0.0
  0
LINE
  5
B8
  8
1
 10
102.5
 20
135.28951838529181
 30
0.0
 11
57.5
 21
135.2895183852917
 31
0.0
  0
LINE
  5
B9
  8
0
 10
93.944084767384325
 20
134.03951838529181
 30
0.0
 11
87.395099728874527
 21
134.0395183852917
 31
0.0
  0
LINE
  5
BA
  8
0
 10
93.944084767384325
 20
136.53951838529181
 30
0.0
 11
87.395099728874641
 21
136.53951838529181
 31
0.0
  0
LINE
  5
BB
  8
0
 10
74.73440499569034
 20
129.94877787010199
 30
0.0
 11
70.978061495585564
 21
124.58416338778871
 31
0.0
  0
LINE
  5
BC
  8
0
 10
76.782285106412914
 20
128.51483677922451
 30
0.0
 11
73.025941606307995
 21
123.150222296911
 31
0.0
  0
LINE
  5
BD
  8
0
 10
89.021938504414337
 20
124.58416338778881
 30
0.0
 11
85.26559500430966
 21
129.94877787010199
 31
0.0
  0
LINE
  5
BE
  8
0
 10
86.974058393692047
 20
123.1502222969109
 30
0.0
 11
83.217714893587271
 21
128.51483677922431
 31
0.0
  0
LINE
  5
BF
  8
0
 10
72.604900271125473
 20
134.0395183852917
 30
0.0
 11
66.055915232615718
 21
134.0395183852917
 31
0.0
  0
LINE
  5
C0
  8
0
 10
72.604900271125345
 20
136.53951838529181
 30
0.0
 11
66.055915232615718
 21
136.5395183852917
 31
0.0
  0
LINE
  5
C1
  8
2
 10
81.249999999999886
 20
149.7895183852917
 30
0.0
 11
78.749999999999886
 21
149.7895183852917
 31
0.0
  0
LINE
  5
C2
  8
2
 10
77.500000000000284
 20
151.7895183852917
 30
0.0
 11
78.361825820239204
 21
152.2870937546013
 31
0.0
  0
LINE
  5
C3
  8
2
 10
82.499999999999545
 20
141.18951838529171
 30
0.0
 11
77.500000000000284
 21
141.18951838529179
 31
0.0
  0
LINE
  5
C4
  8
2
 10
82.499999999999545
 20
151.7895183852917
 30
0.0
 11
81.638174179760739
 21
152.28709375460119
 31
0.0
  0
LINE
  5
C5
  8
2
 10
82.499999999999545
 20
151.7895183852917
 30
0.0
 11
77.500000000000284
 21
151.7895183852917
 31
0.0
  0
LINE
  5
C6
  8
2
 10
78.400000000000261
 20
140.2895183852917
 30
0.0
 11
77.500000000000284
 21
141.18951838529179
 31
0.0
  0
LINE
  5
C7
  8
2
 10
82.499999999999545
 20
141.18951838529171
 30
0.0
 11
81.599999999999525
 21
140.2895183852917
 31
0.0
  0
LINE
  5
C8
  8
2
 10
77.500000000000284
 20
141.18951838529179
 30
0.0
 11
77.50000000000027
 21
142.36058619715729
 31
0.0
  0
LINE
  5
C9
  8
2
 10
77.933000000000163
 20
140.75651838529191
 30
0.0
 11
77.933000000000135
 21
142.49906143599881
 31
0.0
  0
LINE
  5
CA
  8
2
 10
82.499999999999545
 20
141.18951838529171
 30
0.0
 11
82.499999999999545
 21
142.36058619715729
 31
0.0
  0
LINE
  5
CB
  8
2
 10
82.066999999999666
 20
140.75651838529191
 30
0.0
 11
82.066999999999666
 21
142.49906143599901
 31
0.0
  0
LINE
  5
CC
  8
2
 10
81.599999999999525
 20
140.2895183852917
 30
0.0
 11
78.400000000000261
 21
140.2895183852917
 31
0.0
  0
LINE
  5
CD
  8
2
 10
79.999999999999886
 20
149.7895183852917
 30
0.0
 11
79.999999999999886
 21
152.2895183852917
 31
0.0
  0
LINE
  5
CE
  8
2
 10
81.249999999999886
 20
149.7895183852917
 30
0.0
 11
81.249999999999886
 21
152.2895183852917
 31
0.0
  0
LINE
  5
CF
  8
2
 10
78.749999999999886
 20
149.7895183852917
 30
0.0
 11
78.749999999999886
 21
152.2895183852917
 31
0.0
  0
LINE
  5
D0
  8
2
 10
79.999999999999886
 20
148.9561850526369
 30
0.0
 11
81.249999999999886
 21
149.7895183852917
 31
0.0
  0
LINE
  5
D1
  8
2
 10
80.000000000000028
 20
148.95618505263701
 30
0.0
 11
78.749999999999886
 21
149.7895183852917
 31
0.0
  0
LINE
  5
D2
  8
0
 10
85.196152422706632
 20
148.2895183852917
 30
0.0
 11
74.803847577293197
 21
148.2895183852917
 31
0.0
  0
LINE
  5
D3
  8
0
 10
84.0
 20
145.2895183852917
 30
0.0
 11
76.0
 21
145.2895183852917
 31
0.0
  0
LINE
  5
D4
  8
0
 10
87.5
 20
147.1111088028286
 30
0.0
 11
87.5
 21
142.7895183852917
 31
0.0
  0
LINE
  5
D5
  8
0
 10
72.5
 20
147.1111088028286
 30
0.0
 11
72.499999999999986
 21
142.7895183852917
 31
0.0
  0
LINE
  5
D6
  8
0
 10
84.0
 20
148.2895183852917
 30
0.0
 11
84.0
 21
141.63380715551651
 31
0.0
  0
LINE
  5
D7
  8
0
 10
76.0
 20
148.2895183852917
 30
0.0
 11
76.0
 21
141.63380715551651
 31
0.0
  0
LINE
  5
D8
  8
0
 10
87.5
 20
142.7895183852917
 30
0.0
 11
84.0
 21
142.78951838529181
 31
0.0
  0
LINE
  5
D9
  8
0
 10
76.0
 20
142.78951838529181
 30
0.0
 11
72.5
 21
142.7895183852917
 31
0.0
  0
LINE
  5
DA
  8
2
 10
82.066999999999666
 20
145.2895183852917
 30
0.0
 11
82.066999999999666
 21
152.03951105185081
 31
0.0
  0
LINE
  5
DB
  8
2
 10
77.933000000000135
 20
145.2895183852917
 30
0.0
 11
77.933000000000106
 21
152.03951105185081
 31
0.0
  0
LINE
  5
DC
  8
2
 10
82.499999999999545
 20
145.2895183852917
 30
0.0
 11
82.499999999999545
 21
151.78951838529181
 31
0.0
  0
LINE
  5
DD
  8
2
 10
77.50000000000027
 20
145.2895183852917
 30
0.0
 11
77.500000000000284
 21
151.7895183852917
 31
0.0
  0
LINE
  5
DE
  8
0
 10
82.499999999999545
 20
142.36058619715729
 30
0.0
 11
82.499999999999545
 21
145.2895183852917
 31
0.0
  0
LINE
  5
DF
  8
3
 10
82.066999999999666
 20
142.49906143599901
 30
0.0
 11
82.066999999999666
 21
145.2895183852917
 31
0.0
  0
LINE
  5
E0
  8
3
 10
77.933000000000135
 20
142.49906143599881
 30
0.0
 11
77.933000000000135
 21
145.2895183852917
 31
0.0
  0
LINE
  5
E1
  8
0
 10
77.50000000000027
 20
142.3605861971572
 30
0.0
 11
77.50000000000027
 21
145.2895183852917
 31
0.0
  0
ARC
  5
E2
  8
0
 10
80.0
 20
135.2895183852917
 30
0.0
 40
17.0
 50
267.05401051631043
 51
268.1459894836903
  0
LINE
  5
E3
  8
0
 10
79.742721249070414
 20
117.79140969765589
 30
0.0
 11
79.450000000000017
 21
118.2984177735009
 31
0.0
  0
LINE
  5
E4
  8
0
 10
80.257278750929444
 20
117.79140969765569
 30
0.0
 11
80.549999999999898
 21
118.2984177735008
 31
0.0
  0
LINE
  5
E5
  8
0
 10
81.720580435513654
 20
117.87430655870379
 30
0.0
 11
81.969849727624165
 21
118.4040307686849
 31
0.0
  0
LINE
  5
E6
  8
0
 10
81.20782755923787
 20
117.8312494966779
 30
0.0
 11
80.873707582449839
 21
118.31198514101951
 31
0.0
  0
ARC
  5
E7
  8
0
 10
80.0
 20
135.2895183852917
 30
0.0
 40
17.0
 50
271.85401051631038
 51
272.9459894836902
  0
ARC
  5
E8
  8
0
 10
80.0
 20
135.2895183852917
 30
0.0
 40
17.5
 50
273.95762756265049
 51
275.6423724373501
  0
LINE
  5
E9
  8
0
 10
83.171813484578081
 20
118.0793586179028
 30
0.0
 11
83.375882374744236
 21
118.6280833272934
 31
0.0
  0
LINE
  5
EA
  8
0
 10
82.664461826900165
 20
117.9935465082046
 30
0.0
 11
82.291286733966786
 21
118.4446377059059
 31
0.0
  0
ARC
  5
EB
  8
0
 10
80.0
 20
135.2895183852917
 30
0.0
 40
17.0
 50
276.65401051631039
 51
277.74598948369021
  0
ARC
  5
EC
  8
0
 10
80.0
 20
135.2895183852917
 30
0.0
 40
17.5
 50
278.7576275626505
 51
280.44237243735012
  0
LINE
  5
ED
  8
0
 10
84.600798540993026
 20
118.40512758238739
 30
0.0
 11
84.758235632573616
 21
118.9690038816093
 31
0.0
  0
LINE
  5
EE
  8
0
 10
84.102406809259946
 20
118.27716233531039
 30
0.0
 11
83.692794155332223
 21
118.6954450057281
 31
0.0
  0
ARC
  5
EF
  8
0
 10
80.0
 20
135.2895183852917
 30
0.0
 40
17.0
 50
281.4540105163104
 51
282.54598948369022
  0
ARC
  5
F0
  8
0
 10
80.0
 20
135.2895183852917
 30
0.0
 40
17.5
 50
283.5576275626504
 51
285.24237243735013
  0
LINE
  5
F1
  8
0
 10
85.997512301312113
 20
118.8493284169364
 30
0.0
 11
86.107213286228102
 21
119.42440111889491
 31
0.0
  0
LINE
  5
F2
  8
0
 10
85.511576355427977
 20
118.680107616746
 30
0.0
 11
85.06839927896695
 21
119.06264780748261
 31
0.0
  0
ARC
  5
F3
  8
0
 10
80.0
 20
135.2895183852917
 30
0.0
 40
17.0
 50
286.25401051631042
 51
287.34598948369018
  0
ARC
  5
F4
  8
0
 10
80.0
 20
135.2895183852917
 30
0.0
 40
17.5
 50
288.35762756265052
 51
290.04237243735008
  0
LINE
  5
F5
  8
0
 10
87.352157822044106
 20
119.4088453718531
 30
0.0
 11
87.413353226706363
 21
119.9910807547333
 31
0.0
  0
LINE
  5
F6
  8
0
 10
86.882086153524824
 20
119.1995559808777
 30
0.0
 11
86.408453223299574
 21
119.5436704473501
 31
0.0
  0
ARC
  5
F7
  8
0
 10
80.0
 20
135.2895183852917
 30
0.0
 40
17.0
 50
291.05401051631043
 51
292.14598948369019
  0
ARC
  5
F8
  8
0
 10
80.0
 20
135.2895183852917
 30
0.0
 40
17.5
 50
293.15762756265042
 51
294.84237243735009
  0
LINE
  5
F9
  8
0
 10
88.655233238172599
 20
120.07975383771129
 30
0.0
 11
88.667493820786234
 21
120.6650679386378
 31
0.0
  0
LINE
  5
FA
  8
0
 10
88.204323062026788
 20
119.8318638706543
 30
0.0
 11
87.703556472738015
 21
120.1351388971261
 31
0.0
  0
ARC
  5
FB
  8
0
 10
80.0
 20
135.2895183852917
 30
0.0
 40
17.0
 50
295.85401051631038
 51
296.9459894836902
  0
ARC
  5
FC
  8
0
 10
80.0
 20
135.2895183852917
 30
0.0
 40
17.5
 50
297.95762756265037
 51
299.6423724373501
  0
LINE
  5
FD
  8
0
 10
89.897598411911801
 20
120.85734787366999
 30
0.0
 11
89.860838173298987
 21
121.4416351347724
 31
0.0
  0
LINE
  5
FE
  8
0
 10
89.469012539046616
 20
120.5725961005416
 30
0.0
 11
88.944624808517915
 21
120.8329044306049
 31
0.0
  0
ARC
  5
FF
  8
0
 10
79.999999999999986
 20
135.2895183852917
 30
0.0
 40
17.0
 50
300.65401051631039
 51
301.74598948369021
  0
ARC
  5
100
  8
0
 10
79.999999999999986
 20
135.2895183852917
 30
0.0
 40
17.5
 50
302.75762756265038
 51
304.44237243735012
  0
LINE
  5
101
  8
0
 10
91.0705390442061
 20
121.7361732162676
 30
0.0
 11
90.985015831028505
 21
122.3153352822191
 31
0.0
  0
LINE
  5
102
  8
0
 10
90.667283696581151
 20
121.4165569661624
 30
0.0
 11
90.122953027970127
 21
121.6320727239131
 31
0.0
  0
ARC
  5
103
  8
0
 10
79.999999999999986
 20
135.2895183852917
 30
0.0
 40
17.0
 50
305.4540105163104
 51
306.54598948369022
  0
ARC
  5
104
  8
0
 10
79.999999999999986
 20
135.2895183852917
 30
0.0
 40
17.5
 50
307.5576275626504
 51
309.24237243735013
  0
LINE
  5
105
  8
0
 10
92.165827799276599
 20
122.7100655371607
 30
0.0
 11
92.032141495426359
 21
123.2800400021961
 31
0.0
  0
LINE
  5
106
  8
0
 10
91.790731523416952
 20
122.3578266884294
 30
0.0
 11
91.230276005262823
 21
122.5270381856747
 31
0.0
  0
ARC
  5
107
  8
0
 10
80.0
 20
135.2895183852917
 30
0.0
 40
17.0
 50
310.25401051631042
 51
311.34598948369018
  0
ARC
  5
108
  8
0
 10
80.0
 20
135.2895183852917
 30
0.0
 40
17.5
 50
312.35762756265041
 51
314.04237243735008
  0
LINE
  5
109
  8
0
 10
93.175782013470396
 20
123.7721936814592
 30
0.0
 11
92.994870332315529
 21
124.32898258423219
 31
0.0
  0
LINE
  5
10A
  8
0
 10
92.831475840244849
 20
123.3898029365422
 30
0.0
 11
92.258826665320768
 21
123.5115232762072
 31
0.0
  0
ARC
  5
10B
  8
0
 10
79.999999999999986
 20
135.2895183852917
 30
0.0
 40
17.0
 50
315.05401051631043
 51
316.1459894836903
  0
ARC
  5
10C
  8
0
 10
79.999999999999986
 20
135.2895183852917
 30
0.0
 40
17.5
 50
317.15762756265042
 51
318.84237243734998
  0
LINE
  5
10D
  8
0
 10
94.093317583626018
 20
124.9151075833686
 30
0.0
 11
93.866449490624973
 21
125.4548054497786
 31
0.0
  0
LINE
  5
10E
  8
0
 10
93.782216573456139
 20
124.5052471385942
 30
0.0
 11
93.201390464276344
 21
124.57862253995209
 31
0.0
  0
ARC
  5
10F
  8
0
 10
80.0
 20
135.2895183852917
 30
0.0
 40
17.0
 50
319.85401051631038
 51
320.94598948369031
  0
ARC
  5
110
  8
0
 10
80.0
 20
135.2895183852917
 30
0.0
 40
17.5
 50
321.95762756265037
 51
323.6423724373501
  0
LINE
  5
111
  8
0
 10
94.911998656967228
 20
126.1307905230496
 30
0.0
 11
94.640765468787876
 21
126.6496117603361
 31
0.0
  0
LINE
  5
112
  8
0
 10
94.636284959913581
 20
125.6963352549536
 30
0.0
 11
94.051355994310967
 21
125.7208510422841
 31
0.0
  0
ARC
  5
113
  8
0
 10
80.0
 20
135.2895183852917
 30
0.0
 40
17.0
 50
324.65401051631039
 51
325.74598948369032
  0
ARC
  5
114
  8
0
 10
80.0
 20
135.2895183852917
 30
0.0
 40
17.5
 50
326.75762756265038
 51
328.44237243735012
  0
LINE
  5
115
  8
0
 10
95.626082773986042
 20
127.4107153581474
 30
0.0
 11
95.312386996562694
 21
127.9050208081034
 31
0.0
  0
LINE
  5
116
  8
0
 10
95.387690323533448
 20
126.9547126582797
 30
0.0
 11
94.802761357930805
 21
126.9301968709492
 31
0.0
  0
ARC
  5
117
  8
0
 10
80.0
 20
135.2895183852917
 30
0.0
 40
17.0
 50
329.4540105163104
 51
330.54598948369022
  0
ARC
  5
118
  8
0
 10
80.0
 20
135.2895183852917
 30
0.0
 40
17.5
 50
331.55762756265051
 51
333.24237243735001
  0
LINE
  5
119
  8
0
 10
96.230561147670329
 20
128.74590433556841
 30
0.0
 11
95.876603131491521
 21
129.21222680062041
 31
0.0
  0
LINE
  5
11A
  8
0
 10
96.031162095573976
 20
128.27155273523121
 30
0.0
 11
95.450335986394151
 21
128.1981773338733
 31
0.0
  0
ARC
  5
11B
  8
0
 10
79.999999999999986
 20
135.2895183852917
 30
0.0
 40
17.0
 50
334.25401051631042
 51
335.34598948369018
  0
ARC
  5
11C
  8
0
 10
79.999999999999986
 20
135.2895183852917
 30
0.0
 40
17.5
 50
336.35762756265052
 51
338.04237243735002
  0
LINE
  5
11D
  8
0
 10
96.721193796545805
 20
130.126992063968
 30
0.0
 11
96.329456302776549
 21
130.56206062707599
 31
0.0
  0
LINE
  5
11E
  8
0
 10
96.562186783888095
 20
129.6376187988165
 30
0.0
 11
95.989537608964056
 21
129.51589845915149
 31
0.0
  0
ARC
  5
11F
  8
0
 10
79.999999999999986
 20
135.2895183852917
 30
0.0
 40
17.0
 50
339.05401051631043
 51
340.14598948369019
  0
ARC
  5
120
  8
0
 10
79.999999999999986
 20
135.2895183852917
 30
0.0
 40
17.5
 50
341.15762756265042
 51
342.84237243734998
  0
LINE
  5
121
  8
0
 10
97.094539285099714
 20
131.54429120524171
 30
0.0
 11
96.667770070795768
 21
131.94505417303171
 31
0.0
  0
LINE
  5
122
  8
0
 10
96.977039631828063
 20
131.04332887711669
 30
0.0
 11
96.416584113673963
 21
130.87411737987139
 31
0.0
  0
ARC
  5
123
  8
0
 10
80.0
 20
135.2895183852917
 30
0.0
 40
17.0
 50
343.85401051631038
 51
344.9459894836902
  0
ARC
  5
124
  8
0
 10
80.0
 20
135.2895183852917
 30
0.0
 40
17.5
 50
345.95762756265037
 51
347.64237243734999
  0
LINE
  5
125
  8
0
 10
97.347978862978138
 20
132.9878604242414
 30
0.0
 11
96.889171407544637
 21
133.3515067324422
 31
0.0
  0
LINE
  5
126
  8
0
 10
97.272810744736915
 20
132.47882292393371
 30
0.0
 11
96.728480076125877
 21
132.2633071661831
 31
0.0
  0
ARC
  5
127
  8
0
 10
80.0
 20
135.2895183852917
 30
0.0
 40
17.0
 50
348.65401051631028
 51
349.74598948369021
  0
ARC
  5
128
  8
0
 10
80.0
 20
135.2895183852917
 30
0.0
 40
17.5
 50
350.75762756265038
 51
352.44237243735012
  0
LINE
  5
129
  8
0
 10
97.479734833638389
 20
134.44757412009889
 30
0.0
 11
96.992107341722473
 21
134.771553051138
 31
0.0
  0
LINE
  5
12A
  8
0
 10
97.447425500768801
 20
133.9340319799303
 30
0.0
 11
96.923037770240114
 21
133.67372364986699
 31
0.0
  0
ARC
  5
12B
  8
0
 10
80.0
 20
135.2895183852917
 30
0.0
 40
17.0
 50
353.45401051631029
 51
354.54598948369022
  0
ARC
  5
12C
  8
0
 10
80.0
 20
135.2895183852917
 30
0.0
 40
17.5
 50
355.5576275626504
 51
357.24237243735001
  0
LINE
  5
12D
  8
0
 10
97.488883023612829
 20
135.91319345004061
 30
0.0
 11
96.975855851710406
 21
136.19523252449531
 31
0.0
  0
LINE
  5
12E
  8
0
 10
97.499659102870723
 20
135.3987487991449
 30
0.0
 11
96.998892513581978
 21
135.0954737726731
 31
0.0
  0
ARC
  5
12F
  8
0
 10
80.0
 20
135.2895183852917
 30
0.0
 40
17.0
 50
358.25401051631042
 51
359.34598948369018
  0
ARC
  5
130
  8
0
 10
80.0
 20
135.2895183852917
 30
0.0
 40
17.5
 50
0.3576275626503724
 51
2.0423724373500098
  0
LINE
  5
131
  8
0
 10
97.375359264921727
 20
137.37443814751299
 30
0.0
 11
96.840530930034177
 21
137.6125590639208
 31
0.0
  0
LINE
  5
132
  8
0
 10
97.42914516985374
 20
136.8626994454882
 30
0.0
 11
96.955512239628462
 21
136.5185849790158
 31
0.0
  0
ARC
  5
133
  8
0
 10
80.0
 20
135.2895183852917
 30
0.0
 40
17.0
 50
3.0540105163103601
 51
4.1459894836901814
  0
ARC
  5
134
  8
0
 10
80.0
 20
135.2895183852917
 30
0.0
 40
17.5
 50
5.1576275626503776
 51
6.8423724373500159
  0
LINE
  5
135
  8
0
 10
97.139959845165606
 20
138.82105863086619
 30
0.0
 11
96.587081783788577
 21
139.0135911420881
 31
0.0
  0
LINE
  5
136
  8
0
 10
97.236378306293744
 20
138.31561535702329
 30
0.0
 11
96.793201229832718
 21
137.93307516628661
 31
0.0
  0
ARC
  5
137
  8
0
 10
79.999999999999986
 20
135.2895183852917
 30
0.0
 40
17.0
 50
7.8540105163103666
 51
8.9459894836901874
  0
ARC
  5
138
  8
0
 10
79.999999999999986
 20
135.2895183852917
 30
0.0
 40
17.5
 50
9.9576275626503854
 51
11.64237243734997
  0
LINE
  5
139
  8
0
 10
96.784335922139846
 20
140.24290789680489
 30
0.0
 11
96.217286176631504
 21
140.38850152560909
 31
0.0
  0
LINE
  5
13A
  8
0
 10
96.922710633235837
 20
139.74730537254939
 30
0.0
 11
96.513097979308142
 21
139.32902270213179
 31
0.0
  0
ARC
  5
13B
  8
0
 10
80.0
 20
135.2895183852917
 30
0.0
 40
17.0
 50
12.65401051631032
 51
13.74598948369014
  0
ARC
  5
13C
  8
0
 10
80.0
 20
135.2895183852917
 30
0.0
 40
17.5
 50
14.75762756265039
 51
16.442372437349981
  0
LINE
  5
13D
  8
0
 10
96.310981942148985
 20
141.63001269432581
 30
0.0
 11
95.733737959049407
 21
141.72764620601509
 31
0.0
  0
LINE
  5
13E
  8
0
 10
96.490342304036602
 20
141.1477272152753
 30
0.0
 11
96.117167211103236
 21
140.69663601757409
 31
0.0
  0
ARC
  5
13F
  8
0
 10
80.0
 20
135.2895183852917
 30
0.0
 40
17.0
 50
17.45401051631033
 51
18.54598948369015
  0
ARC
  5
140
  8
0
 10
80.0
 20
135.2895183852917
 30
0.0
 40
17.5
 50
19.55762756265035
 51
21.242372437349989
  0
LINE
  5
141
  8
0
 10
95.723218143258237
 20
142.9726434799077
 30
0.0
 11
95.139828874359665
 21
143.02163204554719
 31
0.0
  0
LINE
  5
142
  8
0
 10
95.942306071869126
 20
142.5070579321762
 30
0.0
 11
95.608186095081066
 21
142.0263222878346
 31
0.0
  0
ARC
  5
143
  8
0
 10
79.999999999999986
 20
135.2895183852917
 30
0.0
 40
17.0
 50
22.254010516310341
 51
23.345989483690161
  0
ARC
  5
144
  8
0
 10
79.999999999999986
 20
135.2895183852917
 30
0.0
 40
17.5
 50
24.357627562650361
 51
26.04237243735
  0
LINE
  5
145
  8
0
 10
95.025167266209223
 20
144.26138266326859
 30
0.0
 11
94.439724768068345
 21
144.26138266326859
 31
0.0
  0
LINE
  5
146
  8
0
 10
95.282446017138611
 20
143.8157627949507
 30
0.0
 11
94.989724768068186
 21
143.30875471910571
 31
0.0
  0
ARC
  5
147
  8
0
 10
80.0
 20
135.2895183852917
 30
0.0
 40
17.0
 50
27.054010516310349
 51
28.145989483690169
  0
ARC
  5
148
  8
0
 10
80.0
 20
135.2895183852917
 30
0.0
 40
17.5
 50
29.157627562650369
 51
30.842372437350001
  0
LINE
  5
149
  8
0
 10
94.221725636355572
 20
145.48719066499501
 30
0.0
 11
93.638336367456986
 21
145.43820209935549
 31
0.0
  0
LINE
  5
14A
  8
0
 10
94.515390584020196
 20
145.0646621792896
 30
0.0
 11
94.266121291909684
 21
144.53493796930849
 31
0.0
  0
ARC
  5
14B
  8
0
 10
80.0
 20
135.2895183852917
 30
0.0
 40
17.0
 50
31.85401051631036
 51
32.94598948369017
  0
ARC
  5
14C
  8
0
 10
80.0
 20
135.2895183852917
 30
0.0
 40
17.5
 50
33.95762756265038
 51
35.642372437349998
  0
LINE
  5
14D
  8
0
 10
93.318528819458606
 20
146.64146932269691
 30
0.0
 11
92.741284836359029
 21
146.54383581100751
 31
0.0
  0
LINE
  5
14E
  8
0
 10
93.646520115248578
 20
146.2449959533447
 30
0.0
 11
93.442451225082422
 21
145.69627124395419
 31
0.0
  0
ARC
  5
14F
  8
0
 10
79.999999999999972
 20
135.28951838529181
 30
0.0
 40
17.0
 50
36.654010516310358
 51
37.745989483690181
  0
ARC
  5
150
  8
0
 10
79.999999999999972
 20
135.28951838529181
 30
0.0
 40
17.5
 50
38.757627562650377
 51
40.442372437350009
  0
LINE
  5
151
  8
0
 10
92.321912092242911
 20
147.7161222009382
 30
0.0
 11
91.754862346734555
 21
147.57052857213409
 31
0.0
  0
LINE
  5
152
  8
0
 10
92.681929112879686
 20
147.3484849237598
 30
0.0
 11
92.524492021299096
 21
146.78460862453801
 31
0.0
  0
ARC
  5
153
  8
0
 10
79.999999999999972
 20
135.2895183852917
 30
0.0
 40
17.0
 50
41.454010516310362
 51
42.545989483690178
  0
ARC
  5
154
  8
0
 10
79.999999999999972
 20
135.2895183852917
 30
0.0
 40
17.5
 50
43.557627562650381
 51
45.242372437350021
  0
LINE
  5
155
  8
0
 10
91.238866004981759
 20
148.70361138191541
 30
0.0
 11
90.685987943604715
 21
148.5110788706935
 31
0.0
  0
LINE
  5
156
  8
0
 10
91.628383489737459
 20
148.36738890826291
 30
0.0
 11
91.51868250482147
 21
147.79231620630441
 31
0.0
  0
ARC
  5
157
  8
0
 10
79.999999999999986
 20
135.2895183852917
 30
0.0
 40
17.0
 50
46.254010516310373
 51
47.345989483690182
  0
ARC
  5
158
  8
0
 10
79.999999999999986
 20
135.2895183852917
 30
0.0
 40
17.5
 50
48.357627562650393
 51
50.042372437350018
  0
LINE
  5
159
  8
0
 10
90.076987347809734
 20
149.59701033853369
 30
0.0
 11
89.542159012922198
 21
149.358889422126
 31
0.0
  0
LINE
  5
15A
  8
0
 10
90.493273111396718
 20
149.29456102748441
 30
0.0
 11
90.432077706734475
 21
148.71232564460431
 31
0.0
  0
ARC
  5
15B
  8
0
 10
79.999999999999972
 20
135.2895183852917
 30
0.0
 40
17.0
 50
51.05401051631037
 51
52.145989483690201
  0
ARC
  5
15C
  8
0
 10
79.999999999999972
 20
135.2895183852917
 30
0.0
 40
17.5
 50
53.157627562650397
 51
54.842372437350029
  0
LINE
  5
15D
  8
0
 10
88.844425864698266
 20
150.39005251901889
 30
0.0
 11
88.331398692795844
 21
150.10801344456419
 31
0.0
  0
LINE
  5
15E
  8
0
 10
89.284559961585884
 20
150.12349783518019
 30
0.0
 11
89.272299378972235
 21
149.53818373425381
 31
0.0
  0
ARC
  5
15F
  8
0
 10
79.999999999999986
 20
135.2895183852917
 30
0.0
 40
17.0
 50
55.854010516310389
 51
56.945989483690198
  0
ARC
  5
160
  8
0
 10
79.999999999999986
 20
135.2895183852917
 30
0.0
 40
17.5
 50
57.957627562650401
 51
59.642372437350041
  0
LINE
  5
161
  8
0
 10
87.549827088857143
 20
151.0771753022747
 30
0.0
 11
87.062199596941227
 21
150.7531963712357
 31
0.0
  0
LINE
  5
162
  8
0
 10
88.010722294591602
 20
150.84838493523449
 30
0.0
 11
88.047482533204402
 21
150.26409767413219
 31
0.0
  0
ARC
  5
163
  8
0
 10
79.999999999999986
 20
135.2895183852917
 30
0.0
 40
17.0
 50
60.654010516310393
 51
61.745989483690209
  0
ARC
  5
164
  8
0
 10
79.999999999999986
 20
135.2895183852917
 30
0.0
 40
17.5
 50
62.757627562650413
 51
64.442372437350045
  0
LINE
  5
165
  8
0
 10
86.202271700530986
 20
151.65355901567381
 30
0.0
 11
85.743464245097456
 21
151.28991270747301
 31
0.0
  0
LINE
  5
166
  8
0
 10
86.680695166396845
 20
151.46413776547121
 30
0.0
 11
86.766218379574397
 21
150.8849756995198
 31
0.0
  0
ARC
  5
167
  8
0
 10
80.0
 20
135.2895183852917
 30
0.0
 40
17.0
 50
65.454010516310404
 51
66.545989483690221
  0
ARC
  5
168
  8
0
 10
80.0
 20
135.2895183852917
 30
0.0
 40
17.5
 50
67.557627562650424
 51
69.242372437350056
  0
LINE
  5
169
  8
0
 10
84.811211832551621
 20
152.11516074159769
 30
0.0
 11
84.384442618247704
 21
151.71439777380769
 31
0.0
  0
LINE
  5
16A
  8
0
 10
85.303807761682606
 20
151.96643726220401
 30
0.0
 11
85.437494065532832
 21
151.39646279716871
 31
0.0
  0
ARC
  5
16B
  8
0
 10
79.999999999999986
 20
135.28951838529181
 30
0.0
 40
17.0
 50
70.254010516310402
 51
71.345989483690232
  0
ARC
  5
16C
  8
0
 10
79.999999999999986
 20
135.28951838529181
 30
0.0
 40
17.5
 50
72.357627562650421
 51
74.042372437350068
  0
LINE
  5
16D
  8
0
 10
83.386404770417897
 20
152.4587426755995
 30
0.0
 11
82.994667276648642
 21
152.02367411249151
 31
0.0
  0
LINE
  5
16E
  8
0
 10
83.889717956300842
 20
152.35176015536479
 30
0.0
 11
84.070629637455681
 21
151.79497125259189
 31
0.0
  0
ARC
  5
16F
  8
0
 10
80.0
 20
135.2895183852917
 30
0.0
 40
17.0
 50
75.054010516310413
 51
76.145989483690229
  0
ARC
  5
170
  8
0
 10
80.0
 20
135.2895183852917
 30
0.0
 40
17.5
 50
77.157627562650433
 51
78.842372437350065
  0
LINE
  5
171
  8
0
 10
81.937844511948128
 20
152.68189483727531
 30
0.0
 11
81.583886495769335
 21
152.21557237222331
 31
0.0
  0
LINE
  5
172
  8
0
 10
82.448344574214104
 20
152.6174036817124
 30
0.0
 11
82.675212667215121
 21
152.07770581530249
 31
0.0
  0
ARC
  5
173
  8
0
 10
80.0
 20
135.2895183852917
 30
0.0
 40
17.0
 50
79.854010516310424
 51
80.945989483690227
  0
ARC
  5
174
  8
0
 10
80.0
 20
135.2895183852917
 30
0.0
 40
17.5
 50
81.957627562650444
 51
83.642372437350076
  0
LINE
  5
175
  8
0
 10
80.475691666566377
 20
152.7830519745458
 30
0.0
 11
80.161995889143057
 21
152.28874652458981
 31
0.0
  0
LINE
  5
176
  8
0
 10
80.989797814072347
 20
152.76150454277411
 30
0.0
 11
81.26103100225167
 21
152.24268330548759
 31
0.0
  0
ARC
  5
177
  8
0
 10
79.999999999999986
 20
135.2895183852917
 30
0.0
 40
17.0
 50
84.654010516310422
 51
85.745989483690252
  0
ARC
  5
178
  8
0
 10
79.999999999999986
 20
135.2895183852917
 30
0.0
 40
17.5
 50
86.757627562650441
 51
88.442372437350073
  0
LINE
  5
179
  8
0
 10
79.01020218592771
 20
152.7615045427743
 30
0.0
 11
78.738968997748373
 21
152.2426833054877
 31
0.0
  0
LINE
  5
17A
  8
0
 10
79.524308333433694
 20
152.78305197454571
 30
0.0
 11
79.838004110856986
 21
152.2887465245897
 31
0.0
  0
ARC
  5
17B
  8
0
 10
80.0
 20
135.28951838529181
 30
0.0
 40
17.0
 50
89.454010516310419
 51
90.545989483690235
  0
ARC
  5
17C
  8
0
 10
80.0
 20
135.28951838529181
 30
0.0
 40
17.5
 50
91.557627562650467
 51
93.242372437350085
  0
LINE
  5
17D
  8
0
 10
77.551655425785981
 20
152.6174036817126
 30
0.0
 11
77.324787332784922
 21
152.07770581530261
 31
0.0
  0
LINE
  5
17E
  8
0
 10
78.062155488051985
 20
152.68189483727519
 30
0.0
 11
78.416113504230736
 21
152.21557237222319
 31
0.0
  0
ARC
  5
17F
  8
0
 10
80.0
 20
135.2895183852917
 30
0.0
 40
17.0
 50
94.254010516310444
 51
95.345989483690261
  0
ARC
  5
180
  8
0
 10
80.0
 20
135.2895183852917
 30
0.0
 40
17.5
 50
96.357627562650464
 51
98.042372437350096
  0
LINE
  5
181
  8
0
 10
76.110282043699215
 20
152.35176015536501
 30
0.0
 11
75.929370362544361
 21
151.79497125259201
 31
0.0
  0
LINE
  5
182
  8
0
 10
76.613595229582216
 20
152.4587426755993
 30
0.0
 11
77.005332723351444
 21
152.02367411249139
 31
0.0
  0
ARC
  5
183
  8
0
 10
80.0
 20
135.2895183852917
 30
0.0
 40
17.0
 50
99.054010516310498
 51
100.1459894836903
  0
ARC
  5
184
  8
0
 10
80.0
 20
135.2895183852917
 30
0.0
 40
17.5
 50
101.1576275626505
 51
102.84237243735009
  0
LINE
  5
185
  8
0
 10
74.696192238317408
 20
151.96643726220421
 30
0.0
 11
74.562505934467197
 21
151.39646279716879
 31
0.0
  0
LINE
  5
186
  8
0
 10
75.188788167448493
 20
152.11516074159761
 30
0.0
 11
75.615557381752382
 21
151.7143977738076
 31
0.0
  0
ARC
  5
187
  8
0
 10
80.0
 20
135.2895183852917
 30
0.0
 40
17.0
 50
103.8540105163104
 51
104.9459894836902
  0
ARC
  5
188
  8
0
 10
80.0
 20
135.2895183852917
 30
0.0
 40
17.5
 50
105.9576275626504
 51
107.6423724373501
  0
LINE
  5
189
  8
0
 10
73.319304833603184
 20
151.46413776547141
 30
0.0
 11
73.233781620425617
 21
150.88497569951991
 31
0.0
  0
LINE
  5
18A
  8
0
 10
73.797728299469156
 20
151.65355901567369
 30
0.0
 11
74.256535754902629
 21
151.28991270747289
 31
0.0
  0
ARC
  5
18B
  8
0
 10
79.999999999999986
 20
135.2895183852917
 30
0.0
 40
17.0
 50
108.65401051631051
 51
109.74598948369029
  0
ARC
  5
18C
  8
0
 10
79.999999999999986
 20
135.2895183852917
 30
0.0
 40
17.5
 50
110.7576275626505
 51
112.4423724373501
  0
LINE
  5
18D
  8
0
 10
71.989277705408384
 20
150.8483849352348
 30
0.0
 11
71.952517466795584
 21
150.2640976741323
 31
0.0
  0
LINE
  5
18E
  8
0
 10
72.450172911142985
 20
151.07717530227461
 30
0.0
 11
72.937800403058873
 21
150.75319637123559
 31
0.0
  0
ARC
  5
18F
  8
0
 10
80.0
 20
135.2895183852917
 30
0.0
 40
17.0
 50
113.4540105163104
 51
114.54598948369021
  0
ARC
  5
190
  8
0
 10
80.0
 20
135.2895183852917
 30
0.0
 40
17.5
 50
115.5576275626504
 51
117.2423724373501
  0
LINE
  5
191
  8
0
 10
70.715440038414116
 20
150.12349783518039
 30
0.0
 11
70.727700621027736
 21
149.53818373425389
 31
0.0
  0
LINE
  5
192
  8
0
 10
71.155574135301862
 20
150.39005251901881
 30
0.0
 11
71.668601307204256
 21
150.10801344456419
 31
0.0
  0
ARC
  5
193
  8
0
 10
80.0
 20
135.28951838529181
 30
0.0
 40
17.0
 50
118.2540105163105
 51
119.3459894836903
  0
ARC
  5
194
  8
0
 10
80.0
 20
135.28951838529181
 30
0.0
 40
17.5
 50
120.35762756265051
 51
122.0423724373501
  0
LINE
  5
195
  8
0
 10
69.506726888603239
 20
149.2945610274846
 30
0.0
 11
69.567922293265497
 21
148.71232564460439
 31
0.0
  0
LINE
  5
196
  8
0
 10
69.923012652190394
 20
149.59701033853361
 30
0.0
 11
70.457840987077901
 21
149.35888942212591
 31
0.0
  0
ARC
  5
197
  8
0
 10
80.0
 20
135.2895183852917
 30
0.0
 40
17.0
 50
123.0540105163104
 51
124.1459894836902
  0
ARC
  5
198
  8
0
 10
80.0
 20
135.2895183852917
 30
0.0
 40
17.5
 50
125.1576275626504
 51
126.84237243735009
  0
LINE
  5
199
  8
0
 10
68.371616510262484
 20
148.36738890826311
 30
0.0
 11
68.481317495178473
 21
147.7923162063046
 31
0.0
  0
LINE
  5
19A
  8
0
 10
68.761133995018383
 20
148.70361138191529
 30
0.0
 11
69.314012056395384
 21
148.5110788706935
 31
0.0
  0
ARC
  5
19B
  8
0
 10
79.999999999999986
 20
135.28951838529181
 30
0.0
 40
17.0
 50
127.8540105163105
 51
128.94598948369031
  0
ARC
  5
19C
  8
0
 10
79.999999999999986
 20
135.28951838529181
 30
0.0
 40
17.5
 50
129.95762756265049
 51
131.6423724373501
  0
LINE
  5
19D
  8
0
 10
67.318070887120228
 20
147.34848492375991
 30
0.0
 11
67.475507978700833
 21
146.78460862453809
 31
0.0
  0
LINE
  5
19E
  8
0
 10
67.678087907757231
 20
147.7161222009382
 30
0.0
 11
68.24513765326553
 21
147.57052857213401
 31
0.0
  0
ARC
  5
19F
  8
0
 10
80.0
 20
135.28951838529181
 30
0.0
 40
17.0
 50
132.65401051631039
 51
133.74598948369021
  0
ARC
  5
1A0
  8
0
 10
80.0
 20
135.28951838529181
 30
0.0
 40
17.5
 50
134.75762756265041
 51
136.44237243735009
  0
LINE
  5
1A1
  8
0
 10
66.353479884751337
 20
146.2449959533449
 30
0.0
 11
66.557548774917507
 21
145.6962712439543
 31
0.0
  0
LINE
  5
1A2
  8
0
 10
66.68147118054155
 20
146.64146932269679
 30
0.0
 11
67.258715163641071
 21
146.54383581100751
 31
0.0
  0
ARC
  5
1A3
  8
0
 10
80.0
 20
135.28951838529181
 30
0.0
 40
17.0
 50
137.4540105163104
 51
138.54598948369019
  0
ARC
  5
1A4
  8
0
 10
80.0
 20
135.28951838529181
 30
0.0
 40
17.5
 50
139.55762756265051
 51
141.2423724373501
  0
LINE
  5
1A5
  8
0
 10
65.484609415979733
 20
145.0646621792898
 30
0.0
 11
65.733878708090259
 21
144.5349379693086
 31
0.0
  0
LINE
  5
1A6
  8
0
 10
65.778274363644613
 20
145.48719066499501
 30
0.0
 11
66.361663632543156
 21
145.43820209935549
 31
0.0
  0
ARC
  5
1A7
  8
0
 10
80.0
 20
135.2895183852917
 30
0.0
 40
17.0
 50
142.25401051631039
 51
143.3459894836902
  0
ARC
  5
1A8
  8
0
 10
80.0
 20
135.2895183852917
 30
0.0
 40
17.5
 50
144.35762756265041
 51
146.04237243735011
  0
LINE
  5
1A9
  8
0
 10
64.71755398286129
 20
143.8157627949509
 30
0.0
 11
65.010275231931715
 21
143.30875471910591
 31
0.0
  0
LINE
  5
1AA
  8
0
 10
64.974832733790933
 20
144.26138266326859
 30
0.0
 11
65.560275231931769
 21
144.26138266326859
 31
0.0
  0
ARC
  5
1AB
  8
0
 10
80.0
 20
135.2895183852917
 30
0.0
 40
17.0
 50
147.0540105163104
 51
148.14598948369019
  0
ARC
  5
1AC
  8
0
 10
80.0
 20
135.2895183852917
 30
0.0
 40
17.5
 50
149.1576275626505
 51
150.84237243735009
  0
LINE
  5
1AD
  8
0
 10
64.05769392813076
 20
142.50705793217639
 30
0.0
 11
64.391813904918834
 21
142.02632228783469
 31
0.0
  0
LINE
  5
1AE
  8
0
 10
64.276781856741934
 20
142.9726434799077
 30
0.0
 11
64.860171125640463
 21
143.02163204554719
 31
0.0
  0
ARC
  5
1AF
  8
0
 10
80.0
 20
135.2895183852917
 30
0.0
 40
17.0
 50
151.85401051631041
 51
152.94598948369031
  0
ARC
  5
1B0
  8
0
 10
80.0
 20
135.2895183852917
 30
0.0
 40
17.5
 50
153.95762756265049
 51
155.64237243735019
  0
LINE
  5
1B1
  8
0
 10
63.509657695963277
 20
141.14772721527549
 30
0.0
 11
63.882832788896692
 21
140.69663601757421
 31
0.0
  0
LINE
  5
1B2
  8
0
 10
63.689018057851229
 20
141.63001269432581
 30
0.0
 11
64.26626204095075
 21
141.72764620601509
 31
0.0
  0
ARC
  5
1B3
  8
0
 10
80.0
 20
135.2895183852917
 30
0.0
 40
17.0
 50
156.65401051631039
 51
157.74598948369029
  0
ARC
  5
1B4
  8
0
 10
80.0
 20
135.2895183852917
 30
0.0
 40
17.5
 50
158.75762756265061
 51
160.4423724373502
  0
LINE
  5
1B5
  8
0
 10
63.07728936676402
 20
139.7473053725495
 30
0.0
 11
63.486902020691772
 21
139.32902270213179
 31
0.0
  0
LINE
  5
1B6
  8
0
 10
63.215664077860339
 20
140.24290789680501
 30
0.0
 11
63.782713823368638
 21
140.38850152560909
 31
0.0
  0
ARC
  5
1B7
  8
0
 10
80.0
 20
135.2895183852917
 30
0.0
 40
17.0
 50
161.4540105163104
 51
162.54598948369031
  0
ARC
  5
1B8
  8
0
 10
80.0
 20
135.2895183852917
 30
0.0
 40
17.5
 50
163.55762756265051
 51
165.24237243735021
  0
LINE
  5
1B9
  8
0
 10
62.763621693706099
 20
138.3156153570234
 30
0.0
 11
63.206798770167168
 21
137.9330751662867
 31
0.0
  0
LINE
  5
1BA
  8
0
 10
62.860040154834529
 20
138.8210586308663
 30
0.0
 11
63.412918216211551
 21
139.0135911420881
 31
0.0
  0
ARC
  5
1BB
  8
0
 10
80.0
 20
135.2895183852917
 30
0.0
 40
17.0
 50
166.25401051631039
 51
167.34598948369029
  0
ARC
  5
1BC
  8
0
 10
80.0
 20
135.2895183852917
 30
0.0
 40
17.5
 50
168.35762756265061
 51
170.0423724373502
  0
LINE
  5
1BD
  8
0
 10
62.570854830146097
 20
136.86269944548829
 30
0.0
 11
63.04448776037141
 21
136.51858497901591
 31
0.0
  0
LINE
  5
1BE
  8
0
 10
62.624640735078422
 20
137.3744381475131
 30
0.0
 11
63.159469069965922
 21
137.6125590639208
 31
0.0
  0
ARC
  5
1BF
  8
0
 10
80.0
 20
135.2895183852917
 30
0.0
 40
17.0
 50
171.05401051631051
 51
172.1459894836903
  0
ARC
  5
1C0
  8
0
 10
80.0
 20
135.2895183852917
 30
0.0
 40
17.5
 50
173.1576275626505
 51
174.84237243735021
  0
LINE
  5
1C1
  8
0
 10
62.500340897129107
 20
135.39874879914501
 30
0.0
 11
63.001107486417908
 21
135.0954737726731
 31
0.0
  0
LINE
  5
1C2
  8
0
 10
62.511116976387328
 20
135.91319345004069
 30
0.0
 11
63.0241441482897
 21
136.19523252449531
 31
0.0
  0
ARC
  5
1C3
  8
0
 10
80.0
 20
135.2895183852917
 30
0.0
 40
17.0
 50
175.8540105163105
 51
176.94598948369031
  0
ARC
  5
1C4
  8
0
 10
80.0
 20
135.2895183852917
 30
0.0
 40
17.5
 50
177.9576275626506
 51
179.64237243735019
  0
LINE
  5
1C5
  8
0
 10
62.552574499231028
 20
133.93403197993041
 30
0.0
 11
63.076962229759772
 21
133.6737236498671
 31
0.0
  0
LINE
  5
1C6
  8
0
 10
62.520265166361753
 20
134.44757412009901
 30
0.0
 11
63.00789265827764
 21
134.77155305113811
 31
0.0
  0
ARC
  5
1C7
  8
0
 10
80.0
 20
135.2895183852917
 30
0.0
 40
17.0
 50
180.65401051631051
 51
181.74598948369029
  0
ARC
  5
1C8
  8
0
 10
80.0
 20
135.2895183852917
 30
0.0
 40
17.5
 50
182.7576275626505
 51
184.4423724373502
  0
LINE
  5
1C9
  8
0
 10
62.727189255262907
 20
132.47882292393379
 30
0.0
 11
63.271519923873988
 21
132.2633071661831
 31
0.0
  0
LINE
  5
1CA
  8
0
 10
62.652021137021997
 20
132.98786042424149
 30
0.0
 11
63.110828592455483
 21
133.35150673244229
 31
0.0
  0
ARC
  5
1CB
  8
0
 10
79.999999999999986
 20
135.2895183852917
 30
0.0
 40
17.0
 50
185.45401051631049
 51
186.54598948369031
  0
ARC
  5
1CC
  8
0
 10
79.999999999999986
 20
135.2895183852917
 30
0.0
 40
17.5
 50
187.55762756265059
 51
189.24237243735021
  0
LINE
  5
1CD
  8
0
 10
63.022960368171752
 20
131.04332887711669
 30
0.0
 11
63.583415886325902
 21
130.87411737987139
 31
0.0
  0
LINE
  5
1CE
  8
0
 10
62.905460714900428
 20
131.54429120524179
 30
0.0
 11
63.332229929204331
 21
131.94505417303179
 31
0.0
  0
ARC
  5
1CF
  8
0
 10
80.0
 20
135.2895183852917
 30
0.0
 40
17.0
 50
190.2540105163105
 51
191.34598948369029
  0
ARC
  5
1D0
  8
0
 10
80.0
 20
135.2895183852917
 30
0.0
 40
17.5
 50
192.35762756265061
 51
194.0423724373502
  0
LINE
  5
1D1
  8
0
 10
63.437813216111707
 20
129.6376187988165
 30
0.0
 11
64.01046239103583
 21
129.51589845915149
 31
0.0
  0
LINE
  5
1D2
  8
0
 10
63.278806203454288
 20
130.12699206396809
 30
0.0
 11
63.670543697223522
 21
130.56206062707611
 31
0.0
  0
ARC
  5
1D3
  8
0
 10
80.0
 20
135.2895183852917
 30
0.0
 40
17.0
 50
195.05401051631051
 51
196.1459894836903
  0
ARC
  5
1D4
  8
0
 10
80.0
 20
135.2895183852917
 30
0.0
 40
17.5
 50
197.15762756265059
 51
198.84237243735021
  0
LINE
  5
1D5
  8
0
 10
63.968837904425847
 20
128.27155273523121
 30
0.0
 11
64.549664013605707
 21
128.1981773338733
 31
0.0
  0
LINE
  5
1D6
  8
0
 10
63.76943885232977
 20
128.7459043355685
 30
0.0
 11
64.123396868508536
 21
129.2122268006205
 31
0.0
  0
ARC
  5
1D7
  8
0
 10
79.999999999999986
 20
135.2895183852917
 30
0.0
 40
17.0
 50
199.8540105163105
 51
200.9459894836904
  0
ARC
  5
1D8
  8
0
 10
79.999999999999986
 20
135.2895183852917
 30
0.0
 40
17.5
 50
201.9576275626506
 51
203.6423724373503
  0
LINE
  5
1D9
  8
0
 10
64.612309676466381
 20
126.9547126582797
 30
0.0
 11
65.197238642069053
 21
126.9301968709492
 31
0.0
  0
LINE
  5
1DA
  8
0
 10
64.373917226014058
 20
127.4107153581475
 30
0.0
 11
64.687613003437363
 21
127.9050208081035
 31
0.0
  0
ARC
  5
1DB
  8
0
 10
79.999999999999986
 20
135.2895183852917
 30
0.0
 40
17.0
 50
204.65401051631059
 51
205.74598948369041
  0
ARC
  5
1DC
  8
0
 10
79.999999999999986
 20
135.2895183852917
 30
0.0
 40
17.5
 50
206.75762756265061
 51
208.44237243735029
  0
LINE
  5
1DD
  8
0
 10
65.363715040086234
 20
125.6963352549535
 30
0.0
 11
65.948644005688919
 21
125.720851042284
 31
0.0
  0
LINE
  5
1DE
  8
0
 10
65.088001343032872
 20
126.1307905230497
 30
0.0
 11
65.359234531212181
 21
126.6496117603362
 31
0.0
  0
ARC
  5
1DF
  8
0
 10
79.999999999999986
 20
135.2895183852917
 30
0.0
 40
17.0
 50
209.4540105163106
 51
210.54598948369039
  0
ARC
  5
1E0
  8
0
 10
79.999999999999986
 20
135.2895183852917
 30
0.0
 40
17.5
 50
211.55762756265059
 51
213.2423724373503
  0
LINE
  5
1E1
  8
0
 10
66.21778342654369
 20
124.5052471385941
 30
0.0
 11
66.798609535723529
 21
124.57862253995209
 31
0.0
  0
LINE
  5
1E2
  8
0
 10
65.906682416374053
 20
124.91510758336869
 30
0.0
 11
66.133550509375084
 21
125.4548054497787
 31
0.0
  0
ARC
  5
1E3
  8
0
 10
80.0
 20
135.2895183852917
 30
0.0
 40
17.0
 50
214.25401051631059
 51
215.3459894836904
  0
ARC
  5
1E4
  8
0
 10
80.0
 20
135.2895183852917
 30
0.0
 40
17.5
 50
216.35762756265061
 51
218.04237243735031
  0
LINE
  5
1E5
  8
0
 10
67.16852415975498
 20
123.3898029365421
 30
0.0
 11
67.74117333467909
 21
123.5115232762072
 31
0.0
  0
LINE
  5
1E6
  8
0
 10
66.824217986529661
 20
123.7721936814593
 30
0.0
 11
67.005129667684514
 21
124.32898258423231
 31
0.0
  0
ARC
  5
1E7
  8
0
 10
80.0
 20
135.2895183852917
 30
0.0
 40
17.0
 50
219.0540105163106
 51
220.14598948369041
  0
ARC
  5
1E8
  8
0
 10
80.0
 20
135.2895183852917
 30
0.0
 40
17.5
 50
221.15762756265059
 51
222.84237243735029
  0
LINE
  5
1E9
  8
0
 10
68.209268476582906
 20
122.3578266884293
 30
0.0
 11
68.769723994737049
 21
122.5270381856746
 31
0.0
  0
LINE
  5
1EA
  8
0
 10
67.834172200723458
 20
122.7100655371609
 30
0.0
 11
67.96785850457367
 21
123.2800400021962
 31
0.0
  0
ARC
  5
1EB
  8
0
 10
80.0
 20
135.2895183852917
 30
0.0
 40
17.0
 50
223.85401051631061
 51
224.9459894836904
  0
ARC
  5
1EC
  8
0
 10
80.0
 20
135.2895183852917
 30
0.0
 40
17.5
 50
225.9576275626506
 51
227.6423724373503
  0
LINE
  5
1ED
  8
0
 10
69.332716303418692
 20
121.4165569661623
 30
0.0
 11
69.87704697202976
 21
121.632072723913
 31
0.0
  0
LINE
  5
1EE
  8
0
 10
68.929460955793942
 20
121.7361732162677
 30
0.0
 11
69.014984168971509
 21
122.31533528221919
 31
0.0
  0
ARC
  5
1EF
  8
0
 10
79.999999999999986
 20
135.2895183852917
 30
0.0
 40
17.0
 50
228.65401051631059
 51
229.74598948369041
  0
ARC
  5
1F0
  8
0
 10
79.999999999999986
 20
135.2895183852917
 30
0.0
 40
17.5
 50
230.7576275626507
 51
232.44237243735029
  0
LINE
  5
1F1
  8
0
 10
70.530987460953241
 20
120.5725961005415
 30
0.0
 11
71.055375191481971
 21
120.8329044306049
 31
0.0
  0
LINE
  5
1F2
  8
0
 10
70.102401588088227
 20
120.85734787367019
 30
0.0
 11
70.139161826701027
 21
121.4416351347725
 31
0.0
  0
ARC
  5
1F3
  8
0
 10
79.999999999999986
 20
135.2895183852917
 30
0.0
 40
17.0
 50
233.4540105163106
 51
234.54598948369039
  0
ARC
  5
1F4
  8
0
 10
79.999999999999986
 20
135.2895183852917
 30
0.0
 40
17.5
 50
235.55762756265071
 51
237.2423724373503
  0
LINE
  5
1F5
  8
0
 10
71.79567693797307
 20
119.8318638706542
 30
0.0
 11
72.296443527261872
 21
120.135138897126
 31
0.0
  0
LINE
  5
1F6
  8
0
 10
71.344766761827415
 20
120.07975383771149
 30
0.0
 11
71.33250617921378
 21
120.6650679386379
 31
0.0
  0
ARC
  5
1F7
  8
0
 10
79.999999999999986
 20
135.2895183852917
 30
0.0
 40
17.0
 50
238.25401051631059
 51
239.34598948369049
  0
ARC
  5
1F8
  8
0
 10
79.999999999999986
 20
135.2895183852917
 30
0.0
 40
17.5
 50
240.35762756265069
 51
242.04237243735031
  0
LINE
  5
1F9
  8
0
 10
73.117913846475048
 20
119.19955598087751
 30
0.0
 11
73.591546776700355
 21
119.54367044735
 31
0.0
  0
LINE
  5
1FA
  8
0
 10
72.647842177955894
 20
119.4088453718533
 30
0.0
 11
72.586646773293651
 21
119.9910807547334
 31
0.0
  0
ARC
  5
1FB
  8
0
 10
80.0
 20
135.2895183852917
 30
0.0
 40
17.0
 50
243.0540105163106
 51
244.1459894836905
  0
ARC
  5
1FC
  8
0
 10
80.0
 20
135.2895183852917
 30
0.0
 40
17.5
 50
245.1576275626507
 51
246.84237243735029
  0
LINE
  5
1FD
  8
0
 10
74.488423644571924
 20
118.6801076167458
 30
0.0
 11
74.931600721032979
 21
119.06264780748251
 31
0.0
  0
LINE
  5
1FE
  8
0
 10
74.002487698687887
 20
118.8493284169365
 30
0.0
 11
73.892786713771912
 21
119.42440111889501
 31
0.0
  0
ARC
  5
1FF
  8
0
 10
80.0
 20
135.2895183852917
 30
0.0
 40
17.0
 50
247.85401051631061
 51
248.9459894836904
  0
ARC
  5
200
  8
0
 10
80.0
 20
135.2895183852917
 30
0.0
 40
17.5
 50
249.95762756265071
 51
251.6423724373503
  0
LINE
  5
201
  8
0
 10
75.897593190739983
 20
118.27716233531029
 30
0.0
 11
76.30720584466772
 21
118.6954450057279
 31
0.0
  0
LINE
  5
202
  8
0
 10
75.39920145900696
 20
118.40512758238761
 30
0.0
 11
75.24176436742637
 21
118.9690038816094
 31
0.0
  0
ARC
  5
203
  8
0
 10
80.0
 20
135.2895183852917
 30
0.0
 40
17.0
 50
252.65401051631059
 51
253.74598948369041
  0
ARC
  5
204
  8
0
 10
80.0
 20
135.2895183852917
 30
0.0
 40
17.5
 50
254.7576275626507
 51
256.44237243735029
  0
LINE
  5
205
  8
0
 10
77.335538173099764
 20
117.9935465082045
 30
0.0
 11
77.708713266033158
 21
118.44463770590581
 31
0.0
  0
LINE
  5
206
  8
0
 10
76.828186515421891
 20
118.079358617903
 30
0.0
 11
76.624117625255735
 21
118.6280833272935
 31
0.0
  0
ARC
  5
207
  8
0
 10
79.999999999999986
 20
135.2895183852917
 30
0.0
 40
17.0
 50
257.45401051631057
 51
258.54598948369051
  0
ARC
  5
208
  8
0
 10
79.999999999999986
 20
135.2895183852917
 30
0.0
 40
17.5
 50
259.55762756265068
 51
261.24237243735041
  0
LINE
  5
209
  8
0
 10
78.792172440762073
 20
117.8312494966777
 30
0.0
 11
79.126292417550133
 21
118.31198514101941
 31
0.0
  0
LINE
  5
20A
  8
0
 10
78.279419564486318
 20
117.87430655870391
 30
0.0
 11
78.03015027237582
 21
118.404030768685
 31
0.0
  0
ARC
  5
20B
  8
0
 10
80.0
 20
135.2895183852917
 30
0.0
 40
17.0
 50
262.25401051631059
 51
263.34598948369052
  0
ARC
  5
20C
  8
0
 10
80.0
 20
135.2895183852917
 30
0.0
 40
17.5
 50
264.35762756265069
 51
266.04237243735042
  0
LINE
  5
20D
  8
2
 10
78.763453785765762
 20
152.28951838529181
 30
0.0
 11
79.837514273160494
 21
152.28951838529181
 31
0.0
  0
LINE
  5
20E
  8
0
 10
78.366025403784704
 20
152.2895183852917
 30
0.0
 11
78.361825820239204
 21
152.2870937546013
 31
0.0
  0
LINE
  5
20F
  8
0
 10
81.633974596215126
 20
152.2895183852917
 30
0.0
 11
81.638174179760739
 21
152.28709375460119
 31
0.0
  0
LINE
  5
210
  8
2
 10
80.16248572683952
 20
152.2895183852917
 30
0.0
 11
81.23654621423421
 21
152.2895183852917
 31
0.0
  0
LINE
  5
211
  8
0
 10
79.837514273160494
 20
152.28951838529181
 30
0.0
 11
80.16248572683952
 21
152.2895183852917
 31
0.0
  0
LINE
  5
212
  8
0
 10
78.763453785765776
 20
152.28951838529181
 30
0.0
 11
78.366025403784704
 21
152.2895183852917
 31
0.0
  0
LINE
  5
213
  8
0
 10
81.23654621423421
 20
152.2895183852917
 30
0.0
 11
81.633974596215126
 21
152.2895183852917
 31
0.0
  0
LINE
  5
214
  8
2
 10
77.299999999999983
 20
152.07373716365609
 30
0.0
 11
77.299999999999983
 21
149.02669422314131
 31
0.0
  0
LINE
  5
215
  8
2
 10
82.700000000000017
 20
152.07373716365609
 30
0.0
 11
82.700000000000017
 21
149.02669422314131
 31
0.0
  0
LINE
  5
216
  8
2
 10
77.299999999999983
 20
142.28666065910599
 30
0.0
 11
77.299999999999983
 21
139.4978434677918
 31
0.0
  0
LINE
  5
217
  8
2
 10
82.700000000000017
 20
142.28666065910599
 30
0.0
 11
82.700000000000017
 21
139.4978434677918
 31
0.0
  0
LINE
  5
218
  8
0
 10
175.0
 20
72.789518385291785
 30
0.0
 11
175.0
 21
37.789518385291771
 31
0.0
  0
LINE
  5
219
  8
0
 10
205.5
 20
39.989518385291781
 30
0.0
 11
203.30000000000001
 21
37.789518385291771
 31
0.0
  0
LINE
  5
21A
  8
0
 10
205.5
 20
70.589518385291768
 30
0.0
 11
203.30000000000001
 21
72.789518385291785
 31
0.0
  0
LINE
  5
21B
  8
0
 10
160.0
 20
71.789518385291785
 30
0.0
 11
175.0
 21
71.789518385291785
 31
0.0
  0
LINE
  5
21C
  8
0
 10
160.0
 20
38.789518385291771
 30
0.0
 11
175.0
 21
38.789518385291771
 31
0.0
  0
LINE
  5
21D
  8
0
 10
205.5
 20
70.589518385291768
 30
0.0
 11
205.5
 21
39.989518385291781
 31
0.0
  0
LINE
  5
21E
  8
0
 10
160.0
 20
71.789518385291785
 30
0.0
 11
160.0
 21
38.789518385291771
 31
0.0
  0
LINE
  5
21F
  8
1
 10
210.5
 20
55.289518385291771
 30
0.0
 11
155.0
 21
55.289518385291771
 31
0.0
  0
LINE
  5
220
  8
0
 10
175.0
 20
72.789518385291785
 30
0.0
 11
203.30000000000001
 21
72.789518385291785
 31
0.0
  0
LINE
  5
221
  8
3
 10
203.30000000000001
 20
55.032239634362377
 30
0.0
 11
175.0
 21
55.032239634362377
 31
0.0
  0
LINE
  5
222
  8
3
 10
203.30000000000001
 20
54.081690826053958
 30
0.0
 11
175.0
 21
54.081690826053958
 31
0.0
  0
LINE
  5
223
  8
3
 10
203.30000000000001
 20
53.56893794977816
 30
0.0
 11
175.0
 21
53.56893794977816
 31
0.0
  0
LINE
  5
224
  8
3
 10
203.30000000000001
 20
52.625056558391591
 30
0.0
 11
175.0
 21
52.625056558391591
 31
0.0
  0
LINE
  5
225
  8
3
 10
203.30000000000001
 20
52.11770490071369
 30
0.0
 11
175.0
 21
52.117704900713697
 31
0.0
  0
LINE
  5
226
  8
3
 10
203.30000000000001
 20
51.187111576031782
 30
0.0
 11
175.0
 21
51.187111576031782
 31
0.0
  0
LINE
  5
227
  8
3
 10
203.30000000000001
 20
50.688719844298788
 30
0.0
 11
175.0
 21
50.688719844298788
 31
0.0
  0
LINE
  5
228
  8
3
 10
203.30000000000001
 20
49.777942029863851
 30
0.0
 11
175.0
 21
49.777942029863851
 31
0.0
  0
LINE
  5
229
  8
3
 10
203.30000000000001
 20
49.2920060839797
 30
0.0
 11
175.0
 21
49.2920060839797
 31
0.0
  0
LINE
  5
22A
  8
3
 10
203.30000000000001
 20
48.407432231766798
 30
0.0
 11
175.0
 21
48.407432231766798
 31
0.0
  0
LINE
  5
22B
  8
3
 10
203.30000000000001
 20
47.937360563247687
 30
0.0
 11
175.0
 21
47.937360563247687
 31
0.0
  0
LINE
  5
22C
  8
3
 10
203.30000000000001
 20
47.085195323264898
 30
0.0
 11
175.0
 21
47.085195323264898
 31
0.0
  0
LINE
  5
22D
  8
3
 10
203.30000000000001
 20
46.634285147119193
 30
0.0
 11
175.0
 21
46.634285147119193
 31
0.0
  0
LINE
  5
22E
  8
3
 10
203.30000000000001
 20
45.820505846245361
 30
0.0
 11
175.0
 21
45.820505846245361
 31
0.0
  0
LINE
  5
22F
  8
3
 10
203.30000000000001
 20
45.391919973380013
 30
0.0
 11
175.0
 21
45.391919973380013
 31
0.0
  0
LINE
  5
230
  8
3
 10
203.30000000000001
 20
44.622234688710677
 30
0.0
 11
175.0
 21
44.622234688710677
 31
0.0
  0
LINE
  5
231
  8
3
 10
203.30000000000001
 20
44.218979341085713
 30
0.0
 11
175.0
 21
44.218979341085713
 31
0.0
  0
LINE
  5
232
  8
3
 10
203.30000000000001
 20
43.498786861875033
 30
0.0
 11
175.0
 21
43.498786861875033
 31
0.0
  0
LINE
  5
233
  8
3
 10
203.30000000000001
 20
43.123690586015222
 30
0.0
 11
175.0
 21
43.123690586015229
 31
0.0
  0
LINE
  5
234
  8
3
 10
203.30000000000001
 20
42.458042545047043
 30
0.0
 11
175.0
 21
42.458042545047043
 31
0.0
  0
LINE
  5
235
  8
3
 10
203.30000000000001
 20
42.113736371821403
 30
0.0
 11
175.0
 21
42.113736371821403
 31
0.0
  0
LINE
  5
236
  8
3
 10
203.30000000000001
 20
41.507301811835639
 30
0.0
 11
175.0
 21
41.507301811835639
 31
0.0
  0
LINE
  5
237
  8
3
 10
203.30000000000001
 20
41.196200801665903
 30
0.0
 11
175.0
 21
41.196200801665903
 31
0.0
  0
LINE
  5
238
  8
3
 10
203.30000000000001
 20
40.653233425378303
 30
0.0
 11
175.0
 21
40.653233425378303
 31
0.0
  0
LINE
  5
239
  8
3
 10
203.30000000000001
 20
40.377519728324543
 30
0.0
 11
175.0
 21
40.377519728324543
 31
0.0
  0
LINE
  5
23A
  8
3
 10
203.30000000000001
 20
39.901828061758287
 30
0.0
 11
175.0
 21
39.901828061758287
 31
0.0
  0
LINE
  5
23B
  8
3
 10
203.30000000000001
 20
39.663435611305907
 30
0.0
 11
175.0
 21
39.663435611305907
 31
0.0
  0
LINE
  5
23C
  8
3
 10
203.30000000000001
 20
39.258356289717888
 30
0.0
 11
175.0
 21
39.258356289717888
 31
0.0
  0
LINE
  5
23D
  8
3
 10
203.30000000000001
 20
39.058957237621648
 30
0.0
 11
175.0
 21
39.058957237621641
 31
0.0
  0
LINE
  5
23E
  8
3
 10
203.30000000000001
 20
38.72733160140362
 30
0.0
 11
175.0
 21
38.72733160140362
 31
0.0
  0
LINE
  5
23F
  8
3
 10
203.30000000000001
 20
38.568324588745767
 30
0.0
 11
175.0
 21
38.568324588745767
 31
0.0
  0
LINE
  5
240
  8
3
 10
203.30000000000001
 20
38.312478753463687
 30
0.0
 11
175.0
 21
38.312478753463687
 31
0.0
  0
LINE
  5
241
  8
3
 10
203.30000000000001
 20
38.194979100192157
 30
0.0
 11
175.0
 21
38.194979100192157
 31
0.0
  0
LINE
  5
242
  8
3
 10
203.30000000000001
 20
38.016707640554969
 30
0.0
 11
175.0
 21
38.016707640554969
 31
0.0
  0
LINE
  5
243
  8
3
 10
203.30000000000001
 20
37.941539522313789
 30
0.0
 11
175.0
 21
37.941539522313782
 31
0.0
  0
LINE
  5
244
  8
3
 10
203.30000000000001
 20
37.842092884522899
 30
0.0
 11
175.0
 21
37.842092884522891
 31
0.0
  0
LINE
  5
245
  8
3
 10
203.30000000000001
 20
37.809783551653368
 30
0.0
 11
175.0
 21
37.809783551653368
 31
0.0
  0
LINE
  5
246
  8
0
 10
203.30000000000001
 20
37.789859282420927
 30
0.0
 11
175.0
 21
37.789859282420942
 31
0.0
  0
LINE
  5
247
  8
3
 10
203.30000000000001
 20
55.289518385291771
 30
0.0
 11
203.30000000000001
 21
55.032239634362377
 31
0.0
  0
LINE
  5
248
  8
3
 10
203.30000000000001
 20
55.032239634362377
 30
0.0
 11
203.80000000000001
 21
54.739518385291937
 31
0.0
  0
LINE
  5
249
  8
3
 10
203.80000000000001
 20
54.739518385291937
 30
0.0
 11
203.80000000000001
 21
54.415810802842067
 31
0.0
  0
LINE
  5
24A
  8
3
 10
203.80000000000001
 20
54.415810802842067
 30
0.0
 11
203.30000000000001
 21
54.081690826053944
 31
0.0
  0
LINE
  5
24B
  8
3
 10
203.30000000000001
 20
54.081690826053944
 30
0.0
 11
203.30000000000001
 21
53.56893794977816
 31
0.0
  0
LINE
  5
24C
  8
3
 10
203.30000000000001
 20
53.56893794977816
 30
0.0
 11
203.80000000000001
 21
53.31966865766762
 31
0.0
  0
LINE
  5
24D
  8
3
 10
203.80000000000001
 20
53.31966865766762
 30
0.0
 11
203.80000000000001
 21
52.998231651325007
 31
0.0
  0
LINE
  5
24E
  8
3
 10
203.80000000000001
 20
52.998231651325007
 30
0.0
 11
203.30000000000001
 21
52.625056558391591
 31
0.0
  0
LINE
  5
24F
  8
3
 10
203.30000000000001
 20
52.625056558391591
 30
0.0
 11
203.30000000000001
 21
52.11770490071369
 31
0.0
  0
LINE
  5
250
  8
3
 10
203.30000000000001
 20
52.11770490071369
 30
0.0
 11
203.80000000000001
 21
51.913636010547521
 31
0.0
  0
LINE
  5
251
  8
3
 10
203.80000000000001
 20
51.913636010547521
 30
0.0
 11
203.80000000000001
 21
51.596724229959491
 31
0.0
  0
LINE
  5
252
  8
3
 10
203.80000000000001
 20
51.596724229959491
 30
0.0
 11
203.30000000000001
 21
51.187111576031782
 31
0.0
  0
LINE
  5
253
  8
3
 10
203.30000000000001
 20
51.187111576031782
 30
0.0
 11
203.30000000000001
 21
50.688719844298788
 31
0.0
  0
LINE
  5
254
  8
3
 10
203.30000000000001
 20
50.688719844298788
 30
0.0
 11
203.80000000000001
 21
50.531282752718162
 31
0.0
  0
LINE
  5
255
  8
3
 10
203.80000000000001
 20
50.531282752718162
 30
0.0
 11
203.80000000000001
 21
50.22111910632492
 31
0.0
  0
LINE
  5
256
  8
3
 10
203.80000000000001
 20
50.22111910632492
 30
0.0
 11
203.30000000000001
 21
49.777942029863851
 31
0.0
  0
LINE
  5
257
  8
3
 10
203.30000000000001
 20
49.777942029863851
 30
0.0
 11
203.30000000000001
 21
49.2920060839797
 31
0.0
  0
LINE
  5
258
  8
3
 10
203.30000000000001
 20
49.2920060839797
 30
0.0
 11
203.80000000000001
 21
49.182305099063711
 31
0.0
  0
LINE
  5
259
  8
3
 10
203.80000000000001
 20
49.182305099063711
 30
0.0
 11
203.80000000000001
 21
48.881065161992119
 31
0.0
  0
LINE
  5
25A
  8
3
 10
203.80000000000001
 20
48.881065161992119
 30
0.0
 11
203.30000000000001
 21
48.407432231766798
 31
0.0
  0
LINE
  5
25B
  8
3
 10
203.30000000000001
 20
48.407432231766798
 30
0.0
 11
203.30000000000001
 21
47.937360563247687
 31
0.0
  0
LINE
  5
25C
  8
3
 10
203.30000000000001
 20
47.937360563247687
 30
0.0
 11
203.80000000000001
 21
47.876165158585437
 31
0.0
  0
LINE
  5
25D
  8
3
 10
203.80000000000001
 20
47.876165158585437
 30
0.0
 11
203.80000000000001
 21
47.585961912553728
 31
0.0
  0
LINE
  5
25E
  8
3
 10
203.80000000000001
 20
47.585961912553728
 30
0.0
 11
203.30000000000001
 21
47.085195323264898
 31
0.0
  0
LINE
  5
25F
  8
3
 10
203.30000000000001
 20
47.085195323264898
 30
0.0
 11
203.30000000000001
 21
46.634285147119193
 31
0.0
  0
LINE
  5
260
  8
3
 10
203.30000000000001
 20
46.634285147119193
 30
0.0
 11
203.80000000000001
 21
46.622024564505551
 31
0.0
  0
LINE
  5
261
  8
3
 10
203.80000000000001
 20
46.622024564505551
 30
0.0
 11
203.80000000000001
 21
46.34489357677414
 31
0.0
  0
LINE
  5
262
  8
3
 10
203.80000000000001
 20
46.34489357677414
 30
0.0
 11
203.80000000000001
 21
45.837579936051149
 31
0.0
  0
LINE
  5
263
  8
3
 10
203.80000000000001
 20
45.837579936051149
 30
0.0
 11
203.30000000000001
 21
45.820505846245361
 31
0.0
  0
LINE
  5
264
  8
3
 10
203.30000000000001
 20
45.820505846245361
 30
0.0
 11
203.30000000000001
 21
45.391919973380013
 31
0.0
  0
LINE
  5
265
  8
3
 10
203.30000000000001
 20
45.391919973380013
 30
0.0
 11
203.80000000000001
 21
45.428680211992813
 31
0.0
  0
LINE
  5
266
  8
3
 10
203.80000000000001
 20
45.428680211992813
 30
0.0
 11
203.80000000000001
 21
45.16656535732178
 31
0.0
  0
LINE
  5
267
  8
3
 10
203.80000000000001
 20
45.16656535732178
 30
0.0
 11
203.30000000000001
 21
44.622234688710677
 31
0.0
  0
LINE
  5
268
  8
3
 10
203.30000000000001
 20
44.622234688710677
 30
0.0
 11
203.30000000000001
 21
44.218979341085713
 31
0.0
  0
LINE
  5
269
  8
3
 10
203.30000000000001
 20
44.218979341085713
 30
0.0
 11
203.80000000000001
 21
44.30450255426328
 31
0.0
  0
LINE
  5
26A
  8
3
 10
203.80000000000001
 20
44.30450255426328
 30
0.0
 11
203.80000000000001
 21
44.059242380029232
 31
0.0
  0
LINE
  5
26B
  8
3
 10
203.80000000000001
 20
44.059242380029232
 30
0.0
 11
203.30000000000001
 21
43.498786861875033
 31
0.0
  0
LINE
  5
26C
  8
3
 10
203.30000000000001
 20
43.498786861875033
 30
0.0
 11
203.30000000000001
 21
43.123690586015222
 31
0.0
  0
LINE
  5
26D
  8
3
 10
203.30000000000001
 20
43.123690586015222
 30
0.0
 11
203.80000000000001
 21
43.257376889865441
 31
0.0
  0
LINE
  5
26E
  8
3
 10
203.80000000000001
 20
43.257376889865441
 30
0.0
 11
203.80000000000001
 21
43.030691719971173
 31
0.0
  0
LINE
  5
26F
  8
3
 10
203.80000000000001
 20
43.030691719971173
 30
0.0
 11
203.30000000000001
 21
42.458042545047043
 31
0.0
  0
LINE
  5
270
  8
3
 10
203.30000000000001
 20
42.458042545047043
 30
0.0
 11
203.30000000000001
 21
42.113736371821403
 31
0.0
  0
LINE
  5
271
  8
3
 10
203.30000000000001
 20
42.113736371821403
 30
0.0
 11
203.80000000000001
 21
42.294648052976292
 31
0.0
  0
LINE
  5
272
  8
3
 10
203.80000000000001
 20
42.294648052976292
 30
0.0
 11
203.80000000000001
 21
42.088127921015541
 31
0.0
  0
LINE
  5
273
  8
3
 10
203.80000000000001
 20
42.088127921015541
 30
0.0
 11
203.30000000000001
 21
41.507301811835639
 31
0.0
  0
LINE
  5
274
  8
3
 10
203.30000000000001
 20
41.507301811835639
 30
0.0
 11
203.30000000000001
 21
41.196200801665903
 31
0.0
  0
LINE
  5
275
  8
3
 10
203.30000000000001
 20
41.196200801665903
 30
0.0
 11
203.80000000000001
 21
41.42306889466699
 31
0.0
  0
LINE
  5
276
  8
3
 10
203.80000000000001
 20
41.42306889466699
 30
0.0
 11
203.80000000000001
 21
41.23816239098101
 31
0.0
  0
LINE
  5
277
  8
3
 10
203.80000000000001
 20
41.23816239098101
 30
0.0
 11
203.30000000000001
 21
40.653233425378303
 31
0.0
  0
LINE
  5
278
  8
3
 10
203.30000000000001
 20
40.653233425378303
 30
0.0
 11
203.30000000000001
 21
40.377519728324543
 31
0.0
  0
LINE
  5
279
  8
3
 10
203.30000000000001
 20
40.377519728324543
 30
0.0
 11
203.80000000000001
 21
40.648752916503952
 31
0.0
  0
LINE
  5
27A
  8
3
 10
203.80000000000001
 20
40.648752916503952
 30
0.0
 11
203.80000000000001
 21
40.48675702736098
 31
0.0
  0
LINE
  5
27B
  8
3
 10
203.80000000000001
 20
40.48675702736098
 30
0.0
 11
203.30000000000001
 21
39.901828061758287
 31
0.0
  0
LINE
  5
27C
  8
3
 10
203.30000000000001
 20
39.901828061758287
 30
0.0
 11
203.30000000000001
 21
39.663435611305907
 31
0.0
  0
LINE
  5
27D
  8
3
 10
203.30000000000001
 20
39.663435611305907
 30
0.0
 11
203.80000000000001
 21
39.977131388729291
 31
0.0
  0
LINE
  5
27E
  8
3
 10
203.80000000000001
 20
39.977131388729291
 30
0.0
 11
203.80000000000001
 21
39.839182398897783
 31
0.0
  0
LINE
  5
27F
  8
3
 10
203.80000000000001
 20
39.839182398897783
 30
0.0
 11
203.30000000000001
 21
39.258356289717888
 31
0.0
  0
LINE
  5
280
  8
3
 10
203.30000000000001
 20
39.258356289717888
 30
0.0
 11
203.30000000000001
 21
39.058957237621648
 31
0.0
  0
LINE
  5
281
  8
3
 10
203.30000000000001
 20
39.058957237621648
 30
0.0
 11
203.80000000000001
 21
39.412915253800477
 31
0.0
  0
LINE
  5
282
  8
3
 10
203.80000000000001
 20
39.412915253800477
 30
0.0
 11
203.80000000000001
 21
39.299980776327772
 31
0.0
  0
LINE
  5
283
  8
3
 10
203.80000000000001
 20
39.299980776327772
 30
0.0
 11
203.30000000000001
 21
38.72733160140362
 31
0.0
  0
LINE
  5
284
  8
3
 10
203.30000000000001
 20
38.72733160140362
 30
0.0
 11
203.30000000000001
 21
38.568324588745767
 31
0.0
  0
LINE
  5
285
  8
3
 10
203.30000000000001
 20
38.568324588745767
 30
0.0
 11
203.80000000000001
 21
38.960062082514973
 31
0.0
  0
LINE
  5
286
  8
3
 10
203.80000000000001
 20
38.960062082514973
 30
0.0
 11
203.80000000000001
 21
38.872934271617893
 31
0.0
  0
LINE
  5
287
  8
3
 10
203.80000000000001
 20
38.872934271617893
 30
0.0
 11
203.30000000000001
 21
38.312478753463687
 31
0.0
  0
LINE
  5
288
  8
3
 10
203.30000000000001
 20
38.312478753463687
 30
0.0
 11
203.30000000000001
 21
38.194979100192157
 31
0.0
  0
LINE
  5
289
  8
3
 10
203.30000000000001
 20
38.194979100192157
 30
0.0
 11
203.80000000000001
 21
38.621748314496131
 31
0.0
  0
LINE
  5
28A
  8
3
 10
203.80000000000001
 20
38.621748314496131
 30
0.0
 11
203.80000000000001
 21
38.561038309166079
 31
0.0
  0
LINE
  5
28B
  8
3
 10
203.80000000000001
 20
38.561038309166079
 30
0.0
 11
203.30000000000001
 21
38.016707640554969
 31
0.0
  0
LINE
  5
28C
  8
3
 10
203.30000000000001
 20
38.016707640554969
 30
0.0
 11
203.30000000000001
 21
37.941539522313789
 31
0.0
  0
LINE
  5
28D
  8
3
 10
203.30000000000001
 20
37.941539522313789
 30
0.0
 11
203.80000000000001
 21
38.400346977747319
 31
0.0
  0
LINE
  5
28E
  8
3
 10
203.80000000000001
 20
38.400346977747319
 30
0.0
 11
203.80000000000001
 21
38.366480615051657
 31
0.0
  0
LINE
  5
28F
  8
3
 10
203.80000000000001
 20
38.366480615051657
 30
0.0
 11
203.30000000000001
 21
37.842092884522899
 31
0.0
  0
LINE
  5
290
  8
3
 10
203.30000000000001
 20
37.842092884522899
 30
0.0
 11
203.30000000000001
 21
37.809783551653368
 31
0.0
  0
LINE
  5
291
  8
3
 10
203.30000000000001
 20
37.809783551653368
 30
0.0
 11
203.80000000000001
 21
38.297411043569333
 31
0.0
  0
LINE
  5
292
  8
3
 10
203.80000000000001
 20
38.297411043569333
 30
0.0
 11
203.80000000000001
 21
38.290625871709778
 31
0.0
  0
LINE
  5
293
  8
3
 10
203.80000000000001
 20
38.290625871709778
 30
0.0
 11
203.30000000000001
 21
37.789518385291771
 31
0.0
  0
LINE
  5
294
  8
3
 10
203.80000000000001
 20
72.288410898873764
 30
0.0
 11
203.30000000000001
 21
72.789518385291771
 31
0.0
  0
LINE
  5
295
  8
3
 10
203.80000000000001
 20
72.281625727014216
 30
0.0
 11
203.80000000000001
 21
72.288410898873764
 31
0.0
  0
LINE
  5
296
  8
3
 10
203.30000000000001
 20
72.769253218930174
 30
0.0
 11
203.80000000000001
 21
72.281625727014216
 31
0.0
  0
LINE
  5
297
  8
3
 10
203.30000000000001
 20
72.736943886060644
 30
0.0
 11
203.30000000000001
 21
72.769253218930174
 31
0.0
  0
LINE
  5
298
  8
3
 10
203.80000000000001
 20
72.212556155531885
 30
0.0
 11
203.30000000000001
 21
72.736943886060644
 31
0.0
  0
LINE
  5
299
  8
3
 10
203.80000000000001
 20
72.178689792836224
 30
0.0
 11
203.80000000000001
 21
72.212556155531885
 31
0.0
  0
LINE
  5
29A
  8
3
 10
203.30000000000001
 20
72.637497248269753
 30
0.0
 11
203.80000000000001
 21
72.178689792836224
 31
0.0
  0
LINE
  5
29B
  8
3
 10
203.30000000000001
 20
72.562329130028573
 30
0.0
 11
203.30000000000001
 21
72.637497248269753
 31
0.0
  0
LINE
  5
29C
  8
3
 10
203.80000000000001
 20
72.017998461417463
 30
0.0
 11
203.30000000000001
 21
72.562329130028573
 31
0.0
  0
LINE
  5
29D
  8
3
 10
203.80000000000001
 20
71.957288456087412
 30
0.0
 11
203.80000000000001
 21
72.017998461417463
 31
0.0
  0
LINE
  5
29E
  8
3
 10
203.30000000000001
 20
72.384057670391385
 30
0.0
 11
203.80000000000001
 21
71.957288456087412
 31
0.0
  0
LINE
  5
29F
  8
3
 10
203.30000000000001
 20
72.266558017119834
 30
0.0
 11
203.30000000000001
 21
72.384057670391385
 31
0.0
  0
LINE
  5
2A0
  8
3
 10
203.80000000000001
 20
71.706102498965663
 30
0.0
 11
203.30000000000001
 21
72.266558017119834
 31
0.0
  0
LINE
  5
2A1
  8
3
 10
203.80000000000001
 20
71.618974688068576
 30
0.0
 11
203.80000000000001
 21
71.706102498965663
 31
0.0
  0
LINE
  5
2A2
  8
3
 10
203.30000000000001
 20
72.010712181837775
 30
0.0
 11
203.80000000000001
 21
71.618974688068576
 31
0.0
  0
LINE
  5
2A3
  8
3
 10
203.30000000000001
 20
71.851705169179922
 30
0.0
 11
203.30000000000001
 21
72.010712181837775
 31
0.0
  0
LINE
  5
2A4
  8
3
 10
203.80000000000001
 20
71.279055994255771
 30
0.0
 11
203.30000000000001
 21
71.851705169179922
 31
0.0
  0
LINE
  5
2A5
  8
3
 10
203.80000000000001
 20
71.166121516783051
 30
0.0
 11
203.80000000000001
 21
71.279055994255771
 31
0.0
  0
LINE
  5
2A6
  8
3
 10
203.30000000000001
 20
71.520079532961887
 30
0.0
 11
203.80000000000001
 21
71.166121516783051
 31
0.0
  0
LINE
  5
2A7
  8
3
 10
203.30000000000001
 20
71.320680480865647
 30
0.0
 11
203.30000000000001
 21
71.520079532961887
 31
0.0
  0
LINE
  5
2A8
  8
3
 10
203.80000000000001
 20
70.739854371685766
 30
0.0
 11
203.30000000000001
 21
71.320680480865647
 31
0.0
  0
LINE
  5
2A9
  8
3
 10
203.80000000000001
 20
70.601905381854252
 30
0.0
 11
203.80000000000001
 21
70.739854371685766
 31
0.0
  0
LINE
  5
2AA
  8
3
 10
203.30000000000001
 20
70.915601159277614
 30
0.0
 11
203.80000000000001
 21
70.601905381854252
 31
0.0
  0
LINE
  5
2AB
  8
3
 10
203.30000000000001
 20
70.677208708825233
 30
0.0
 11
203.30000000000001
 21
70.915601159277614
 31
0.0
  0
LINE
  5
2AC
  8
3
 10
203.80000000000001
 20
70.092279743222562
 30
0.0
 11
203.30000000000001
 21
70.677208708825233
 31
0.0
  0
LINE
  5
2AD
  8
3
 10
203.80000000000001
 20
69.93028385407959
 30
0.0
 11
203.80000000000001
 21
70.092279743222562
 31
0.0
  0
LINE
  5
2AE
  8
3
 10
203.30000000000001
 20
70.201517042258999
 30
0.0
 11
203.80000000000001
 21
69.93028385407959
 31
0.0
  0
LINE
  5
2AF
  8
3
 10
203.30000000000001
 20
69.925803345205239
 30
0.0
 11
203.30000000000001
 21
70.201517042258999
 31
0.0
  0
LINE
  5
2B0
  8
3
 10
203.80000000000001
 20
69.340874379602525
 30
0.0
 11
203.30000000000001
 21
69.925803345205239
 31
0.0
  0
LINE
  5
2B1
  8
3
 10
203.80000000000001
 20
69.155967875916559
 30
0.0
 11
203.80000000000001
 21
69.340874379602525
 31
0.0
  0
LINE
  5
2B2
  8
3
 10
203.30000000000001
 20
69.382835968917647
 30
0.0
 11
203.80000000000001
 21
69.155967875916559
 31
0.0
  0
LINE
  5
2B3
  8
3
 10
203.30000000000001
 20
69.071734958747896
 30
0.0
 11
203.30000000000001
 21
69.382835968917647
 31
0.0
  0
LINE
  5
2B4
  8
3
 10
203.80000000000001
 20
68.490908849568001
 30
0.0
 11
203.30000000000001
 21
69.071734958747896
 31
0.0
  0
LINE
  5
2B5
  8
3
 10
203.80000000000001
 20
68.284388717607243
 30
0.0
 11
203.80000000000001
 21
68.490908849568001
 31
0.0
  0
LINE
  5
2B6
  8
3
 10
203.30000000000001
 20
68.465300398762125
 30
0.0
 11
203.80000000000001
 21
68.284388717607243
 31
0.0
  0
LINE
  5
2B7
  8
3
 10
203.30000000000001
 20
68.120994225536506
 30
0.0
 11
203.30000000000001
 21
68.465300398762125
 31
0.0
  0
LINE
  5
2B8
  8
3
 10
203.80000000000001
 20
67.548345050612369
 30
0.0
 11
203.30000000000001
 21
68.120994225536506
 31
0.0
  0
LINE
  5
2B9
  8
3
 10
203.80000000000001
 20
67.321659880718101
 30
0.0
 11
203.80000000000001
 21
67.548345050612369
 31
0.0
  0
LINE
  5
2BA
  8
3
 10
203.30000000000001
 20
67.455346184568327
 30
0.0
 11
203.80000000000001
 21
67.321659880718101
 31
0.0
  0
LINE
  5
2BB
  8
3
 10
203.30000000000001
 20
67.08024990870851
 30
0.0
 11
203.30000000000001
 21
67.455346184568327
 31
0.0
  0
LINE
  5
2BC
  8
3
 10
203.80000000000001
 20
66.519794390554296
 30
0.0
 11
203.30000000000001
 21
67.08024990870851
 31
0.0
  0
LINE
  5
2BD
  8
3
 10
203.80000000000001
 20
66.274534216320262
 30
0.0
 11
203.80000000000001
 21
66.519794390554296
 31
0.0
  0
LINE
  5
2BE
  8
3
 10
203.30000000000001
 20
66.360057429497829
 30
0.0
 11
203.80000000000001
 21
66.274534216320262
 31
0.0
  0
LINE
  5
2BF
  8
3
 10
203.30000000000001
 20
65.956802081872866
 30
0.0
 11
203.30000000000001
 21
66.360057429497829
 31
0.0
  0
LINE
  5
2C0
  8
3
 10
203.80000000000001
 20
65.412471413261756
 30
0.0
 11
203.30000000000001
 21
65.956802081872866
 31
0.0
  0
LINE
  5
2C1
  8
3
 10
203.80000000000001
 20
65.150356558590715
 30
0.0
 11
203.80000000000001
 21
65.412471413261756
 31
0.0
  0
LINE
  5
2C2
  8
3
 10
203.30000000000001
 20
65.187116797203529
 30
0.0
 11
203.80000000000001
 21
65.150356558590715
 31
0.0
  0
LINE
  5
2C3
  8
3
 10
203.30000000000001
 20
64.758530924338174
 30
0.0
 11
203.30000000000001
 21
65.187116797203529
 31
0.0
  0
LINE
  5
2C4
  8
3
 10
203.80000000000001
 20
64.741456834532386
 30
0.0
 11
203.30000000000001
 21
64.758530924338174
 31
0.0
  0
LINE
  5
2C5
  8
3
 10
203.80000000000001
 20
64.234143193809402
 30
0.0
 11
203.80000000000001
 21
64.741456834532386
 31
0.0
  0
LINE
  5
2C6
  8
3
 10
203.80000000000001
 20
63.957012206077991
 30
0.0
 11
203.80000000000001
 21
64.234143193809402
 31
0.0
  0
LINE
  5
2C7
  8
3
 10
203.30000000000001
 20
63.944751623464342
 30
0.0
 11
203.80000000000001
 21
63.957012206077991
 31
0.0
  0
LINE
  5
2C8
  8
3
 10
203.30000000000001
 20
63.493841447318637
 30
0.0
 11
203.30000000000001
 21
63.944751623464342
 31
0.0
  0
LINE
  5
2C9
  8
3
 10
203.80000000000001
 20
62.993074858029807
 30
0.0
 11
203.30000000000001
 21
63.493841447318637
 31
0.0
  0
LINE
  5
2CA
  8
3
 10
203.80000000000001
 20
62.702871611998098
 30
0.0
 11
203.80000000000001
 21
62.993074858029807
 31
0.0
  0
LINE
  5
2CB
  8
3
 10
203.30000000000001
 20
62.641676207335848
 30
0.0
 11
203.80000000000001
 21
62.702871611998098
 31
0.0
  0
LINE
  5
2CC
  8
3
 10
203.30000000000001
 20
62.171604538816737
 30
0.0
 11
203.30000000000001
 21
62.641676207335848
 31
0.0
  0
LINE
  5
2CD
  8
3
 10
203.80000000000001
 20
61.697971608591409
 30
0.0
 11
203.30000000000001
 21
62.171604538816737
 31
0.0
  0
LINE
  5
2CE
  8
3
 10
203.80000000000001
 20
61.396731671519831
 30
0.0
 11
203.80000000000001
 21
61.697971608591409
 31
0.0
  0
LINE
  5
2CF
  8
3
 10
203.30000000000001
 20
61.287030686603842
 30
0.0
 11
203.80000000000001
 21
61.396731671519831
 31
0.0
  0
LINE
  5
2D0
  8
3
 10
203.30000000000001
 20
60.801094740719691
 30
0.0
 11
203.30000000000001
 21
61.287030686603842
 31
0.0
  0
LINE
  5
2D1
  8
3
 10
203.80000000000001
 20
60.357917664258622
 30
0.0
 11
203.30000000000001
 21
60.801094740719691
 31
0.0
  0
LINE
  5
2D2
  8
3
 10
203.80000000000001
 20
60.047754017865373
 30
0.0
 11
203.80000000000001
 21
60.357917664258622
 31
0.0
  0
LINE
  5
2D3
  8
3
 10
203.30000000000001
 20
59.890316926284761
 30
0.0
 11
203.80000000000001
 21
60.047754017865373
 31
0.0
  0
LINE
  5
2D4
  8
3
 10
203.30000000000001
 20
59.39192519455176
 30
0.0
 11
203.30000000000001
 21
59.890316926284761
 31
0.0
  0
LINE
  5
2D5
  8
3
 10
203.80000000000001
 20
58.982312540624051
 30
0.0
 11
203.30000000000001
 21
59.39192519455176
 31
0.0
  0
LINE
  5
2D6
  8
3
 10
203.80000000000001
 20
58.665400760036022
 30
0.0
 11
203.80000000000001
 21
58.982312540624051
 31
0.0
  0
LINE
  5
2D7
  8
3
 10
203.30000000000001
 20
58.461331869869852
 30
0.0
 11
203.80000000000001
 21
58.665400760036022
 31
0.0
  0
LINE
  5
2D8
  8
3
 10
203.30000000000001
 20
57.953980212191951
 30
0.0
 11
203.30000000000001
 21
58.461331869869852
 31
0.0
  0
LINE
  5
2D9
  8
3
 10
203.80000000000001
 20
57.580805119258528
 30
0.0
 11
203.30000000000001
 21
57.953980212191951
 31
0.0
  0
LINE
  5
2DA
  8
3
 10
203.80000000000001
 20
57.259368112915922
 30
0.0
 11
203.80000000000001
 21
57.580805119258528
 31
0.0
  0
LINE
  5
2DB
  8
3
 10
203.30000000000001
 20
57.010098820805382
 30
0.0
 11
203.80000000000001
 21
57.259368112915922
 31
0.0
  0
LINE
  5
2DC
  8
3
 10
203.30000000000001
 20
56.497345944529599
 30
0.0
 11
203.30000000000001
 21
57.010098820805382
 31
0.0
  0
LINE
  5
2DD
  8
3
 10
203.80000000000001
 20
56.163225967741461
 30
0.0
 11
203.30000000000001
 21
56.497345944529599
 31
0.0
  0
LINE
  5
2DE
  8
3
 10
203.80000000000001
 20
55.839518385291591
 30
0.0
 11
203.80000000000001
 21
56.163225967741461
 31
0.0
  0
LINE
  5
2DF
  8
3
 10
203.30000000000001
 20
55.546797136221159
 30
0.0
 11
203.80000000000001
 21
55.839518385291591
 31
0.0
  0
LINE
  5
2E0
  8
3
 10
203.30000000000001
 20
55.289518385291771
 30
0.0
 11
203.30000000000001
 21
55.546797136221159
 31
0.0
  0
LINE
  5
2E1
  8
3
 10
203.30000000000001
 20
72.769253218930174
 30
0.0
 11
175.0
 21
72.769253218930174
 31
0.0
  0
LINE
  5
2E2
  8
3
 10
203.30000000000001
 20
72.736943886060644
 30
0.0
 11
175.0
 21
72.736943886060658
 31
0.0
  0
LINE
  5
2E3
  8
3
 10
203.30000000000001
 20
72.637497248269753
 30
0.0
 11
175.0
 21
72.637497248269753
 31
0.0
  0
LINE
  5
2E4
  8
3
 10
203.30000000000001
 20
72.562329130028573
 30
0.0
 11
175.0
 21
72.562329130028573
 31
0.0
  0
LINE
  5
2E5
  8
3
 10
203.30000000000001
 20
72.384057670391385
 30
0.0
 11
175.0
 21
72.384057670391385
 31
0.0
  0
LINE
  5
2E6
  8
3
 10
203.30000000000001
 20
72.266558017119834
 30
0.0
 11
175.0
 21
72.266558017119834
 31
0.0
  0
LINE
  5
2E7
  8
3
 10
203.30000000000001
 20
72.010712181837775
 30
0.0
 11
175.0
 21
72.010712181837775
 31
0.0
  0
LINE
  5
2E8
  8
3
 10
203.30000000000001
 20
71.851705169179922
 30
0.0
 11
175.0
 21
71.851705169179922
 31
0.0
  0
LINE
  5
2E9
  8
3
 10
203.30000000000001
 20
71.520079532961887
 30
0.0
 11
175.0
 21
71.520079532961901
 31
0.0
  0
LINE
  5
2EA
  8
3
 10
203.30000000000001
 20
71.320680480865647
 30
0.0
 11
175.0
 21
71.320680480865647
 31
0.0
  0
LINE
  5
2EB
  8
3
 10
203.30000000000001
 20
70.915601159277614
 30
0.0
 11
175.0
 21
70.915601159277614
 31
0.0
  0
LINE
  5
2EC
  8
3
 10
203.30000000000001
 20
70.677208708825233
 30
0.0
 11
175.0
 21
70.677208708825233
 31
0.0
  0
LINE
  5
2ED
  8
3
 10
203.30000000000001
 20
70.201517042258999
 30
0.0
 11
175.0
 21
70.201517042258999
 31
0.0
  0
LINE
  5
2EE
  8
3
 10
203.30000000000001
 20
69.925803345205239
 30
0.0
 11
175.0
 21
69.925803345205239
 31
0.0
  0
LINE
  5
2EF
  8
3
 10
203.30000000000001
 20
69.382835968917647
 30
0.0
 11
175.0
 21
69.382835968917647
 31
0.0
  0
LINE
  5
2F0
  8
3
 10
203.30000000000001
 20
69.071734958747896
 30
0.0
 11
175.0
 21
69.071734958747896
 31
0.0
  0
LINE
  5
2F1
  8
3
 10
203.30000000000001
 20
68.465300398762125
 30
0.0
 11
175.0
 21
68.465300398762125
 31
0.0
  0
LINE
  5
2F2
  8
3
 10
203.30000000000001
 20
68.120994225536506
 30
0.0
 11
175.0
 21
68.120994225536506
 31
0.0
  0
LINE
  5
2F3
  8
3
 10
203.30000000000001
 20
67.455346184568327
 30
0.0
 11
175.0
 21
67.455346184568313
 31
0.0
  0
LINE
  5
2F4
  8
3
 10
203.30000000000001
 20
67.08024990870851
 30
0.0
 11
175.0
 21
67.08024990870851
 31
0.0
  0
LINE
  5
2F5
  8
3
 10
203.30000000000001
 20
66.360057429497829
 30
0.0
 11
175.0
 21
66.360057429497829
 31
0.0
  0
LINE
  5
2F6
  8
3
 10
203.30000000000001
 20
65.956802081872866
 30
0.0
 11
175.0
 21
65.956802081872851
 31
0.0
  0
LINE
  5
2F7
  8
3
 10
203.30000000000001
 20
65.187116797203529
 30
0.0
 11
175.0
 21
65.187116797203529
 31
0.0
  0
LINE
  5
2F8
  8
3
 10
203.30000000000001
 20
64.758530924338174
 30
0.0
 11
175.0
 21
64.758530924338174
 31
0.0
  0
LINE
  5
2F9
  8
3
 10
203.30000000000001
 20
63.944751623464342
 30
0.0
 11
175.0
 21
63.944751623464342
 31
0.0
  0
LINE
  5
2FA
  8
3
 10
203.30000000000001
 20
63.493841447318637
 30
0.0
 11
175.0
 21
63.493841447318637
 31
0.0
  0
LINE
  5
2FB
  8
3
 10
203.30000000000001
 20
62.641676207335848
 30
0.0
 11
175.0
 21
62.641676207335848
 31
0.0
  0
LINE
  5
2FC
  8
3
 10
203.30000000000001
 20
62.171604538816737
 30
0.0
 11
175.0
 21
62.171604538816737
 31
0.0
  0
LINE
  5
2FD
  8
3
 10
203.30000000000001
 20
61.287030686603842
 30
0.0
 11
175.0
 21
61.287030686603842
 31
0.0
  0
LINE
  5
2FE
  8
3
 10
203.30000000000001
 20
60.801094740719691
 30
0.0
 11
175.0
 21
60.801094740719691
 31
0.0
  0
LINE
  5
2FF
  8
3
 10
203.30000000000001
 20
59.890316926284761
 30
0.0
 11
175.0
 21
59.890316926284761
 31
0.0
  0
LINE
  5
300
  8
3
 10
203.30000000000001
 20
59.39192519455176
 30
0.0
 11
175.0
 21
59.39192519455176
 31
0.0
  0
LINE
  5
301
  8
3
 10
203.30000000000001
 20
58.461331869869852
 30
0.0
 11
175.0
 21
58.461331869869838
 31
0.0
  0
LINE
  5
302
  8
3
 10
203.30000000000001
 20
57.953980212191951
 30
0.0
 11
175.0
 21
57.953980212191951
 31
0.0
  0
LINE
  5
303
  8
3
 10
203.30000000000001
 20
57.010098820805382
 30
0.0
 11
175.0
 21
57.010098820805382
 31
0.0
  0
LINE
  5
304
  8
3
 10
203.30000000000001
 20
56.497345944529577
 30
0.0
 11
175.0
 21
56.497345944529577
 31
0.0
  0
LINE
  5
305
  8
3
 10
203.30000000000001
 20
55.546797136221159
 30
0.0
 11
175.0
 21
55.546797136221159
 31
0.0
  0
LINE
  5
306
  8
0
 10
170.0
 20
55.789518385291771
 30
0.0
 11
170.0
 21
54.789518385291771
 31
0.0
  0
LINE
  5
307
  8
0
 10
170.0
 20
55.789518385291778
 30
0.0
 11
160.0
 21
55.789518385291771
 31
0.0
  0
LINE
  5
308
  8
0
 10
170.0
 20
54.789518385291778
 30
0.0
 11
160.0
 21
54.789518385291771
 31
0.0
  0
SOLID
  5
309
  8
0
 10
160.0
 20
55.789518385291771
 30
0.0
 11
160.0
 21
54.789518385291771
 31
0.0
 12
170.0
 22
55.789518385291778
 32
0.0
 13
170.0
 23
54.789518385291778
 33
0.0
  0
LINE
  5
30A
  8
1
 10
302.5
 20
135.28951838529181
 30
0.0
 11
257.5
 21
135.28951838529181
 31
0.0
  0
LINE
  5
30B
  8
1
 10
280.0
 20
157.78951838529181
 30
0.0
 11
280.0
 21
112.7895183852917
 31
0.0
  0
LINE
  5
30C
  8
3
 10
185.99442226521381
 20
207.55165542578601
 30
0.0
 11
175.0
 21
207.55165542578601
 31
0.0
  0
LINE
  5
30D
  8
3
 10
184.9205195007508
 20
208.0621554880521
 30
0.0
 11
175.0
 21
208.0621554880521
 31
0.0
  0
LINE
  5
30E
  8
3
 10
184.20428654068991
 20
209.0102021859278
 30
0.0
 11
175.0
 21
209.0102021859278
 31
0.0
  0
LINE
  5
30F
  8
3
 10
184.04567373025421
 20
209.52430833343371
 30
0.0
 11
175.0
 21
209.52430833343371
 31
0.0
  0
LINE
  5
310
  8
3
 10
184.04567373025569
 20
210.47569166656629
 30
0.0
 11
175.0
 21
210.47569166656629
 31
0.0
  0
LINE
  5
311
  8
3
 10
184.20428654068911
 20
210.9897978140722
 30
0.0
 11
175.0
 21
210.9897978140722
 31
0.0
  0
LINE
  5
312
  8
3
 10
184.92051950074961
 20
211.9378445119479
 30
0.0
 11
175.0
 21
211.9378445119479
 31
0.0
  0
LINE
  5
313
  8
3
 10
185.9944222652102
 20
212.44834457421399
 30
0.0
 11
175.0
 21
212.44834457421399
 31
0.0
  0
CIRCLE
  5
314
  8
0
 10
186.49999999999989
 20
210.0
 30
0.0
 40
2.5
  0
CIRCLE
  5
315
  8
3
 10
186.49999999999989
 20
210.0
 30
0.0
 40
2.0669999999999988
  0
LINE
  5
316
  8
0
 10
187.9433756717988
 20
209.99999999999969
 30
0.0
 11
187.22168783531191
 21
208.74999999999969
 31
0.0
  0
LINE
  5
317
  8
0
 10
187.2216878358999
 20
211.2499999989829
 30
0.0
 11
187.94337567238699
 21
209.9999999989829
 31
0.0
  0
LINE
  5
318
  8
0
 10
185.7783121641009
 20
211.2499999989829
 30
0.0
 11
187.2216878370748
 21
211.2499999989829
 31
0.0
  0
LINE
  5
319
  8
0
 10
185.0566243282012
 20
209.99999999999969
 30
0.0
 11
185.778312164688
 21
211.24999999999969
 31
0.0
  0
LINE
  5
31A
  8
0
 10
185.77831216409999
 20
208.75000000101829
 30
0.0
 11
185.05662432761301
 21
210.0000000010175
 31
0.0
  0
LINE
  5
31B
  8
0
 10
187.2216878358999
 20
208.75000000101741
 30
0.0
 11
185.77831216292611
 21
208.75000000101741
 31
0.0
  0
LINE
  5
31C
  8
3
 10
203.80000000000001
 20
210.16248572683949
 30
0.0
 11
203.80000000000001
 21
209.83751427316051
 31
0.0
  0
LINE
  5
31D
  8
0
 10
205.5
 20
194.69999999999999
 30
0.0
 11
203.80000000000001
 21
192.99999999999989
 31
0.0
  0
LINE
  5
31E
  8
3
 10
203.2999999999999
 20
209.52430833343371
 30
0.0
 11
188.95432626974559
 21
209.52430833343371
 31
0.0
  0
LINE
  5
31F
  8
3
 10
203.2999999999999
 20
209.0102021859278
 30
0.0
 11
188.79571345930981
 21
209.0102021859278
 31
0.0
  0
LINE
  5
320
  8
3
 10
203.2999999999999
 20
208.0621554880521
 30
0.0
 11
188.079480499249
 21
208.0621554880521
 31
0.0
  0
LINE
  5
321
  8
3
 10
203.2999999999999
 20
207.55165542578601
 30
0.0
 11
187.0055777347859
 21
207.55165542578601
 31
0.0
  0
LINE
  5
322
  8
3
 10
203.2999999999999
 20
206.61359522958239
 30
0.0
 11
175.0
 21
206.61359522958239
 31
0.0
  0
LINE
  5
323
  8
3
 10
203.2999999999999
 20
206.11028204369919
 30
0.0
 11
175.0
 21
206.11028204369919
 31
0.0
  0
LINE
  5
324
  8
3
 10
203.2999999999999
 20
205.18878816744831
 30
0.0
 11
175.0
 21
205.18878816744839
 31
0.0
  0
LINE
  5
325
  8
3
 10
203.2999999999999
 20
204.69619223831739
 30
0.0
 11
175.0
 21
204.69619223831739
 31
0.0
  0
LINE
  5
326
  8
3
 10
203.2999999999999
 20
203.79772829946899
 30
0.0
 11
175.0
 21
203.79772829946899
 31
0.0
  0
LINE
  5
327
  8
3
 10
203.2999999999999
 20
203.3193048336031
 30
0.0
 11
175.0
 21
203.3193048336031
 31
0.0
  0
LINE
  5
328
  8
3
 10
203.2999999999999
 20
202.4501729111424
 30
0.0
 11
175.0
 21
202.4501729111424
 31
0.0
  0
LINE
  5
329
  8
3
 10
203.2999999999999
 20
201.9892777054084
 30
0.0
 11
175.0
 21
201.9892777054084
 31
0.0
  0
LINE
  5
32A
  8
3
 10
203.2999999999999
 20
201.155574135302
 30
0.0
 11
175.0
 21
201.155574135302
 31
0.0
  0
LINE
  5
32B
  8
3
 10
203.2999999999999
 20
200.7154400384141
 30
0.0
 11
175.0
 21
200.7154400384141
 31
0.0
  0
LINE
  5
32C
  8
3
 10
203.2999999999999
 20
199.92301265219049
 30
0.0
 11
175.0
 21
199.92301265219049
 31
0.0
  0
LINE
  5
32D
  8
3
 10
203.2999999999999
 20
199.50672688860331
 30
0.0
 11
175.0
 21
199.50672688860331
 31
0.0
  0
LINE
  5
32E
  8
3
 10
203.2999999999999
 20
198.7611339950185
 30
0.0
 11
175.0
 21
198.7611339950185
 31
0.0
  0
LINE
  5
32F
  8
3
 10
203.2999999999999
 20
198.3716165102625
 30
0.0
 11
175.0
 21
198.3716165102625
 31
0.0
  0
LINE
  5
330
  8
3
 10
203.2999999999999
 20
197.6780879077574
 30
0.0
 11
175.0
 21
197.6780879077574
 31
0.0
  0
LINE
  5
331
  8
3
 10
203.2999999999999
 20
197.3180708871202
 30
0.0
 11
175.0
 21
197.31807088712031
 31
0.0
  0
LINE
  5
332
  8
3
 10
203.2999999999999
 20
196.68147118054151
 30
0.0
 11
175.0
 21
196.68147118054151
 31
0.0
  0
LINE
  5
333
  8
3
 10
203.2999999999999
 20
196.35347988475149
 30
0.0
 11
175.0
 21
196.35347988475149
 31
0.0
  0
LINE
  5
334
  8
3
 10
203.2999999999999
 20
195.7782743636445
 30
0.0
 11
175.0
 21
195.7782743636445
 31
0.0
  0
LINE
  5
335
  8
3
 10
203.2999999999999
 20
195.48460941597969
 30
0.0
 11
175.0
 21
195.48460941597961
 31
0.0
  0
LINE
  5
336
  8
3
 10
203.2999999999999
 20
194.97483273379081
 30
0.0
 11
175.0
 21
194.97483273379081
 31
0.0
  0
LINE
  5
337
  8
3
 10
203.2999999999999
 20
194.7175539828612
 30
0.0
 11
175.0
 21
194.7175539828612
 31
0.0
  0
LINE
  5
338
  8
3
 10
203.2999999999999
 20
194.27678185674179
 30
0.0
 11
175.0
 21
194.27678185674179
 31
0.0
  0
LINE
  5
339
  8
3
 10
203.2999999999999
 20
194.0576939281307
 30
0.0
 11
175.0
 21
194.0576939281307
 31
0.0
  0
LINE
  5
33A
  8
3
 10
203.2999999999999
 20
193.68901805785109
 30
0.0
 11
175.0
 21
193.68901805785109
 31
0.0
  0
LINE
  5
33B
  8
3
 10
203.2999999999999
 20
193.509657695963
 30
0.0
 11
175.0
 21
193.509657695963
 31
0.0
  0
LINE
  5
33C
  8
3
 10
203.2999999999999
 20
193.21566407786011
 30
0.0
 11
175.0
 21
193.21566407786011
 31
0.0
  0
LINE
  5
33D
  8
3
 10
203.2999999999999
 20
193.07728936676421
 30
0.0
 11
175.0
 21
193.07728936676421
 31
0.0
  0
LINE
  5
33E
  8
3
 10
203.2999999999999
 20
192.86004015483431
 30
0.0
 11
175.0
 21
192.86004015483431
 31
0.0
  0
LINE
  5
33F
  8
3
 10
203.2999999999999
 20
192.763621693706
 30
0.0
 11
175.0
 21
192.763621693706
 31
0.0
  0
LINE
  5
340
  8
3
 10
203.2999999999999
 20
192.6246407350782
 30
0.0
 11
175.0
 21
192.62464073507829
 31
0.0
  0
LINE
  5
341
  8
3
 10
203.2999999999999
 20
192.57085483014589
 30
0.0
 11
175.0
 21
192.57085483014589
 31
0.0
  0
LINE
  5
342
  8
3
 10
203.2999999999999
 20
192.5111169763872
 30
0.0
 11
175.0
 21
192.5111169763872
 31
0.0
  0
LINE
  5
343
  8
0
 10
203.2999999999999
 20
192.50034089712929
 30
0.0
 11
175.0
 21
192.50034089712921
 31
0.0
  0
LINE
  5
344
  8
3
 10
203.80000000000001
 20
209.83751427316051
 30
0.0
 11
203.2999999999999
 21
209.52430833343371
 31
0.0
  0
LINE
  5
345
  8
3
 10
203.2999999999999
 20
209.52430833343371
 30
0.0
 11
203.2999999999999
 21
209.0102021859278
 31
0.0
  0
LINE
  5
346
  8
3
 10
203.2999999999999
 20
209.0102021859278
 30
0.0
 11
203.80000000000001
 21
208.7389689977484
 31
0.0
  0
LINE
  5
347
  8
3
 10
203.80000000000001
 20
208.7389689977484
 30
0.0
 11
203.80000000000001
 21
208.41611350423099
 31
0.0
  0
LINE
  5
348
  8
3
 10
203.80000000000001
 20
208.41611350423099
 30
0.0
 11
203.2999999999999
 21
208.0621554880521
 31
0.0
  0
LINE
  5
349
  8
3
 10
203.2999999999999
 20
208.0621554880521
 30
0.0
 11
203.2999999999999
 21
207.55165542578601
 31
0.0
  0
LINE
  5
34A
  8
3
 10
203.2999999999999
 20
207.55165542578601
 30
0.0
 11
203.80000000000001
 21
207.32478733278489
 31
0.0
  0
LINE
  5
34B
  8
3
 10
203.80000000000001
 20
207.32478733278489
 30
0.0
 11
203.80000000000001
 21
207.0053327233515
 31
0.0
  0
LINE
  5
34C
  8
3
 10
203.80000000000001
 20
207.0053327233515
 30
0.0
 11
203.2999999999999
 21
206.61359522958239
 31
0.0
  0
LINE
  5
34D
  8
3
 10
203.2999999999999
 20
206.61359522958239
 30
0.0
 11
203.2999999999999
 21
206.11028204369919
 31
0.0
  0
LINE
  5
34E
  8
3
 10
203.2999999999999
 20
206.11028204369919
 30
0.0
 11
203.80000000000001
 21
205.92937036254429
 31
0.0
  0
LINE
  5
34F
  8
3
 10
203.80000000000001
 20
205.92937036254429
 30
0.0
 11
203.80000000000001
 21
205.61555738175241
 31
0.0
  0
LINE
  5
350
  8
3
 10
203.80000000000001
 20
205.61555738175241
 30
0.0
 11
203.2999999999999
 21
205.18878816744831
 31
0.0
  0
LINE
  5
351
  8
3
 10
203.2999999999999
 20
205.18878816744831
 30
0.0
 11
203.2999999999999
 21
204.69619223831739
 31
0.0
  0
LINE
  5
352
  8
3
 10
203.2999999999999
 20
204.69619223831739
 30
0.0
 11
203.80000000000001
 21
204.5625059344672
 31
0.0
  0
LINE
  5
353
  8
3
 10
203.80000000000001
 20
204.5625059344672
 30
0.0
 11
203.80000000000001
 21
204.2565357549025
 31
0.0
  0
LINE
  5
354
  8
3
 10
203.80000000000001
 20
204.2565357549025
 30
0.0
 11
203.2999999999999
 21
203.79772829946899
 31
0.0
  0
LINE
  5
355
  8
3
 10
203.2999999999999
 20
203.79772829946899
 30
0.0
 11
203.2999999999999
 21
203.3193048336031
 31
0.0
  0
LINE
  5
356
  8
3
 10
203.2999999999999
 20
203.3193048336031
 30
0.0
 11
203.80000000000001
 21
203.23378162042559
 31
0.0
  0
LINE
  5
357
  8
3
 10
203.80000000000001
 20
203.23378162042559
 30
0.0
 11
203.80000000000001
 21
202.93780040305839
 31
0.0
  0
LINE
  5
358
  8
3
 10
203.80000000000001
 20
202.93780040305839
 30
0.0
 11
203.2999999999999
 21
202.4501729111424
 31
0.0
  0
LINE
  5
359
  8
3
 10
203.2999999999999
 20
202.4501729111424
 30
0.0
 11
203.2999999999999
 21
201.9892777054084
 31
0.0
  0
LINE
  5
35A
  8
3
 10
203.2999999999999
 20
201.9892777054084
 30
0.0
 11
203.80000000000001
 21
201.9525174667956
 31
0.0
  0
LINE
  5
35B
  8
3
 10
203.80000000000001
 20
201.9525174667956
 30
0.0
 11
203.80000000000001
 21
201.66860130720451
 31
0.0
  0
LINE
  5
35C
  8
3
 10
203.80000000000001
 20
201.66860130720451
 30
0.0
 11
203.2999999999999
 21
201.155574135302
 31
0.0
  0
LINE
  5
35D
  8
3
 10
203.2999999999999
 20
201.155574135302
 30
0.0
 11
203.2999999999999
 21
200.7154400384141
 31
0.0
  0
LINE
  5
35E
  8
3
 10
203.2999999999999
 20
200.7154400384141
 30
0.0
 11
203.80000000000001
 21
200.72770062102779
 31
0.0
  0
LINE
  5
35F
  8
3
 10
203.80000000000001
 20
200.72770062102779
 30
0.0
 11
203.80000000000001
 21
200.45784098707799
 31
0.0
  0
LINE
  5
360
  8
3
 10
203.80000000000001
 20
200.45784098707799
 30
0.0
 11
203.2999999999999
 21
199.92301265219049
 31
0.0
  0
LINE
  5
361
  8
3
 10
203.2999999999999
 20
199.92301265219049
 30
0.0
 11
203.2999999999999
 21
199.50672688860331
 31
0.0
  0
LINE
  5
362
  8
3
 10
203.2999999999999
 20
199.50672688860331
 30
0.0
 11
203.80000000000001
 21
199.5679222932655
 31
0.0
  0
LINE
  5
363
  8
3
 10
203.80000000000001
 20
199.5679222932655
 30
0.0
 11
203.80000000000001
 21
199.31401205639571
 31
0.0
  0
LINE
  5
364
  8
3
 10
203.80000000000001
 20
199.31401205639571
 30
0.0
 11
203.2999999999999
 21
198.7611339950185
 31
0.0
  0
LINE
  5
365
  8
3
 10
203.2999999999999
 20
198.7611339950185
 30
0.0
 11
203.2999999999999
 21
198.3716165102625
 31
0.0
  0
LINE
  5
366
  8
3
 10
203.2999999999999
 20
198.3716165102625
 30
0.0
 11
203.80000000000001
 21
198.4813174951785
 31
0.0
  0
LINE
  5
367
  8
3
 10
203.80000000000001
 20
198.4813174951785
 30
0.0
 11
203.80000000000001
 21
198.24513765326569
 31
0.0
  0
LINE
  5
368
  8
3
 10
203.80000000000001
 20
198.24513765326569
 30
0.0
 11
203.2999999999999
 21
197.6780879077574
 31
0.0
  0
LINE
  5
369
  8
3
 10
203.2999999999999
 20
197.6780879077574
 30
0.0
 11
203.2999999999999
 21
197.3180708871202
 31
0.0
  0
LINE
  5
36A
  8
3
 10
203.2999999999999
 20
197.3180708871202
 30
0.0
 11
203.80000000000001
 21
197.4755079787009
 31
0.0
  0
LINE
  5
36B
  8
3
 10
203.80000000000001
 20
197.4755079787009
 30
0.0
 11
203.80000000000001
 21
197.25871516364111
 31
0.0
  0
LINE
  5
36C
  8
3
 10
203.80000000000001
 20
197.25871516364111
 30
0.0
 11
203.2999999999999
 21
196.68147118054151
 31
0.0
  0
LINE
  5
36D
  8
3
 10
203.2999999999999
 20
196.68147118054151
 30
0.0
 11
203.2999999999999
 21
196.35347988475149
 31
0.0
  0
LINE
  5
36E
  8
3
 10
203.2999999999999
 20
196.35347988475149
 30
0.0
 11
203.80000000000001
 21
196.55754877491759
 31
0.0
  0
LINE
  5
36F
  8
3
 10
203.80000000000001
 20
196.55754877491759
 30
0.0
 11
203.80000000000001
 21
196.3616636325433
 31
0.0
  0
LINE
  5
370
  8
3
 10
203.80000000000001
 20
196.3616636325433
 30
0.0
 11
203.2999999999999
 21
195.7782743636445
 31
0.0
  0
LINE
  5
371
  8
3
 10
203.2999999999999
 20
195.7782743636445
 30
0.0
 11
203.2999999999999
 21
195.48460941597969
 31
0.0
  0
LINE
  5
372
  8
3
 10
203.2999999999999
 20
195.48460941597969
 30
0.0
 11
203.80000000000001
 21
195.7338787080902
 31
0.0
  0
LINE
  5
373
  8
3
 10
203.80000000000001
 20
195.7338787080902
 30
0.0
 11
203.80000000000001
 21
195.56027523193171
 31
0.0
  0
LINE
  5
374
  8
3
 10
203.80000000000001
 20
195.56027523193171
 30
0.0
 11
203.2999999999999
 21
194.97483273379081
 31
0.0
  0
LINE
  5
375
  8
3
 10
203.2999999999999
 20
194.97483273379081
 30
0.0
 11
203.2999999999999
 21
194.7175539828612
 31
0.0
  0
LINE
  5
376
  8
3
 10
203.2999999999999
 20
194.7175539828612
 30
0.0
 11
203.80000000000001
 21
195.0102752319317
 31
0.0
  0
LINE
  5
377
  8
3
 10
203.80000000000001
 20
195.0102752319317
 30
0.0
 11
203.80000000000001
 21
194.86017112564039
 31
0.0
  0
LINE
  5
378
  8
3
 10
203.80000000000001
 20
194.86017112564039
 30
0.0
 11
203.2999999999999
 21
194.27678185674179
 31
0.0
  0
LINE
  5
379
  8
3
 10
203.2999999999999
 20
194.27678185674179
 30
0.0
 11
203.2999999999999
 21
194.0576939281307
 31
0.0
  0
LINE
  5
37A
  8
3
 10
203.2999999999999
 20
194.0576939281307
 30
0.0
 11
203.80000000000001
 21
194.39181390491879
 31
0.0
  0
LINE
  5
37B
  8
3
 10
203.80000000000001
 20
194.39181390491879
 30
0.0
 11
203.80000000000001
 21
194.26626204095069
 31
0.0
  0
LINE
  5
37C
  8
3
 10
203.80000000000001
 20
194.26626204095069
 30
0.0
 11
203.2999999999999
 21
193.68901805785109
 31
0.0
  0
LINE
  5
37D
  8
3
 10
203.2999999999999
 20
193.68901805785109
 30
0.0
 11
203.2999999999999
 21
193.509657695963
 31
0.0
  0
LINE
  5
37E
  8
3
 10
203.2999999999999
 20
193.509657695963
 30
0.0
 11
203.80000000000001
 21
193.88283278889659
 31
0.0
  0
LINE
  5
37F
  8
3
 10
203.80000000000001
 20
193.88283278889659
 30
0.0
 11
203.80000000000001
 21
193.7827138233686
 31
0.0
  0
LINE
  5
380
  8
3
 10
203.80000000000001
 20
193.7827138233686
 30
0.0
 11
203.2999999999999
 21
193.21566407786011
 31
0.0
  0
LINE
  5
381
  8
3
 10
203.2999999999999
 20
193.21566407786011
 30
0.0
 11
203.2999999999999
 21
193.07728936676421
 31
0.0
  0
LINE
  5
382
  8
3
 10
203.2999999999999
 20
193.07728936676421
 30
0.0
 11
203.80000000000001
 21
193.4869020206919
 31
0.0
  0
LINE
  5
383
  8
3
 10
203.80000000000001
 20
193.4869020206919
 30
0.0
 11
203.80000000000001
 21
193.41291821621141
 31
0.0
  0
LINE
  5
384
  8
3
 10
203.80000000000001
 20
193.41291821621141
 30
0.0
 11
203.2999999999999
 21
192.86004015483431
 31
0.0
  0
LINE
  5
385
  8
3
 10
203.2999999999999
 20
192.86004015483431
 30
0.0
 11
203.2999999999999
 21
192.763621693706
 31
0.0
  0
LINE
  5
386
  8
3
 10
203.2999999999999
 20
192.763621693706
 30
0.0
 11
203.80000000000001
 21
193.2067987701671
 31
0.0
  0
LINE
  5
387
  8
3
 10
203.80000000000001
 20
193.2067987701671
 30
0.0
 11
203.80000000000001
 21
193.15946906996581
 31
0.0
  0
LINE
  5
388
  8
3
 10
203.80000000000001
 20
193.15946906996581
 30
0.0
 11
203.2999999999999
 21
192.6246407350782
 31
0.0
  0
LINE
  5
389
  8
3
 10
203.2999999999999
 20
192.6246407350782
 30
0.0
 11
203.2999999999999
 21
192.57085483014589
 31
0.0
  0
LINE
  5
38A
  8
3
 10
203.2999999999999
 20
192.57085483014589
 30
0.0
 11
203.80000000000001
 21
193.0444877603712
 31
0.0
  0
LINE
  5
38B
  8
3
 10
203.80000000000001
 20
193.0444877603712
 30
0.0
 11
203.80000000000001
 21
193.02414414828979
 31
0.0
  0
LINE
  5
38C
  8
3
 10
203.80000000000001
 20
193.02414414828979
 30
0.0
 11
203.2999999999999
 21
192.5111169763872
 31
0.0
  0
LINE
  5
38D
  8
3
 10
203.2999999999999
 20
192.5111169763872
 30
0.0
 11
203.2999999999999
 21
192.50034089712929
 31
0.0
  0
LINE
  5
38E
  8
0
 10
203.2999999999999
 20
192.50034089712929
 30
0.0
 11
203.80000000000001
 21
192.99999999999989
 31
0.0
  0
LINE
  5
38F
  8
0
 10
203.2999999999999
 20
227.49965910287071
 30
0.0
 11
203.80000000000001
 21
227.0
 31
0.0
  0
LINE
  5
390
  8
3
 10
203.2999999999999
 20
227.4888830236128
 30
0.0
 11
203.2999999999999
 21
227.49965910287071
 31
0.0
  0
LINE
  5
391
  8
3
 10
203.80000000000001
 20
226.97585585171021
 30
0.0
 11
203.2999999999999
 21
227.4888830236128
 31
0.0
  0
LINE
  5
392
  8
3
 10
203.80000000000001
 20
226.95551223962869
 30
0.0
 11
203.80000000000001
 21
226.97585585171021
 31
0.0
  0
LINE
  5
393
  8
3
 10
203.2999999999999
 20
227.42914516985411
 30
0.0
 11
203.80000000000001
 21
226.95551223962869
 31
0.0
  0
LINE
  5
394
  8
3
 10
203.2999999999999
 20
227.37535926492171
 30
0.0
 11
203.2999999999999
 21
227.42914516985411
 31
0.0
  0
LINE
  5
395
  8
3
 10
203.80000000000001
 20
226.84053093003419
 30
0.0
 11
203.2999999999999
 21
227.37535926492171
 31
0.0
  0
LINE
  5
396
  8
3
 10
203.80000000000001
 20
226.7932012298329
 30
0.0
 11
203.80000000000001
 21
226.84053093003419
 31
0.0
  0
LINE
  5
397
  8
3
 10
203.2999999999999
 20
227.236378306294
 30
0.0
 11
203.80000000000001
 21
226.7932012298329
 31
0.0
  0
LINE
  5
398
  8
3
 10
203.2999999999999
 20
227.13995984516569
 30
0.0
 11
203.2999999999999
 21
227.236378306294
 31
0.0
  0
LINE
  5
399
  8
3
 10
203.80000000000001
 20
226.58708178378859
 30
0.0
 11
203.2999999999999
 21
227.13995984516569
 31
0.0
  0
LINE
  5
39A
  8
3
 10
203.80000000000001
 20
226.51309797930799
 30
0.0
 11
203.80000000000001
 21
226.58708178378859
 31
0.0
  0
LINE
  5
39B
  8
3
 10
203.2999999999999
 20
226.92271063323571
 30
0.0
 11
203.80000000000001
 21
226.51309797930799
 31
0.0
  0
LINE
  5
39C
  8
3
 10
203.2999999999999
 20
226.7843359221398
 30
0.0
 11
203.2999999999999
 21
226.92271063323571
 31
0.0
  0
LINE
  5
39D
  8
3
 10
203.80000000000001
 20
226.2172861766314
 30
0.0
 11
203.2999999999999
 21
226.7843359221398
 31
0.0
  0
LINE
  5
39E
  8
3
 10
203.80000000000001
 20
226.11716721110341
 30
0.0
 11
203.80000000000001
 21
226.2172861766314
 31
0.0
  0
LINE
  5
39F
  8
3
 10
203.2999999999999
 20
226.49034230403689
 30
0.0
 11
203.80000000000001
 21
226.11716721110341
 31
0.0
  0
LINE
  5
3A0
  8
3
 10
203.2999999999999
 20
226.3109819421488
 30
0.0
 11
203.2999999999999
 21
226.49034230403689
 31
0.0
  0
LINE
  5
3A1
  8
3
 10
203.80000000000001
 20
225.73373795904919
 30
0.0
 11
203.2999999999999
 21
226.3109819421488
 31
0.0
  0
LINE
  5
3A2
  8
3
 10
203.80000000000001
 20
225.60818609508121
 30
0.0
 11
203.80000000000001
 21
225.73373795904919
 31
0.0
  0
LINE
  5
3A3
  8
3
 10
203.2999999999999
 20
225.94230607186921
 30
0.0
 11
203.80000000000001
 21
225.60818609508121
 31
0.0
  0
LINE
  5
3A4
  8
3
 10
203.2999999999999
 20
225.72321814325821
 30
0.0
 11
203.2999999999999
 21
225.94230607186921
 31
0.0
  0
LINE
  5
3A5
  8
3
 10
203.80000000000001
 20
225.13982887435961
 30
0.0
 11
203.2999999999999
 21
225.72321814325821
 31
0.0
  0
LINE
  5
3A6
  8
3
 10
203.80000000000001
 20
224.9897247680683
 30
0.0
 11
203.80000000000001
 21
225.13982887435961
 31
0.0
  0
LINE
  5
3A7
  8
3
 10
203.2999999999999
 20
225.2824460171388
 30
0.0
 11
203.80000000000001
 21
224.9897247680683
 31
0.0
  0
LINE
  5
3A8
  8
3
 10
203.2999999999999
 20
225.02516726620919
 30
0.0
 11
203.2999999999999
 21
225.2824460171388
 31
0.0
  0
LINE
  5
3A9
  8
3
 10
203.80000000000001
 20
224.4397247680682
 30
0.0
 11
203.2999999999999
 21
225.02516726620919
 31
0.0
  0
LINE
  5
3AA
  8
3
 10
203.80000000000001
 20
224.2661212919098
 30
0.0
 11
203.80000000000001
 21
224.4397247680682
 31
0.0
  0
LINE
  5
3AB
  8
3
 10
203.2999999999999
 20
224.51539058402031
 30
0.0
 11
203.80000000000001
 21
224.2661212919098
 31
0.0
  0
LINE
  5
3AC
  8
3
 10
203.2999999999999
 20
224.22172563635539
 30
0.0
 11
203.2999999999999
 21
224.51539058402031
 31
0.0
  0
LINE
  5
3AD
  8
3
 10
203.80000000000001
 20
223.6383363674567
 30
0.0
 11
203.2999999999999
 21
224.22172563635539
 31
0.0
  0
LINE
  5
3AE
  8
3
 10
203.80000000000001
 20
223.44245122508241
 30
0.0
 11
203.80000000000001
 21
223.6383363674567
 31
0.0
  0
LINE
  5
3AF
  8
3
 10
203.2999999999999
 20
223.64652011524851
 30
0.0
 11
203.80000000000001
 21
223.44245122508241
 31
0.0
  0
LINE
  5
3B0
  8
3
 10
203.2999999999999
 20
223.31852881945849
 30
0.0
 11
203.2999999999999
 21
223.64652011524851
 31
0.0
  0
LINE
  5
3B1
  8
3
 10
203.80000000000001
 20
222.74128483635889
 30
0.0
 11
203.2999999999999
 21
223.31852881945849
 31
0.0
  0
LINE
  5
3B2
  8
3
 10
203.80000000000001
 20
222.5244920212991
 30
0.0
 11
203.80000000000001
 21
222.74128483635889
 31
0.0
  0
LINE
  5
3B3
  8
3
 10
203.2999999999999
 20
222.68192911287969
 30
0.0
 11
203.80000000000001
 21
222.5244920212991
 31
0.0
  0
LINE
  5
3B4
  8
3
 10
203.2999999999999
 20
222.3219120922426
 30
0.0
 11
203.2999999999999
 21
222.68192911287969
 31
0.0
  0
LINE
  5
3B5
  8
3
 10
203.80000000000001
 20
221.75486234673431
 30
0.0
 11
203.2999999999999
 21
222.3219120922426
 31
0.0
  0
LINE
  5
3B6
  8
3
 10
203.80000000000001
 20
221.51868250482141
 30
0.0
 11
203.80000000000001
 21
221.75486234673431
 31
0.0
  0
LINE
  5
3B7
  8
3
 10
203.2999999999999
 20
221.6283834897375
 30
0.0
 11
203.80000000000001
 21
221.51868250482141
 31
0.0
  0
LINE
  5
3B8
  8
3
 10
203.2999999999999
 20
221.2388660049815
 30
0.0
 11
203.2999999999999
 21
221.6283834897375
 31
0.0
  0
LINE
  5
3B9
  8
3
 10
203.80000000000001
 20
220.68598794360429
 30
0.0
 11
203.2999999999999
 21
221.2388660049815
 31
0.0
  0
LINE
  5
3BA
  8
3
 10
203.80000000000001
 20
220.4320777067345
 30
0.0
 11
203.80000000000001
 21
220.68598794360429
 31
0.0
  0
LINE
  5
3BB
  8
3
 10
203.2999999999999
 20
220.49327311139669
 30
0.0
 11
203.80000000000001
 21
220.4320777067345
 31
0.0
  0
LINE
  5
3BC
  8
3
 10
203.2999999999999
 20
220.07698734780939
 30
0.0
 11
203.2999999999999
 21
220.49327311139669
 31
0.0
  0
LINE
  5
3BD
  8
3
 10
203.80000000000001
 20
219.54215901292201
 30
0.0
 11
203.2999999999999
 21
220.07698734780939
 31
0.0
  0
LINE
  5
3BE
  8
3
 10
203.80000000000001
 20
219.27229937897221
 30
0.0
 11
203.80000000000001
 21
219.54215901292201
 31
0.0
  0
LINE
  5
3BF
  8
3
 10
203.2999999999999
 20
219.2845599615859
 30
0.0
 11
203.80000000000001
 21
219.27229937897221
 31
0.0
  0
LINE
  5
3C0
  8
3
 10
203.2999999999999
 20
218.844425864698
 30
0.0
 11
203.2999999999999
 21
219.2845599615859
 31
0.0
  0
LINE
  5
3C1
  8
3
 10
203.80000000000001
 20
218.33139869279549
 30
0.0
 11
203.2999999999999
 21
218.844425864698
 31
0.0
  0
LINE
  5
3C2
  8
3
 10
203.80000000000001
 20
218.0474825332044
 30
0.0
 11
203.80000000000001
 21
218.33139869279549
 31
0.0
  0
LINE
  5
3C3
  8
3
 10
203.2999999999999
 20
218.0107222945916
 30
0.0
 11
203.80000000000001
 21
218.0474825332044
 31
0.0
  0
LINE
  5
3C4
  8
3
 10
203.2999999999999
 20
217.5498270888576
 30
0.0
 11
203.2999999999999
 21
218.0107222945916
 31
0.0
  0
LINE
  5
3C5
  8
3
 10
203.80000000000001
 20
217.06219959694161
 30
0.0
 11
203.2999999999999
 21
217.5498270888576
 31
0.0
  0
LINE
  5
3C6
  8
3
 10
203.80000000000001
 20
216.76621837957441
 30
0.0
 11
203.80000000000001
 21
217.06219959694161
 31
0.0
  0
LINE
  5
3C7
  8
3
 10
203.2999999999999
 20
216.6806951663969
 30
0.0
 11
203.80000000000001
 21
216.76621837957441
 31
0.0
  0
LINE
  5
3C8
  8
3
 10
203.2999999999999
 20
216.2022717005311
 30
0.0
 11
203.2999999999999
 21
216.6806951663969
 31
0.0
  0
LINE
  5
3C9
  8
3
 10
203.80000000000001
 20
215.7434642450975
 30
0.0
 11
203.2999999999999
 21
216.2022717005311
 31
0.0
  0
LINE
  5
3CA
  8
3
 10
203.80000000000001
 20
215.4374940655328
 30
0.0
 11
203.80000000000001
 21
215.7434642450975
 31
0.0
  0
LINE
  5
3CB
  8
3
 10
203.2999999999999
 20
215.30380776168261
 30
0.0
 11
203.80000000000001
 21
215.4374940655328
 31
0.0
  0
LINE
  5
3CC
  8
3
 10
203.2999999999999
 20
214.81121183255169
 30
0.0
 11
203.2999999999999
 21
215.30380776168261
 31
0.0
  0
LINE
  5
3CD
  8
3
 10
203.80000000000001
 20
214.38444261824759
 30
0.0
 11
203.2999999999999
 21
214.81121183255169
 31
0.0
  0
LINE
  5
3CE
  8
3
 10
203.80000000000001
 20
214.07062963745571
 30
0.0
 11
203.80000000000001
 21
214.38444261824759
 31
0.0
  0
LINE
  5
3CF
  8
3
 10
203.2999999999999
 20
213.88971795630081
 30
0.0
 11
203.80000000000001
 21
214.07062963745571
 31
0.0
  0
LINE
  5
3D0
  8
3
 10
203.2999999999999
 20
213.38640477041761
 30
0.0
 11
203.2999999999999
 21
213.88971795630081
 31
0.0
  0
LINE
  5
3D1
  8
3
 10
203.80000000000001
 20
212.9946672766485
 30
0.0
 11
203.2999999999999
 21
213.38640477041761
 31
0.0
  0
LINE
  5
3D2
  8
3
 10
203.80000000000001
 20
212.67521266721511
 30
0.0
 11
203.80000000000001
 21
212.9946672766485
 31
0.0
  0
LINE
  5
3D3
  8
3
 10
203.2999999999999
 20
212.44834457421399
 30
0.0
 11
203.80000000000001
 21
212.67521266721511
 31
0.0
  0
LINE
  5
3D4
  8
3
 10
203.2999999999999
 20
211.9378445119479
 30
0.0
 11
203.2999999999999
 21
212.44834457421399
 31
0.0
  0
LINE
  5
3D5
  8
3
 10
203.80000000000001
 20
211.58388649576901
 30
0.0
 11
203.2999999999999
 21
211.9378445119479
 31
0.0
  0
LINE
  5
3D6
  8
3
 10
203.80000000000001
 20
211.26103100225151
 30
0.0
 11
203.80000000000001
 21
211.58388649576901
 31
0.0
  0
LINE
  5
3D7
  8
3
 10
203.2999999999999
 20
210.9897978140722
 30
0.0
 11
203.80000000000001
 21
211.26103100225151
 31
0.0
  0
LINE
  5
3D8
  8
3
 10
203.2999999999999
 20
210.47569166656629
 30
0.0
 11
203.2999999999999
 21
210.9897978140722
 31
0.0
  0
LINE
  5
3D9
  8
3
 10
203.80000000000001
 20
210.16248572683949
 30
0.0
 11
203.2999999999999
 21
210.47569166656629
 31
0.0
  0
LINE
  5
3DA
  8
0
 10
203.2999999999999
 20
227.49965910287071
 30
0.0
 11
175.0
 21
227.49965910287071
 31
0.0
  0
LINE
  5
3DB
  8
3
 10
203.2999999999999
 20
227.4888830236128
 30
0.0
 11
175.0
 21
227.4888830236128
 31
0.0
  0
LINE
  5
3DC
  8
3
 10
203.2999999999999
 20
227.42914516985411
 30
0.0
 11
175.0
 21
227.42914516985411
 31
0.0
  0
LINE
  5
3DD
  8
3
 10
203.2999999999999
 20
227.37535926492171
 30
0.0
 11
175.0
 21
227.37535926492171
 31
0.0
  0
LINE
  5
3DE
  8
3
 10
203.2999999999999
 20
227.236378306294
 30
0.0
 11
175.0
 21
227.236378306294
 31
0.0
  0
LINE
  5
3DF
  8
3
 10
203.2999999999999
 20
227.13995984516569
 30
0.0
 11
175.0
 21
227.13995984516569
 31
0.0
  0
LINE
  5
3E0
  8
3
 10
203.2999999999999
 20
226.92271063323571
 30
0.0
 11
175.0
 21
226.92271063323571
 31
0.0
  0
LINE
  5
3E1
  8
3
 10
203.2999999999999
 20
226.7843359221398
 30
0.0
 11
175.0
 21
226.7843359221398
 31
0.0
  0
LINE
  5
3E2
  8
3
 10
203.2999999999999
 20
226.49034230403689
 30
0.0
 11
175.0
 21
226.49034230403689
 31
0.0
  0
LINE
  5
3E3
  8
3
 10
203.2999999999999
 20
226.3109819421488
 30
0.0
 11
175.0
 21
226.3109819421488
 31
0.0
  0
LINE
  5
3E4
  8
3
 10
203.2999999999999
 20
225.94230607186921
 30
0.0
 11
175.0
 21
225.94230607186921
 31
0.0
  0
LINE
  5
3E5
  8
3
 10
203.2999999999999
 20
225.72321814325821
 30
0.0
 11
175.0
 21
225.72321814325821
 31
0.0
  0
LINE
  5
3E6
  8
3
 10
203.2999999999999
 20
225.2824460171388
 30
0.0
 11
175.0
 21
225.2824460171388
 31
0.0
  0
LINE
  5
3E7
  8
3
 10
203.2999999999999
 20
225.02516726620919
 30
0.0
 11
175.0
 21
225.02516726620919
 31
0.0
  0
LINE
  5
3E8
  8
3
 10
203.2999999999999
 20
224.51539058402031
 30
0.0
 11
175.0
 21
224.51539058402031
 31
0.0
  0
LINE
  5
3E9
  8
3
 10
203.2999999999999
 20
224.22172563635539
 30
0.0
 11
175.0
 21
224.22172563635539
 31
0.0
  0
LINE
  5
3EA
  8
3
 10
203.2999999999999
 20
223.64652011524851
 30
0.0
 11
175.0
 21
223.64652011524851
 31
0.0
  0
LINE
  5
3EB
  8
3
 10
203.2999999999999
 20
223.31852881945849
 30
0.0
 11
175.0
 21
223.31852881945849
 31
0.0
  0
LINE
  5
3EC
  8
3
 10
203.2999999999999
 20
222.68192911287969
 30
0.0
 11
175.0
 21
222.68192911287969
 31
0.0
  0
LINE
  5
3ED
  8
3
 10
203.2999999999999
 20
222.3219120922426
 30
0.0
 11
175.0
 21
222.3219120922426
 31
0.0
  0
LINE
  5
3EE
  8
3
 10
203.2999999999999
 20
221.6283834897375
 30
0.0
 11
175.0
 21
221.6283834897375
 31
0.0
  0
LINE
  5
3EF
  8
3
 10
203.2999999999999
 20
221.2388660049815
 30
0.0
 11
175.0
 21
221.2388660049815
 31
0.0
  0
LINE
  5
3F0
  8
3
 10
203.2999999999999
 20
220.49327311139669
 30
0.0
 11
175.0
 21
220.49327311139669
 31
0.0
  0
LINE
  5
3F1
  8
3
 10
203.2999999999999
 20
220.07698734780939
 30
0.0
 11
175.0
 21
220.07698734780939
 31
0.0
  0
LINE
  5
3F2
  8
3
 10
203.2999999999999
 20
219.2845599615859
 30
0.0
 11
175.0
 21
219.2845599615859
 31
0.0
  0
LINE
  5
3F3
  8
3
 10
203.2999999999999
 20
218.844425864698
 30
0.0
 11
175.0
 21
218.844425864698
 31
0.0
  0
LINE
  5
3F4
  8
3
 10
203.2999999999999
 20
218.0107222945916
 30
0.0
 11
175.0
 21
218.0107222945916
 31
0.0
  0
LINE
  5
3F5
  8
3
 10
203.2999999999999
 20
217.5498270888576
 30
0.0
 11
175.0
 21
217.5498270888576
 31
0.0
  0
LINE
  5
3F6
  8
3
 10
203.2999999999999
 20
216.6806951663969
 30
0.0
 11
175.0
 21
216.68069516639679
 31
0.0
  0
LINE
  5
3F7
  8
3
 10
203.2999999999999
 20
216.2022717005311
 30
0.0
 11
175.0
 21
216.2022717005311
 31
0.0
  0
LINE
  5
3F8
  8
3
 10
203.2999999999999
 20
215.30380776168261
 30
0.0
 11
175.0
 21
215.30380776168261
 31
0.0
  0
LINE
  5
3F9
  8
3
 10
203.2999999999999
 20
214.81121183255169
 30
0.0
 11
175.0
 21
214.81121183255161
 31
0.0
  0
LINE
  5
3FA
  8
3
 10
203.2999999999999
 20
213.88971795630081
 30
0.0
 11
175.0
 21
213.88971795630081
 31
0.0
  0
LINE
  5
3FB
  8
3
 10
203.2999999999999
 20
213.38640477041761
 30
0.0
 11
175.0
 21
213.38640477041761
 31
0.0
  0
LINE
  5
3FC
  8
3
 10
203.2999999999999
 20
212.44834457421399
 30
0.0
 11
187.00557773478951
 21
212.44834457421399
 31
0.0
  0
LINE
  5
3FD
  8
3
 10
203.2999999999999
 20
211.9378445119479
 30
0.0
 11
188.07948049925011
 21
211.9378445119479
 31
0.0
  0
LINE
  5
3FE
  8
3
 10
203.2999999999999
 20
210.9897978140722
 30
0.0
 11
188.7957134593106
 21
210.9897978140722
 31
0.0
  0
LINE
  5
3FF
  8
3
 10
203.2999999999999
 20
210.47569166656629
 30
0.0
 11
188.95432626974409
 21
210.47569166656629
 31
0.0
  0
LINE
  5
400
  8
0
 10
205.5
 20
225.30000000000001
 30
0.0
 11
203.80000000000001
 21
227.0
 31
0.0
  0
LINE
  5
401
  8
1
 10
210.5
 20
210.0
 30
0.0
 11
155.0
 21
210.0
 31
0.0
  0
LINE
  5
402
  8
0
 10
160.0
 20
226.5
 30
0.0
 11
160.0
 21
193.5
 31
0.0
  0
LINE
  5
403
  8
0
 10
205.5
 20
225.30000000000001
 30
0.0
 11
205.5
 21
194.69999999999999
 31
0.0
  0
LINE
  5
404
  8
0
 10
160.0
 20
193.5
 30
0.0
 11
175.0
 21
193.5
 31
0.0
  0
LINE
  5
405
  8
0
 10
160.0
 20
226.5
 30
0.0
 11
175.0
 21
226.5
 31
0.0
  0
LINE
  5
406
  8
0
 10
175.0
 20
227.5
 30
0.0
 11
175.0
 21
192.5
 31
0.0
  0
LINE
  5
407
  8
1
 10
186.5
 20
217.5
 30
0.0
 11
186.5
 21
202.50000000000051
 31
0.0
  0
CIRCLE
  5
408
  8
0
 10
280.0
 20
135.28951838529181
 30
0.0
 40
15.300000000000001
  0
CIRCLE
  5
409
  8
0
 10
280.0
 20
135.28951838529181
 30
0.0
 40
13.24999999999998
  0
ARC
  5
40A
  8
0
 10
280.0
 20
135.28951838529181
 30
0.0
 40
17.5
 50
269.15762756265048
 51
270.84237243734998
  0
ARC
  5
40B
  8
0
 10
280.0
 20
135.28951838529181
 30
0.0
 40
17.0
 50
267.05401051631043
 51
268.1459894836903
  0
LINE
  5
40C
  8
0
 10
279.74272124907043
 20
117.79140969765589
 30
0.0
 11
279.4500000000001
 21
118.2984177735009
 31
0.0
  0
LINE
  5
40D
  8
0
 10
280.25727875092952
 20
117.79140969765569
 30
0.0
 11
280.5499999999999
 21
118.2984177735008
 31
0.0
  0
LINE
  5
40E
  8
0
 10
281.72058043551363
 20
117.87430655870379
 30
0.0
 11
281.96984972762408
 21
118.4040307686849
 31
0.0
  0
LINE
  5
40F
  8
0
 10
281.2078275592379
 20
117.8312494966779
 30
0.0
 11
280.87370758244981
 21
118.31198514101951
 31
0.0
  0
ARC
  5
410
  8
0
 10
280.0
 20
135.28951838529181
 30
0.0
 40
17.0
 50
271.85401051631038
 51
272.9459894836902
  0
ARC
  5
411
  8
0
 10
280.0
 20
135.28951838529181
 30
0.0
 40
17.5
 50
273.95762756265049
 51
275.6423724373501
  0
LINE
  5
412
  8
0
 10
283.17181348457808
 20
118.0793586179029
 30
0.0
 11
283.37588237474432
 21
118.6280833272935
 31
0.0
  0
LINE
  5
413
  8
0
 10
282.66446182690021
 20
117.9935465082046
 30
0.0
 11
282.29128673396679
 21
118.4446377059059
 31
0.0
  0
ARC
  5
414
  8
0
 10
280.0
 20
135.28951838529181
 30
0.0
 40
17.0
 50
276.65401051631039
 51
277.74598948369021
  0
ARC
  5
415
  8
0
 10
280.0
 20
135.28951838529181
 30
0.0
 40
17.5
 50
278.7576275626505
 51
280.44237243735012
  0
LINE
  5
416
  8
0
 10
284.60079854099303
 20
118.40512758238749
 30
0.0
 11
284.75823563257359
 21
118.9690038816093
 31
0.0
  0
LINE
  5
417
  8
0
 10
284.10240680925989
 20
118.27716233531051
 30
0.0
 11
283.69279415533219
 21
118.6954450057281
 31
0.0
  0
ARC
  5
418
  8
0
 10
280.0
 20
135.28951838529181
 30
0.0
 40
17.0
 50
281.4540105163104
 51
282.54598948369022
  0
ARC
  5
419
  8
0
 10
280.0
 20
135.28951838529181
 30
0.0
 40
17.5
 50
283.5576275626504
 51
285.24237243735013
  0
LINE
  5
41A
  8
0
 10
285.9975123013121
 20
118.8493284169364
 30
0.0
 11
286.1072132862281
 21
119.42440111889491
 31
0.0
  0
LINE
  5
41B
  8
0
 10
285.51157635542802
 20
118.680107616746
 30
0.0
 11
285.06839927896692
 21
119.0626478074827
 31
0.0
  0
ARC
  5
41C
  8
0
 10
280.0
 20
135.28951838529181
 30
0.0
 40
17.0
 50
286.25401051631042
 51
287.34598948369018
  0
ARC
  5
41D
  8
0
 10
280.0
 20
135.28951838529181
 30
0.0
 40
17.5
 50
288.35762756265052
 51
290.04237243735008
  0
LINE
  5
41E
  8
0
 10
287.35215782204409
 20
119.4088453718531
 30
0.0
 11
287.41335322670642
 21
119.9910807547333
 31
0.0
  0
LINE
  5
41F
  8
0
 10
286.88208615352482
 20
119.1995559808777
 30
0.0
 11
286.4084532232996
 21
119.5436704473501
 31
0.0
  0
ARC
  5
420
  8
0
 10
280.0
 20
135.28951838529181
 30
0.0
 40
17.0
 50
291.05401051631043
 51
292.14598948369019
  0
ARC
  5
421
  8
0
 10
280.0
 20
135.28951838529181
 30
0.0
 40
17.5
 50
293.15762756265042
 51
294.84237243735009
  0
LINE
  5
422
  8
0
 10
288.65523323817263
 20
120.07975383771129
 30
0.0
 11
288.66749382078632
 21
120.6650679386378
 31
0.0
  0
LINE
  5
423
  8
0
 10
288.20432306202679
 20
119.8318638706543
 30
0.0
 11
287.703556472738
 21
120.1351388971261
 31
0.0
  0
ARC
  5
424
  8
0
 10
280.0
 20
135.28951838529181
 30
0.0
 40
17.0
 50
295.85401051631038
 51
296.9459894836902
  0
ARC
  5
425
  8
0
 10
280.0
 20
135.28951838529181
 30
0.0
 40
17.5
 50
297.95762756265037
 51
299.6423724373501
  0
LINE
  5
426
  8
0
 10
289.89759841191182
 20
120.85734787366999
 30
0.0
 11
289.86083817329899
 21
121.4416351347725
 31
0.0
  0
LINE
  5
427
  8
0
 10
289.46901253904662
 20
120.5725961005416
 30
0.0
 11
288.94462480851791
 21
120.8329044306049
 31
0.0
  0
ARC
  5
428
  8
0
 10
280.0
 20
135.28951838529181
 30
0.0
 40
17.0
 50
300.65401051631039
 51
301.74598948369021
  0
ARC
  5
429
  8
0
 10
280.0
 20
135.28951838529181
 30
0.0
 40
17.5
 50
302.75762756265038
 51
304.44237243735012
  0
LINE
  5
42A
  8
0
 10
291.0705390442061
 20
121.7361732162676
 30
0.0
 11
290.98501583102848
 21
122.3153352822191
 31
0.0
  0
LINE
  5
42B
  8
0
 10
290.66728369658108
 20
121.4165569661624
 30
0.0
 11
290.12295302797008
 21
121.6320727239131
 31
0.0
  0
ARC
  5
42C
  8
0
 10
280.0
 20
135.28951838529181
 30
0.0
 40
17.0
 50
305.4540105163104
 51
306.54598948369022
  0
ARC
  5
42D
  8
0
 10
280.0
 20
135.28951838529181
 30
0.0
 40
17.5
 50
307.5576275626504
 51
309.24237243735013
  0
LINE
  5
42E
  8
0
 10
292.1658277992766
 20
122.7100655371608
 30
0.0
 11
292.03214149542629
 21
123.2800400021961
 31
0.0
  0
LINE
  5
42F
  8
0
 10
291.79073152341698
 20
122.3578266884294
 30
0.0
 11
291.23027600526291
 21
122.5270381856747
 31
0.0
  0
ARC
  5
430
  8
0
 10
280.0
 20
135.28951838529181
 30
0.0
 40
17.0
 50
310.25401051631042
 51
311.34598948369018
  0
ARC
  5
431
  8
0
 10
280.0
 20
135.28951838529181
 30
0.0
 40
17.5
 50
312.35762756265041
 51
314.04237243735008
  0
LINE
  5
432
  8
0
 10
293.17578201347038
 20
123.7721936814592
 30
0.0
 11
292.99487033231549
 21
124.32898258423219
 31
0.0
  0
LINE
  5
433
  8
0
 10
292.83147584024482
 20
123.3898029365422
 30
0.0
 11
292.25882666532078
 21
123.5115232762072
 31
0.0
  0
ARC
  5
434
  8
0
 10
280.0
 20
135.28951838529181
 30
0.0
 40
17.0
 50
315.05401051631043
 51
316.1459894836903
  0
ARC
  5
435
  8
0
 10
280.0
 20
135.28951838529181
 30
0.0
 40
17.5
 50
317.15762756265042
 51
318.84237243734998
  0
LINE
  5
436
  8
0
 10
294.093317583626
 20
124.9151075833686
 30
0.0
 11
293.86644949062497
 21
125.4548054497786
 31
0.0
  0
LINE
  5
437
  8
0
 10
293.78221657345608
 20
124.5052471385942
 30
0.0
 11
293.20139046427641
 21
124.57862253995209
 31
0.0
  0
ARC
  5
438
  8
0
 10
280.0
 20
135.28951838529181
 30
0.0
 40
17.0
 50
319.85401051631038
 51
320.94598948369031
  0
ARC
  5
439
  8
0
 10
280.0
 20
135.28951838529181
 30
0.0
 40
17.5
 50
321.95762756265037
 51
323.6423724373501
  0
LINE
  5
43A
  8
0
 10
294.91199865696723
 20
126.1307905230496
 30
0.0
 11
294.64076546878789
 21
126.6496117603362
 31
0.0
  0
LINE
  5
43B
  8
0
 10
294.63628495991361
 20
125.6963352549536
 30
0.0
 11
294.05135599431088
 21
125.7208510422841
 31
0.0
  0
ARC
  5
43C
  8
0
 10
280.0
 20
135.28951838529181
 30
0.0
 40
17.0
 50
324.65401051631039
 51
325.74598948369032
  0
ARC
  5
43D
  8
0
 10
280.0
 20
135.28951838529181
 30
0.0
 40
17.5
 50
326.75762756265038
 51
328.44237243735012
  0
LINE
  5
43E
  8
0
 10
295.62608277398601
 20
127.4107153581474
 30
0.0
 11
295.31238699656268
 21
127.9050208081034
 31
0.0
  0
LINE
  5
43F
  8
0
 10
295.38769032353338
 20
126.9547126582797
 30
0.0
 11
294.80276135793082
 21
126.9301968709492
 31
0.0
  0
ARC
  5
440
  8
0
 10
280.0
 20
135.28951838529181
 30
0.0
 40
17.0
 50
329.4540105163104
 51
330.54598948369022
  0
ARC
  5
441
  8
0
 10
280.0
 20
135.28951838529181
 30
0.0
 40
17.5
 50
331.55762756265051
 51
333.24237243735001
  0
LINE
  5
442
  8
0
 10
296.2305611476703
 20
128.74590433556841
 30
0.0
 11
295.87660313149149
 21
129.2122268006205
 31
0.0
  0
LINE
  5
443
  8
0
 10
296.03116209557402
 20
128.27155273523121
 30
0.0
 11
295.45033598639418
 21
128.1981773338733
 31
0.0
  0
ARC
  5
444
  8
0
 10
280.0
 20
135.28951838529181
 30
0.0
 40
17.0
 50
334.25401051631042
 51
335.34598948369018
  0
ARC
  5
445
  8
0
 10
280.0
 20
135.28951838529181
 30
0.0
 40
17.5
 50
336.35762756265052
 51
338.04237243735002
  0
LINE
  5
446
  8
0
 10
296.72119379654578
 20
130.12699206396809
 30
0.0
 11
296.32945630277652
 21
130.56206062707599
 31
0.0
  0
LINE
  5
447
  8
0
 10
296.56218678388808
 20
129.6376187988165
 30
0.0
 11
295.98953760896399
 21
129.51589845915149
 31
0.0
  0
ARC
  5
448
  8
0
 10
280.0
 20
135.28951838529181
 30
0.0
 40
17.0
 50
339.05401051631043
 51
340.14598948369019
  0
ARC
  5
449
  8
0
 10
280.0
 20
135.28951838529181
 30
0.0
 40
17.5
 50
341.15762756265042
 51
342.84237243734998
  0
LINE
  5
44A
  8
0
 10
297.0945392850997
 20
131.54429120524171
 30
0.0
 11
296.66777007079583
 21
131.94505417303171
 31
0.0
  0
LINE
  5
44B
  8
0
 10
296.97703963182812
 20
131.04332887711669
 30
0.0
 11
296.41658411367388
 21
130.87411737987139
 31
0.0
  0
ARC
  5
44C
  8
0
 10
280.0
 20
135.28951838529181
 30
0.0
 40
17.0
 50
343.85401051631038
 51
344.9459894836902
  0
ARC
  5
44D
  8
0
 10
280.0
 20
135.28951838529181
 30
0.0
 40
17.5
 50
345.95762756265037
 51
347.64237243734999
  0
LINE
  5
44E
  8
0
 10
297.34797886297821
 20
132.9878604242414
 30
0.0
 11
296.88917140754461
 21
133.3515067324422
 31
0.0
  0
LINE
  5
44F
  8
0
 10
297.272810744737
 20
132.47882292393379
 30
0.0
 11
296.72848007612589
 21
132.2633071661831
 31
0.0
  0
ARC
  5
450
  8
0
 10
280.0
 20
135.28951838529181
 30
0.0
 40
17.0
 50
348.65401051631028
 51
349.74598948369021
  0
ARC
  5
451
  8
0
 10
280.0
 20
135.28951838529181
 30
0.0
 40
17.5
 50
350.75762756265038
 51
352.44237243735012
  0
LINE
  5
452
  8
0
 10
297.47973483363842
 20
134.44757412009889
 30
0.0
 11
296.99210734172249
 21
134.771553051138
 31
0.0
  0
LINE
  5
453
  8
0
 10
297.44742550076882
 20
133.9340319799303
 30
0.0
 11
296.92303777024011
 21
133.67372364986699
 31
0.0
  0
ARC
  5
454
  8
0
 10
280.0
 20
135.28951838529181
 30
0.0
 40
17.0
 50
353.45401051631029
 51
354.54598948369022
  0
ARC
  5
455
  8
0
 10
280.0
 20
135.28951838529181
 30
0.0
 40
17.5
 50
355.5576275626504
 51
357.24237243735001
  0
LINE
  5
456
  8
0
 10
297.48888302361291
 20
135.91319345004061
 30
0.0
 11
296.97585585171038
 21
136.19523252449531
 31
0.0
  0
LINE
  5
457
  8
0
 10
297.49965910287068
 20
135.3987487991449
 30
0.0
 11
296.99889251358189
 21
135.0954737726731
 31
0.0
  0
ARC
  5
458
  8
0
 10
280.0
 20
135.28951838529181
 30
0.0
 40
17.0
 50
358.25401051631042
 51
359.34598948369018
  0
ARC
  5
459
  8
0
 10
280.0
 20
135.28951838529181
 30
0.0
 40
17.5
 50
0.3576275626503724
 51
2.0423724373500098
  0
LINE
  5
45A
  8
0
 10
297.37535926492171
 20
137.37443814751299
 30
0.0
 11
296.84053093003422
 21
137.6125590639208
 31
0.0
  0
LINE
  5
45B
  8
0
 10
297.42914516985383
 20
136.8626994454882
 30
0.0
 11
296.95551223962838
 21
136.5185849790158
 31
0.0
  0
ARC
  5
45C
  8
0
 10
280.0
 20
135.28951838529181
 30
0.0
 40
17.0
 50
3.0540105163103601
 51
4.1459894836901814
  0
ARC
  5
45D
  8
0
 10
280.0
 20
135.28951838529181
 30
0.0
 40
17.5
 50
5.1576275626503776
 51
6.8423724373500159
  0
LINE
  5
45E
  8
0
 10
297.13995984516561
 20
138.82105863086619
 30
0.0
 11
296.58708178378862
 21
139.0135911420881
 31
0.0
  0
LINE
  5
45F
  8
0
 10
297.23637830629377
 20
138.31561535702329
 30
0.0
 11
296.79320122983268
 21
137.9330751662867
 31
0.0
  0
ARC
  5
460
  8
0
 10
280.0
 20
135.28951838529181
 30
0.0
 40
17.0
 50
7.8540105163103666
 51
8.9459894836901874
  0
ARC
  5
461
  8
0
 10
280.0
 20
135.28951838529181
 30
0.0
 40
17.5
 50
9.9576275626503854
 51
11.64237243734997
  0
LINE
  5
462
  8
0
 10
296.7843359221398
 20
140.24290789680501
 30
0.0
 11
296.21728617663149
 21
140.38850152560909
 31
0.0
  0
LINE
  5
463
  8
0
 10
296.92271063323579
 20
139.74730537254939
 30
0.0
 11
296.5130979793081
 21
139.32902270213179
 31
0.0
  0
ARC
  5
464
  8
0
 10
280.0
 20
135.28951838529181
 30
0.0
 40
17.0
 50
12.65401051631032
 51
13.74598948369014
  0
ARC
  5
465
  8
0
 10
280.0
 20
135.28951838529181
 30
0.0
 40
17.5
 50
14.75762756265039
 51
16.442372437349981
  0
LINE
  5
466
  8
0
 10
296.31098194214889
 20
141.63001269432581
 30
0.0
 11
295.73373795904939
 21
141.72764620601509
 31
0.0
  0
LINE
  5
467
  8
0
 10
296.49034230403657
 20
141.14772721527541
 30
0.0
 11
296.11716721110332
 21
140.69663601757409
 31
0.0
  0
ARC
  5
468
  8
0
 10
280.0
 20
135.28951838529181
 30
0.0
 40
17.0
 50
17.45401051631033
 51
18.54598948369015
  0
ARC
  5
469
  8
0
 10
280.0
 20
135.28951838529181
 30
0.0
 40
17.5
 50
19.55762756265035
 51
21.242372437349989
  0
LINE
  5
46A
  8
0
 10
295.72321814325829
 20
142.9726434799077
 30
0.0
 11
295.13982887435958
 21
143.02163204554719
 31
0.0
  0
LINE
  5
46B
  8
0
 10
295.9423060718691
 20
142.5070579321762
 30
0.0
 11
295.60818609508112
 21
142.0263222878346
 31
0.0
  0
ARC
  5
46C
  8
0
 10
280.0
 20
135.28951838529181
 30
0.0
 40
17.0
 50
22.254010516310341
 51
23.345989483690161
  0
ARC
  5
46D
  8
0
 10
280.0
 20
135.28951838529181
 30
0.0
 40
17.5
 50
24.357627562650361
 51
26.04237243735
  0
LINE
  5
46E
  8
0
 10
295.02516726620922
 20
144.26138266326859
 30
0.0
 11
294.43972476806829
 21
144.26138266326859
 31
0.0
  0
LINE
  5
46F
  8
0
 10
295.28244601713862
 20
143.8157627949507
 30
0.0
 11
294.98972476806819
 21
143.30875471910571
 31
0.0
  0
ARC
  5
470
  8
0
 10
280.0
 20
135.28951838529181
 30
0.0
 40
17.0
 50
27.054010516310349
 51
28.145989483690169
  0
ARC
  5
471
  8
0
 10
280.0
 20
135.28951838529181
 30
0.0
 40
17.5
 50
29.157627562650369
 51
30.842372437350001
  0
LINE
  5
472
  8
0
 10
294.22172563635559
 20
145.48719066499501
 30
0.0
 11
293.63833636745699
 21
145.43820209935561
 31
0.0
  0
LINE
  5
473
  8
0
 10
294.51539058402022
 20
145.0646621792896
 30
0.0
 11
294.26612129190971
 21
144.53493796930849
 31
0.0
  0
ARC
  5
474
  8
0
 10
280.0
 20
135.28951838529181
 30
0.0
 40
17.0
 50
31.85401051631036
 51
32.94598948369017
  0
ARC
  5
475
  8
0
 10
280.0
 20
135.28951838529181
 30
0.0
 40
17.5
 50
33.95762756265038
 51
35.642372437349998
  0
LINE
  5
476
  8
0
 10
293.31852881945861
 20
146.64146932269691
 30
0.0
 11
292.741284836359
 21
146.54383581100751
 31
0.0
  0
LINE
  5
477
  8
0
 10
293.64652011524862
 20
146.24499595334481
 30
0.0
 11
293.44245122508238
 21
145.69627124395419
 31
0.0
  0
ARC
  5
478
  8
0
 10
280.0
 20
135.28951838529181
 30
0.0
 40
17.0
 50
36.654010516310358
 51
37.745989483690181
  0
ARC
  5
479
  8
0
 10
280.0
 20
135.28951838529181
 30
0.0
 40
17.5
 50
38.757627562650377
 51
40.442372437350009
  0
LINE
  5
47A
  8
0
 10
292.32191209224288
 20
147.7161222009382
 30
0.0
 11
291.75486234673463
 21
147.57052857213409
 31
0.0
  0
LINE
  5
47B
  8
0
 10
292.68192911287969
 20
147.3484849237598
 30
0.0
 11
292.52449202129912
 21
146.78460862453801
 31
0.0
  0
ARC
  5
47C
  8
0
 10
280.0
 20
135.28951838529181
 30
0.0
 40
17.0
 50
41.454010516310362
 51
42.545989483690178
  0
ARC
  5
47D
  8
0
 10
280.0
 20
135.28951838529181
 30
0.0
 40
17.5
 50
43.557627562650381
 51
45.242372437350021
  0
LINE
  5
47E
  8
0
 10
291.23886600498179
 20
148.70361138191541
 30
0.0
 11
290.68598794360469
 21
148.5110788706935
 31
0.0
  0
LINE
  5
47F
  8
0
 10
291.62838348973747
 20
148.36738890826291
 30
0.0
 11
291.51868250482153
 21
147.79231620630441
 31
0.0
  0
ARC
  5
480
  8
0
 10
280.0
 20
135.28951838529181
 30
0.0
 40
17.0
 50
46.254010516310373
 51
47.345989483690182
  0
ARC
  5
481
  8
0
 10
280.0
 20
135.28951838529181
 30
0.0
 40
17.5
 50
48.357627562650393
 51
50.042372437350018
  0
LINE
  5
482
  8
0
 10
290.07698734780968
 20
149.59701033853369
 30
0.0
 11
289.54215901292218
 21
149.358889422126
 31
0.0
  0
LINE
  5
483
  8
0
 10
290.49327311139672
 20
149.29456102748441
 30
0.0
 11
290.4320777067345
 21
148.71232564460431
 31
0.0
  0
ARC
  5
484
  8
0
 10
280.0
 20
135.2895183852917
 30
0.0
 40
17.0
 50
51.05401051631037
 51
52.145989483690201
  0
ARC
  5
485
  8
0
 10
280.0
 20
135.2895183852917
 30
0.0
 40
17.5
 50
53.157627562650397
 51
54.842372437350029
  0
LINE
  5
486
  8
0
 10
288.84442586469828
 20
150.39005251901889
 30
0.0
 11
288.33139869279591
 21
150.10801344456419
 31
0.0
  0
LINE
  5
487
  8
0
 10
289.28455996158579
 20
150.12349783518019
 30
0.0
 11
289.27229937897221
 21
149.53818373425381
 31
0.0
  0
ARC
  5
488
  8
0
 10
280.0
 20
135.28951838529181
 30
0.0
 40
17.0
 50
55.854010516310389
 51
56.945989483690198
  0
ARC
  5
489
  8
0
 10
280.0
 20
135.28951838529181
 30
0.0
 40
17.5
 50
57.957627562650401
 51
59.642372437350041
  0
LINE
  5
48A
  8
0
 10
287.54982708885711
 20
151.07717530227481
 30
0.0
 11
287.0621995969413
 21
150.7531963712357
 31
0.0
  0
LINE
  5
48B
  8
0
 10
288.01072229459157
 20
150.84838493523461
 30
0.0
 11
288.0474825332044
 21
150.26409767413219
 31
0.0
  0
ARC
  5
48C
  8
0
 10
280.0
 20
135.28951838529181
 30
0.0
 40
17.0
 50
60.654010516310393
 51
61.745989483690209
  0
ARC
  5
48D
  8
0
 10
280.0
 20
135.28951838529181
 30
0.0
 40
17.5
 50
62.757627562650413
 51
64.442372437350045
  0
LINE
  5
48E
  8
0
 10
286.20227170053101
 20
151.65355901567381
 30
0.0
 11
285.74346424509753
 21
151.28991270747301
 31
0.0
  0
LINE
  5
48F
  8
0
 10
286.6806951663969
 20
151.46413776547129
 30
0.0
 11
286.76621837957441
 21
150.8849756995198
 31
0.0
  0
ARC
  5
490
  8
0
 10
280.0
 20
135.28951838529181
 30
0.0
 40
17.0
 50
65.454010516310404
 51
66.545989483690221
  0
ARC
  5
491
  8
0
 10
280.0
 20
135.28951838529181
 30
0.0
 40
17.5
 50
67.557627562650424
 51
69.242372437350056
  0
LINE
  5
492
  8
0
 10
284.81121183255158
 20
152.1151607415978
 30
0.0
 11
284.3844426182477
 21
151.71439777380769
 31
0.0
  0
LINE
  5
493
  8
0
 10
285.30380776168261
 20
151.96643726220401
 30
0.0
 11
285.43749406553292
 21
151.39646279716871
 31
0.0
  0
ARC
  5
494
  8
0
 10
280.0
 20
135.28951838529181
 30
0.0
 40
17.0
 50
70.254010516310402
 51
71.345989483690232
  0
ARC
  5
495
  8
0
 10
280.0
 20
135.28951838529181
 30
0.0
 40
17.5
 50
72.357627562650421
 51
74.042372437350068
  0
LINE
  5
496
  8
0
 10
283.38640477041793
 20
152.4587426755995
 30
0.0
 11
282.99466727664873
 21
152.02367411249151
 31
0.0
  0
LINE
  5
497
  8
0
 10
283.8897179563009
 20
152.3517601553649
 30
0.0
 11
284.07062963745568
 21
151.79497125259189
 31
0.0
  0
ARC
  5
498
  8
0
 10
280.0
 20
135.2895183852917
 30
0.0
 40
17.0
 50
75.054010516310413
 51
76.145989483690229
  0
ARC
  5
499
  8
0
 10
280.0
 20
135.2895183852917
 30
0.0
 40
17.5
 50
77.157627562650433
 51
78.842372437350065
  0
LINE
  5
49A
  8
0
 10
281.93784451194807
 20
152.68189483727539
 30
0.0
 11
281.58388649576932
 21
152.21557237222331
 31
0.0
  0
LINE
  5
49B
  8
0
 10
282.4483445742141
 20
152.6174036817124
 30
0.0
 11
282.67521266721508
 21
152.07770581530249
 31
0.0
  0
ARC
  5
49C
  8
0
 10
280.0
 20
135.2895183852917
 30
0.0
 40
17.0
 50
79.854010516310424
 51
80.945989483690227
  0
ARC
  5
49D
  8
0
 10
280.0
 20
135.2895183852917
 30
0.0
 40
17.5
 50
81.957627562650444
 51
83.642372437350076
  0
LINE
  5
49E
  8
0
 10
280.47569166656632
 20
152.7830519745458
 30
0.0
 11
280.16199588914299
 21
152.28874652458981
 31
0.0
  0
LINE
  5
49F
  8
0
 10
280.98979781407229
 20
152.76150454277411
 30
0.0
 11
281.26103100225168
 21
152.24268330548759
 31
0.0
  0
ARC
  5
4A0
  8
0
 10
280.0
 20
135.28951838529181
 30
0.0
 40
17.0
 50
84.654010516310422
 51
85.745989483690252
  0
ARC
  5
4A1
  8
0
 10
280.0
 20
135.28951838529181
 30
0.0
 40
17.5
 50
86.757627562650441
 51
88.442372437350073
  0
LINE
  5
4A2
  8
0
 10
279.01020218592771
 20
152.7615045427743
 30
0.0
 11
278.73896899774837
 21
152.2426833054877
 31
0.0
  0
LINE
  5
4A3
  8
0
 10
279.52430833343368
 20
152.78305197454571
 30
0.0
 11
279.83800411085701
 21
152.28874652458981
 31
0.0
  0
ARC
  5
4A4
  8
0
 10
280.0
 20
135.28951838529181
 30
0.0
 40
17.0
 50
89.454010516310419
 51
90.545989483690235
  0
ARC
  5
4A5
  8
0
 10
280.0
 20
135.28951838529181
 30
0.0
 40
17.5
 50
91.557627562650467
 51
93.242372437350085
  0
LINE
  5
4A6
  8
0
 10
277.55165542578601
 20
152.6174036817126
 30
0.0
 11
277.32478733278492
 21
152.07770581530261
 31
0.0
  0
LINE
  5
4A7
  8
0
 10
278.06215548805199
 20
152.68189483727519
 30
0.0
 11
278.41611350423068
 21
152.21557237222319
 31
0.0
  0
ARC
  5
4A8
  8
0
 10
280.0
 20
135.28951838529181
 30
0.0
 40
17.0
 50
94.254010516310444
 51
95.345989483690261
  0
ARC
  5
4A9
  8
0
 10
280.0
 20
135.28951838529181
 30
0.0
 40
17.5
 50
96.357627562650464
 51
98.042372437350096
  0
LINE
  5
4AA
  8
0
 10
276.11028204369921
 20
152.35176015536501
 30
0.0
 11
275.92937036254438
 21
151.79497125259201
 31
0.0
  0
LINE
  5
4AB
  8
0
 10
276.61359522958219
 20
152.4587426755993
 30
0.0
 11
277.00533272335139
 21
152.02367411249139
 31
0.0
  0
ARC
  5
4AC
  8
0
 10
280.0
 20
135.28951838529181
 30
0.0
 40
17.0
 50
99.054010516310498
 51
100.1459894836903
  0
ARC
  5
4AD
  8
0
 10
280.0
 20
135.28951838529181
 30
0.0
 40
17.5
 50
101.1576275626505
 51
102.84237243735009
  0
LINE
  5
4AE
  8
0
 10
274.69619223831739
 20
151.96643726220421
 30
0.0
 11
274.5625059344672
 21
151.39646279716879
 31
0.0
  0
LINE
  5
4AF
  8
0
 10
275.18878816744848
 20
152.11516074159761
 30
0.0
 11
275.61555738175241
 21
151.7143977738076
 31
0.0
  0
ARC
  5
4B0
  8
0
 10
280.0
 20
135.28951838529181
 30
0.0
 40
17.0
 50
103.8540105163104
 51
104.9459894836902
  0
ARC
  5
4B1
  8
0
 10
280.0
 20
135.28951838529181
 30
0.0
 40
17.5
 50
105.9576275626504
 51
107.6423724373501
  0
LINE
  5
4B2
  8
0
 10
273.31930483360321
 20
151.46413776547141
 30
0.0
 11
273.23378162042559
 21
150.88497569951991
 31
0.0
  0
LINE
  5
4B3
  8
0
 10
273.79772829946921
 20
151.65355901567369
 30
0.0
 11
274.25653575490259
 21
151.28991270747289
 31
0.0
  0
ARC
  5
4B4
  8
0
 10
280.0
 20
135.28951838529181
 30
0.0
 40
17.0
 50
108.65401051631051
 51
109.74598948369029
  0
ARC
  5
4B5
  8
0
 10
280.0
 20
135.28951838529181
 30
0.0
 40
17.5
 50
110.7576275626505
 51
112.4423724373501
  0
LINE
  5
4B6
  8
0
 10
271.98927770540843
 20
150.8483849352348
 30
0.0
 11
271.9525174667956
 21
150.2640976741323
 31
0.0
  0
LINE
  5
4B7
  8
0
 10
272.450172911143
 20
151.07717530227461
 30
0.0
 11
272.93780040305887
 21
150.75319637123559
 31
0.0
  0
ARC
  5
4B8
  8
0
 10
280.0
 20
135.28951838529181
 30
0.0
 40
17.0
 50
113.4540105163104
 51
114.54598948369021
  0
ARC
  5
4B9
  8
0
 10
280.0
 20
135.28951838529181
 30
0.0
 40
17.5
 50
115.5576275626504
 51
117.2423724373501
  0
LINE
  5
4BA
  8
0
 10
270.7154400384141
 20
150.12349783518039
 30
0.0
 11
270.72770062102779
 21
149.53818373425389
 31
0.0
  0
LINE
  5
4BB
  8
0
 10
271.15557413530189
 20
150.39005251901881
 30
0.0
 11
271.66860130720431
 21
150.10801344456419
 31
0.0
  0
ARC
  5
4BC
  8
0
 10
280.0
 20
135.28951838529181
 30
0.0
 40
17.0
 50
118.2540105163105
 51
119.3459894836903
  0
ARC
  5
4BD
  8
0
 10
280.0
 20
135.28951838529181
 30
0.0
 40
17.5
 50
120.35762756265051
 51
122.0423724373501
  0
LINE
  5
4BE
  8
0
 10
269.50672688860323
 20
149.2945610274846
 30
0.0
 11
269.5679222932655
 21
148.71232564460439
 31
0.0
  0
LINE
  5
4BF
  8
0
 10
269.92301265219038
 20
149.59701033853369
 30
0.0
 11
270.45784098707787
 21
149.35888942212591
 31
0.0
  0
ARC
  5
4C0
  8
0
 10
280.0
 20
135.28951838529181
 30
0.0
 40
17.0
 50
123.0540105163104
 51
124.1459894836902
  0
ARC
  5
4C1
  8
0
 10
280.0
 20
135.28951838529181
 30
0.0
 40
17.5
 50
125.1576275626504
 51
126.84237243735009
  0
LINE
  5
4C2
  8
0
 10
268.37161651026253
 20
148.36738890826311
 30
0.0
 11
268.48131749517847
 21
147.7923162063046
 31
0.0
  0
LINE
  5
4C3
  8
0
 10
268.76113399501838
 20
148.70361138191541
 30
0.0
 11
269.31401205639543
 21
148.5110788706935
 31
0.0
  0
ARC
  5
4C4
  8
0
 10
280.0
 20
135.28951838529181
 30
0.0
 40
17.0
 50
127.8540105163105
 51
128.94598948369031
  0
ARC
  5
4C5
  8
0
 10
280.0
 20
135.28951838529181
 30
0.0
 40
17.5
 50
129.95762756265049
 51
131.6423724373501
  0
LINE
  5
4C6
  8
0
 10
267.3180708871202
 20
147.34848492376
 30
0.0
 11
267.47550797870082
 21
146.78460862453821
 31
0.0
  0
LINE
  5
4C7
  8
0
 10
267.67808790775717
 20
147.7161222009382
 30
0.0
 11
268.2451376532656
 21
147.57052857213409
 31
0.0
  0
ARC
  5
4C8
  8
0
 10
280.0
 20
135.28951838529181
 30
0.0
 40
17.0
 50
132.65401051631039
 51
133.74598948369021
  0
ARC
  5
4C9
  8
0
 10
280.0
 20
135.28951838529181
 30
0.0
 40
17.5
 50
134.75762756265041
 51
136.44237243735009
  0
LINE
  5
4CA
  8
0
 10
266.35347988475132
 20
146.2449959533449
 30
0.0
 11
266.55754877491751
 21
145.6962712439543
 31
0.0
  0
LINE
  5
4CB
  8
0
 10
266.68147118054151
 20
146.64146932269691
 30
0.0
 11
267.25871516364111
 21
146.54383581100751
 31
0.0
  0
ARC
  5
4CC
  8
0
 10
280.0
 20
135.28951838529181
 30
0.0
 40
17.0
 50
137.4540105163104
 51
138.54598948369019
  0
ARC
  5
4CD
  8
0
 10
280.0
 20
135.28951838529181
 30
0.0
 40
17.5
 50
139.55762756265051
 51
141.2423724373501
  0
LINE
  5
4CE
  8
0
 10
265.48460941597972
 20
145.0646621792898
 30
0.0
 11
265.73387870809029
 21
144.5349379693086
 31
0.0
  0
LINE
  5
4CF
  8
0
 10
265.77827436364458
 20
145.48719066499501
 30
0.0
 11
266.36166363254313
 21
145.43820209935561
 31
0.0
  0
ARC
  5
4D0
  8
0
 10
280.0
 20
135.28951838529181
 30
0.0
 40
17.0
 50
142.25401051631039
 51
143.3459894836902
  0
ARC
  5
4D1
  8
0
 10
280.0
 20
135.28951838529181
 30
0.0
 40
17.5
 50
144.35762756265041
 51
146.04237243735011
  0
LINE
  5
4D2
  8
0
 10
264.71755398286132
 20
143.8157627949509
 30
0.0
 11
265.0102752319317
 21
143.30875471910591
 31
0.0
  0
LINE
  5
4D3
  8
0
 10
264.97483273379089
 20
144.26138266326859
 30
0.0
 11
265.56027523193171
 21
144.26138266326859
 31
0.0
  0
ARC
  5
4D4
  8
0
 10
280.0
 20
135.28951838529181
 30
0.0
 40
17.0
 50
147.0540105163104
 51
148.14598948369019
  0
ARC
  5
4D5
  8
0
 10
280.0
 20
135.28951838529181
 30
0.0
 40
17.5
 50
149.1576275626505
 51
150.84237243735009
  0
LINE
  5
4D6
  8
0
 10
264.05769392813079
 20
142.50705793217639
 30
0.0
 11
264.39181390491882
 21
142.02632228783469
 31
0.0
  0
LINE
  5
4D7
  8
0
 10
264.27678185674188
 20
142.9726434799077
 30
0.0
 11
264.86017112564048
 21
143.02163204554719
 31
0.0
  0
ARC
  5
4D8
  8
0
 10
280.0
 20
135.2895183852917
 30
0.0
 40
17.0
 50
151.85401051631041
 51
152.94598948369031
  0
ARC
  5
4D9
  8
0
 10
280.0
 20
135.2895183852917
 30
0.0
 40
17.5
 50
153.95762756265049
 51
155.64237243735019
  0
LINE
  5
4DA
  8
0
 10
263.5096576959632
 20
141.14772721527549
 30
0.0
 11
263.88283278889668
 21
140.69663601757421
 31
0.0
  0
LINE
  5
4DB
  8
0
 10
263.68901805785117
 20
141.63001269432581
 30
0.0
 11
264.26626204095078
 21
141.72764620601509
 31
0.0
  0
ARC
  5
4DC
  8
0
 10
280.0
 20
135.28951838529181
 30
0.0
 40
17.0
 50
156.65401051631039
 51
157.74598948369029
  0
ARC
  5
4DD
  8
0
 10
280.0
 20
135.28951838529181
 30
0.0
 40
17.5
 50
158.75762756265061
 51
160.4423724373502
  0
LINE
  5
4DE
  8
0
 10
263.07728936676398
 20
139.7473053725495
 30
0.0
 11
263.48690202069179
 21
139.32902270213191
 31
0.0
  0
LINE
  5
4DF
  8
0
 10
263.21566407786031
 20
140.24290789680501
 30
0.0
 11
263.78271382336862
 21
140.3885015256092
 31
0.0
  0
ARC
  5
4E0
  8
0
 10
280.0
 20
135.28951838529181
 30
0.0
 40
17.0
 50
161.4540105163104
 51
162.54598948369031
  0
ARC
  5
4E1
  8
0
 10
280.0
 20
135.28951838529181
 30
0.0
 40
17.5
 50
163.55762756265051
 51
165.24237243735021
  0
LINE
  5
4E2
  8
0
 10
262.76362169370611
 20
138.3156153570234
 30
0.0
 11
263.20679877016721
 21
137.9330751662867
 31
0.0
  0
LINE
  5
4E3
  8
0
 10
262.86004015483462
 20
138.8210586308663
 30
0.0
 11
263.41291821621161
 21
139.0135911420881
 31
0.0
  0
ARC
  5
4E4
  8
0
 10
280.0
 20
135.28951838529181
 30
0.0
 40
17.0
 50
166.25401051631039
 51
167.34598948369029
  0
ARC
  5
4E5
  8
0
 10
280.0
 20
135.28951838529181
 30
0.0
 40
17.5
 50
168.35762756265061
 51
170.0423724373502
  0
LINE
  5
4E6
  8
0
 10
262.57085483014612
 20
136.86269944548829
 30
0.0
 11
263.0444877603714
 21
136.51858497901591
 31
0.0
  0
LINE
  5
4E7
  8
0
 10
262.6246407350784
 20
137.3744381475131
 30
0.0
 11
263.15946906996589
 21
137.6125590639208
 31
0.0
  0
ARC
  5
4E8
  8
0
 10
280.0
 20
135.28951838529181
 30
0.0
 40
17.0
 50
171.05401051631051
 51
172.1459894836903
  0
ARC
  5
4E9
  8
0
 10
280.0
 20
135.28951838529181
 30
0.0
 40
17.5
 50
173.1576275626505
 51
174.84237243735021
  0
LINE
  5
4EA
  8
0
 10
262.50034089712909
 20
135.39874879914501
 30
0.0
 11
263.00110748641788
 21
135.09547377267319
 31
0.0
  0
LINE
  5
4EB
  8
0
 10
262.51111697638731
 20
135.91319345004069
 30
0.0
 11
263.02414414828968
 21
136.19523252449531
 31
0.0
  0
ARC
  5
4EC
  8
0
 10
280.0
 20
135.28951838529181
 30
0.0
 40
17.0
 50
175.8540105163105
 51
176.94598948369031
  0
ARC
  5
4ED
  8
0
 10
280.0
 20
135.28951838529181
 30
0.0
 40
17.5
 50
177.9576275626506
 51
179.64237243735019
  0
LINE
  5
4EE
  8
0
 10
262.55257449923101
 20
133.93403197993041
 30
0.0
 11
263.07696222975977
 21
133.6737236498671
 31
0.0
  0
LINE
  5
4EF
  8
0
 10
262.5202651663617
 20
134.44757412009901
 30
0.0
 11
263.00789265827763
 21
134.77155305113811
 31
0.0
  0
ARC
  5
4F0
  8
0
 10
280.0
 20
135.28951838529181
 30
0.0
 40
17.0
 50
180.65401051631051
 51
181.74598948369029
  0
ARC
  5
4F1
  8
0
 10
280.0
 20
135.28951838529181
 30
0.0
 40
17.5
 50
182.7576275626505
 51
184.4423724373502
  0
LINE
  5
4F2
  8
0
 10
262.72718925526289
 20
132.47882292393379
 30
0.0
 11
263.271519923874
 21
132.2633071661831
 31
0.0
  0
LINE
  5
4F3
  8
0
 10
262.65202113702202
 20
132.98786042424149
 30
0.0
 11
263.1108285924555
 21
133.35150673244229
 31
0.0
  0
ARC
  5
4F4
  8
0
 10
280.0
 20
135.28951838529181
 30
0.0
 40
17.0
 50
185.45401051631049
 51
186.54598948369031
  0
ARC
  5
4F5
  8
0
 10
280.0
 20
135.28951838529181
 30
0.0
 40
17.5
 50
187.55762756265059
 51
189.24237243735021
  0
LINE
  5
4F6
  8
0
 10
263.02296036817182
 20
131.04332887711669
 30
0.0
 11
263.58341588632589
 21
130.87411737987139
 31
0.0
  0
LINE
  5
4F7
  8
0
 10
262.90546071490041
 20
131.54429120524179
 30
0.0
 11
263.33222992920429
 21
131.94505417303179
 31
0.0
  0
ARC
  5
4F8
  8
0
 10
280.0
 20
135.28951838529181
 30
0.0
 40
17.0
 50
190.2540105163105
 51
191.34598948369029
  0
ARC
  5
4F9
  8
0
 10
280.0
 20
135.28951838529181
 30
0.0
 40
17.5
 50
192.35762756265061
 51
194.0423724373502
  0
LINE
  5
4FA
  8
0
 10
263.43781321611169
 20
129.6376187988165
 30
0.0
 11
264.01046239103579
 21
129.51589845915149
 31
0.0
  0
LINE
  5
4FB
  8
0
 10
263.27880620345428
 20
130.1269920639682
 30
0.0
 11
263.67054369722348
 21
130.56206062707611
 31
0.0
  0
ARC
  5
4FC
  8
0
 10
280.0
 20
135.28951838529181
 30
0.0
 40
17.0
 50
195.05401051631051
 51
196.1459894836903
  0
ARC
  5
4FD
  8
0
 10
280.0
 20
135.28951838529181
 30
0.0
 40
17.5
 50
197.15762756265059
 51
198.84237243735021
  0
LINE
  5
4FE
  8
0
 10
263.96883790442592
 20
128.27155273523121
 30
0.0
 11
264.54966401360571
 21
128.1981773338733
 31
0.0
  0
LINE
  5
4FF
  8
0
 10
263.76943885232981
 20
128.74590433556861
 30
0.0
 11
264.12339686850851
 21
129.2122268006205
 31
0.0
  0
ARC
  5
500
  8
0
 10
280.0
 20
135.28951838529181
 30
0.0
 40
17.0
 50
199.8540105163105
 51
200.9459894836904
  0
ARC
  5
501
  8
0
 10
280.0
 20
135.28951838529181
 30
0.0
 40
17.5
 50
201.9576275626506
 51
203.6423724373503
  0
LINE
  5
502
  8
0
 10
264.6123096764664
 20
126.9547126582797
 30
0.0
 11
265.19723864206912
 21
126.9301968709492
 31
0.0
  0
LINE
  5
503
  8
0
 10
264.37391722601399
 20
127.4107153581475
 30
0.0
 11
264.68761300343738
 21
127.9050208081035
 31
0.0
  0
ARC
  5
504
  8
0
 10
280.0
 20
135.28951838529181
 30
0.0
 40
17.0
 50
204.65401051631059
 51
205.74598948369041
  0
ARC
  5
505
  8
0
 10
280.0
 20
135.28951838529181
 30
0.0
 40
17.5
 50
206.75762756265061
 51
208.44237243735029
  0
LINE
  5
506
  8
0
 10
265.36371504008628
 20
125.6963352549536
 30
0.0
 11
265.94864400568889
 21
125.720851042284
 31
0.0
  0
LINE
  5
507
  8
0
 10
265.08800134303289
 20
126.1307905230498
 30
0.0
 11
265.35923453121222
 21
126.6496117603362
 31
0.0
  0
ARC
  5
508
  8
0
 10
280.0
 20
135.28951838529181
 30
0.0
 40
17.0
 50
209.4540105163106
 51
210.54598948369039
  0
ARC
  5
509
  8
0
 10
280.0
 20
135.28951838529181
 30
0.0
 40
17.5
 50
211.55762756265059
 51
213.2423724373503
  0
LINE
  5
50A
  8
0
 10
266.21778342654369
 20
124.5052471385941
 30
0.0
 11
266.79860953572347
 21
124.57862253995209
 31
0.0
  0
LINE
  5
50B
  8
0
 10
265.906682416374
 20
124.91510758336869
 30
0.0
 11
266.13355050937508
 21
125.4548054497787
 31
0.0
  0
ARC
  5
50C
  8
0
 10
280.0
 20
135.28951838529181
 30
0.0
 40
17.0
 50
214.25401051631059
 51
215.3459894836904
  0
ARC
  5
50D
  8
0
 10
280.0
 20
135.28951838529181
 30
0.0
 40
17.5
 50
216.35762756265061
 51
218.04237243735031
  0
LINE
  5
50E
  8
0
 10
267.16852415975501
 20
123.3898029365421
 30
0.0
 11
267.7411733346791
 21
123.5115232762072
 31
0.0
  0
LINE
  5
50F
  8
0
 10
266.82421798652967
 20
123.7721936814593
 30
0.0
 11
267.00512966768451
 21
124.32898258423231
 31
0.0
  0
ARC
  5
510
  8
0
 10
280.0
 20
135.28951838529181
 30
0.0
 40
17.0
 50
219.0540105163106
 51
220.14598948369041
  0
ARC
  5
511
  8
0
 10
280.0
 20
135.28951838529181
 30
0.0
 40
17.5
 50
221.15762756265059
 51
222.84237243735029
  0
LINE
  5
512
  8
0
 10
268.20926847658291
 20
122.3578266884293
 30
0.0
 11
268.76972399473698
 21
122.5270381856746
 31
0.0
  0
LINE
  5
513
  8
0
 10
267.8341722007234
 20
122.7100655371609
 30
0.0
 11
267.96785850457371
 21
123.2800400021962
 31
0.0
  0
ARC
  5
514
  8
0
 10
280.0
 20
135.28951838529181
 30
0.0
 40
17.0
 50
223.85401051631061
 51
224.9459894836904
  0
ARC
  5
515
  8
0
 10
280.0
 20
135.28951838529181
 30
0.0
 40
17.5
 50
225.9576275626506
 51
227.6423724373503
  0
LINE
  5
516
  8
0
 10
269.33271630341869
 20
121.4165569661623
 30
0.0
 11
269.87704697202969
 21
121.632072723913
 31
0.0
  0
LINE
  5
517
  8
0
 10
268.9294609557939
 20
121.7361732162677
 30
0.0
 11
269.01498416897152
 21
122.31533528221919
 31
0.0
  0
ARC
  5
518
  8
0
 10
280.0
 20
135.28951838529181
 30
0.0
 40
17.0
 50
228.65401051631059
 51
229.74598948369041
  0
ARC
  5
519
  8
0
 10
280.0
 20
135.28951838529181
 30
0.0
 40
17.5
 50
230.7576275626507
 51
232.44237243735029
  0
LINE
  5
51A
  8
0
 10
270.53098746095321
 20
120.5725961005415
 30
0.0
 11
271.05537519148203
 21
120.8329044306049
 31
0.0
  0
LINE
  5
51B
  8
0
 10
270.10240158808818
 20
120.85734787367019
 30
0.0
 11
270.13916182670101
 21
121.4416351347726
 31
0.0
  0
ARC
  5
51C
  8
0
 10
280.0
 20
135.28951838529181
 30
0.0
 40
17.0
 50
233.4540105163106
 51
234.54598948369039
  0
ARC
  5
51D
  8
0
 10
280.0
 20
135.28951838529181
 30
0.0
 40
17.5
 50
235.55762756265071
 51
237.2423724373503
  0
LINE
  5
51E
  8
0
 10
271.7956769379731
 20
119.8318638706542
 30
0.0
 11
272.29644352726189
 21
120.135138897126
 31
0.0
  0
LINE
  5
51F
  8
0
 10
271.34476676182737
 20
120.07975383771149
 30
0.0
 11
271.33250617921379
 21
120.665067938638
 31
0.0
  0
ARC
  5
520
  8
0
 10
280.0
 20
135.28951838529181
 30
0.0
 40
17.0
 50
238.25401051631059
 51
239.34598948369049
  0
ARC
  5
521
  8
0
 10
280.0
 20
135.28951838529181
 30
0.0
 40
17.5
 50
240.35762756265069
 51
242.04237243735031
  0
LINE
  5
522
  8
0
 10
273.11791384647512
 20
119.19955598087751
 30
0.0
 11
273.5915467767004
 21
119.54367044735
 31
0.0
  0
LINE
  5
523
  8
0
 10
272.64784217795591
 20
119.4088453718533
 30
0.0
 11
272.58664677329358
 21
119.9910807547335
 31
0.0
  0
ARC
  5
524
  8
0
 10
280.0
 20
135.28951838529181
 30
0.0
 40
17.0
 50
243.0540105163106
 51
244.1459894836905
  0
ARC
  5
525
  8
0
 10
280.0
 20
135.28951838529181
 30
0.0
 40
17.5
 50
245.1576275626507
 51
246.84237243735029
  0
LINE
  5
526
  8
0
 10
274.48842364457192
 20
118.6801076167459
 30
0.0
 11
274.93160072103291
 21
119.06264780748251
 31
0.0
  0
LINE
  5
527
  8
0
 10
274.0024876986879
 20
118.8493284169366
 30
0.0
 11
273.8927867137719
 21
119.42440111889501
 31
0.0
  0
ARC
  5
528
  8
0
 10
280.0
 20
135.28951838529181
 30
0.0
 40
17.0
 50
247.85401051631061
 51
248.9459894836904
  0
ARC
  5
529
  8
0
 10
280.0
 20
135.28951838529181
 30
0.0
 40
17.5
 50
249.95762756265071
 51
251.6423724373503
  0
LINE
  5
52A
  8
0
 10
275.89759319074
 20
118.27716233531029
 30
0.0
 11
276.30720584466769
 21
118.695445005728
 31
0.0
  0
LINE
  5
52B
  8
0
 10
275.39920145900697
 20
118.40512758238761
 30
0.0
 11
275.24176436742641
 21
118.9690038816094
 31
0.0
  0
ARC
  5
52C
  8
0
 10
280.0
 20
135.28951838529181
 30
0.0
 40
17.0
 50
252.65401051631059
 51
253.74598948369041
  0
ARC
  5
52D
  8
0
 10
280.0
 20
135.28951838529181
 30
0.0
 40
17.5
 50
254.7576275626507
 51
256.44237243735029
  0
LINE
  5
52E
  8
0
 10
277.33553817309968
 20
117.9935465082045
 30
0.0
 11
277.7087132660331
 21
118.44463770590581
 31
0.0
  0
LINE
  5
52F
  8
0
 10
276.82818651542181
 20
118.079358617903
 30
0.0
 11
276.62411762525568
 21
118.6280833272936
 31
0.0
  0
ARC
  5
530
  8
0
 10
280.0
 20
135.28951838529181
 30
0.0
 40
17.0
 50
257.45401051631057
 51
258.54598948369051
  0
ARC
  5
531
  8
0
 10
280.0
 20
135.28951838529181
 30
0.0
 40
17.5
 50
259.55762756265068
 51
261.24237243735041
  0
LINE
  5
532
  8
0
 10
278.7921724407621
 20
117.8312494966777
 30
0.0
 11
279.12629241755019
 21
118.31198514101941
 31
0.0
  0
LINE
  5
533
  8
0
 10
278.27941956448632
 20
117.87430655870391
 30
0.0
 11
278.03015027237581
 21
118.404030768685
 31
0.0
  0
ARC
  5
534
  8
0
 10
280.0
 20
135.28951838529181
 30
0.0
 40
17.0
 50
262.25401051631059
 51
263.34598948369052
  0
ARC
  5
535
  8
0
 10
280.0
 20
135.28951838529181
 30
0.0
 40
17.5
 50
264.35762756265069
 51
266.04237243735042
  0
LINE
  5
536
  8
0
 10
278.3660254037847
 20
152.28951838529181
 30
0.0
 11
278.36182582023918
 21
152.2870937546013
 31
0.0
  0
LINE
  5
537
  8
0
 10
281.63397459621513
 20
152.28951838529181
 30
0.0
 11
281.63817417976082
 21
152.28709375460119
 31
0.0
  0
LINE
  5
53C
  8
0
 10
203.30000000000001
 20
152.78305197454549
 30
0.0
 11
175.0
 21
152.78305197454549
 31
0.0
  0
LINE
  5
53D
  8
3
 10
203.30000000000001
 20
135.39874879914521
 30
0.0
 11
175.0
 21
135.39874879914521
 31
0.0
  0
LINE
  5
53E
  8
3
 10
203.30000000000001
 20
135.91319345004089
 30
0.0
 11
175.0
 21
135.91319345004089
 31
0.0
  0
LINE
  5
53F
  8
3
 10
203.30000000000001
 20
136.862699445488
 30
0.0
 11
175.0
 21
136.862699445488
 31
0.0
  0
LINE
  5
540
  8
3
 10
203.30000000000001
 20
137.37443814751299
 30
0.0
 11
175.0
 21
137.37443814751299
 31
0.0
  0
LINE
  5
541
  8
3
 10
203.30000000000001
 20
138.31561535702309
 30
0.0
 11
175.0
 21
138.31561535702309
 31
0.0
  0
LINE
  5
542
  8
3
 10
203.30000000000001
 20
138.82105863086619
 30
0.0
 11
175.0
 21
138.82105863086619
 31
0.0
  0
LINE
  5
543
  8
3
 10
203.30000000000001
 20
139.74730537254919
 30
0.0
 11
175.0
 21
139.74730537254919
 31
0.0
  0
LINE
  5
544
  8
3
 10
203.30000000000001
 20
140.24290789680501
 30
0.0
 11
175.0
 21
140.24290789680501
 31
0.0
  0
LINE
  5
545
  8
3
 10
203.30000000000001
 20
141.1477272152753
 30
0.0
 11
175.0
 21
141.1477272152753
 31
0.0
  0
LINE
  5
546
  8
3
 10
203.30000000000001
 20
141.6300126943259
 30
0.0
 11
175.0
 21
141.6300126943259
 31
0.0
  0
LINE
  5
547
  8
3
 10
203.30000000000001
 20
142.50705793217639
 30
0.0
 11
175.0
 21
142.50705793217639
 31
0.0
  0
LINE
  5
548
  8
3
 10
203.30000000000001
 20
142.9726434799077
 30
0.0
 11
175.0
 21
142.9726434799077
 31
0.0
  0
LINE
  5
549
  8
3
 10
203.30000000000001
 20
143.8157627949507
 30
0.0
 11
175.0
 21
143.8157627949507
 31
0.0
  0
LINE
  5
54A
  8
3
 10
203.30000000000001
 20
144.26138266326859
 30
0.0
 11
175.0
 21
144.26138266326859
 31
0.0
  0
LINE
  5
54B
  8
3
 10
203.30000000000001
 20
145.06466217928991
 30
0.0
 11
175.0
 21
145.06466217928991
 31
0.0
  0
LINE
  5
54C
  8
3
 10
203.30000000000001
 20
145.4871906649951
 30
0.0
 11
175.0
 21
145.4871906649951
 31
0.0
  0
LINE
  5
54D
  8
3
 10
203.30000000000001
 20
146.2449959533453
 30
0.0
 11
175.0
 21
146.2449959533453
 31
0.0
  0
LINE
  5
54E
  8
3
 10
203.30000000000001
 20
146.64146932269691
 30
0.0
 11
175.0
 21
146.64146932269691
 31
0.0
  0
LINE
  5
54F
  8
3
 10
203.30000000000001
 20
147.34848492376
 30
0.0
 11
175.0
 21
147.34848492376
 31
0.0
  0
LINE
  5
550
  8
3
 10
203.30000000000001
 20
147.71612220093829
 30
0.0
 11
175.0
 21
147.71612220093829
 31
0.0
  0
LINE
  5
551
  8
3
 10
203.30000000000001
 20
148.36738890826291
 30
0.0
 11
175.0
 21
148.36738890826291
 31
0.0
  0
LINE
  5
552
  8
3
 10
203.30000000000001
 20
148.70361138191529
 30
0.0
 11
175.0
 21
148.70361138191541
 31
0.0
  0
LINE
  5
553
  8
3
 10
203.30000000000001
 20
149.29456102748409
 30
0.0
 11
175.0
 21
149.29456102748409
 31
0.0
  0
LINE
  5
554
  8
3
 10
203.30000000000001
 20
149.59701033853389
 30
0.0
 11
175.0
 21
149.59701033853389
 31
0.0
  0
LINE
  5
555
  8
3
 10
203.30000000000001
 20
150.12349783518019
 30
0.0
 11
175.0
 21
150.12349783518019
 31
0.0
  0
LINE
  5
556
  8
3
 10
203.30000000000001
 20
150.39005251901889
 30
0.0
 11
175.0
 21
150.39005251901889
 31
0.0
  0
LINE
  5
557
  8
3
 10
203.30000000000001
 20
150.84838493523449
 30
0.0
 11
175.0
 21
150.84838493523449
 31
0.0
  0
LINE
  5
558
  8
3
 10
203.30000000000001
 20
151.07717530227481
 30
0.0
 11
175.0
 21
151.07717530227481
 31
0.0
  0
LINE
  5
559
  8
3
 10
203.30000000000001
 20
151.46413776547121
 30
0.0
 11
175.0
 21
151.46413776547121
 31
0.0
  0
LINE
  5
55A
  8
3
 10
203.30000000000001
 20
151.65355901567361
 30
0.0
 11
175.0
 21
151.65355901567361
 31
0.0
  0
LINE
  5
55B
  8
3
 10
203.30000000000001
 20
151.96643726220421
 30
0.0
 11
175.0
 21
151.96643726220421
 31
0.0
  0
LINE
  5
55C
  8
3
 10
203.30000000000001
 20
152.11516074159849
 30
0.0
 11
175.0
 21
152.1151607415984
 31
0.0
  0
LINE
  5
55D
  8
3
 10
203.30000000000001
 20
152.35176015536419
 30
0.0
 11
175.0
 21
152.35176015536419
 31
0.0
  0
LINE
  5
55E
  8
3
 10
203.30000000000001
 20
152.45874267559961
 30
0.0
 11
175.0
 21
152.45874267559961
 31
0.0
  0
LINE
  5
55F
  8
3
 10
203.30000000000001
 20
152.6174036817126
 30
0.0
 11
175.0
 21
152.6174036817126
 31
0.0
  0
LINE
  5
560
  8
3
 10
203.30000000000001
 20
152.68189483727531
 30
0.0
 11
175.0
 21
152.68189483727531
 31
0.0
  0
LINE
  5
561
  8
3
 10
203.30000000000001
 20
152.7615045427743
 30
0.0
 11
175.0
 21
152.7615045427743
 31
0.0
  0
LINE
  5
562
  8
3
 10
203.30000000000001
 20
135.39874879914521
 30
0.0
 11
203.30000000000001
 21
135.91319345004089
 31
0.0
  0
LINE
  5
563
  8
3
 10
203.30000000000001
 20
151.96643726220421
 30
0.0
 11
203.30000000000001
 21
152.11516074159849
 31
0.0
  0
LINE
  5
564
  8
3
 10
203.30000000000001
 20
135.91319345004089
 30
0.0
 11
203.80000000000001
 21
136.19523252449571
 31
0.0
  0
LINE
  5
565
  8
3
 10
203.80000000000001
 20
136.19523252449571
 30
0.0
 11
203.80000000000001
 21
136.51858497901549
 31
0.0
  0
LINE
  5
566
  8
3
 10
203.80000000000001
 20
136.51858497901549
 30
0.0
 11
203.30000000000001
 21
136.862699445488
 31
0.0
  0
LINE
  5
567
  8
3
 10
203.30000000000001
 20
136.862699445488
 30
0.0
 11
203.30000000000001
 21
137.37443814751299
 31
0.0
  0
LINE
  5
568
  8
3
 10
203.30000000000001
 20
137.37443814751299
 30
0.0
 11
203.80000000000001
 21
137.6125590639208
 31
0.0
  0
LINE
  5
569
  8
3
 10
203.80000000000001
 20
137.6125590639208
 30
0.0
 11
203.80000000000001
 21
137.9330751662863
 31
0.0
  0
LINE
  5
56A
  8
3
 10
203.80000000000001
 20
137.9330751662863
 30
0.0
 11
203.30000000000001
 21
138.31561535702309
 31
0.0
  0
LINE
  5
56B
  8
3
 10
203.30000000000001
 20
138.31561535702309
 30
0.0
 11
203.30000000000001
 21
138.82105863086619
 31
0.0
  0
LINE
  5
56C
  8
3
 10
203.30000000000001
 20
138.82105863086619
 30
0.0
 11
203.80000000000001
 21
139.0135911420881
 31
0.0
  0
LINE
  5
56D
  8
3
 10
203.80000000000001
 20
139.0135911420881
 30
0.0
 11
203.80000000000001
 21
139.32902270213151
 31
0.0
  0
LINE
  5
56E
  8
3
 10
203.80000000000001
 20
139.32902270213151
 30
0.0
 11
203.30000000000001
 21
139.74730537254919
 31
0.0
  0
LINE
  5
56F
  8
3
 10
203.30000000000001
 20
139.74730537254919
 30
0.0
 11
203.30000000000001
 21
140.24290789680501
 31
0.0
  0
LINE
  5
570
  8
3
 10
203.30000000000001
 20
140.24290789680501
 30
0.0
 11
203.80000000000001
 21
140.3885015256092
 31
0.0
  0
LINE
  5
571
  8
3
 10
203.80000000000001
 20
140.3885015256092
 30
0.0
 11
203.80000000000001
 21
140.69663601757401
 31
0.0
  0
LINE
  5
572
  8
3
 10
203.80000000000001
 20
140.69663601757401
 30
0.0
 11
203.30000000000001
 21
141.1477272152753
 31
0.0
  0
LINE
  5
573
  8
3
 10
203.30000000000001
 20
141.1477272152753
 30
0.0
 11
203.30000000000001
 21
141.6300126943259
 31
0.0
  0
LINE
  5
574
  8
3
 10
203.30000000000001
 20
141.6300126943259
 30
0.0
 11
203.80000000000001
 21
141.72764620601521
 31
0.0
  0
LINE
  5
575
  8
3
 10
203.80000000000001
 20
141.72764620601521
 30
0.0
 11
203.80000000000001
 21
142.02632228783469
 31
0.0
  0
LINE
  5
576
  8
3
 10
203.80000000000001
 20
142.02632228783469
 30
0.0
 11
203.30000000000001
 21
142.50705793217639
 31
0.0
  0
LINE
  5
577
  8
3
 10
203.30000000000001
 20
142.50705793217639
 30
0.0
 11
203.30000000000001
 21
142.9726434799077
 31
0.0
  0
LINE
  5
578
  8
3
 10
203.30000000000001
 20
142.9726434799077
 30
0.0
 11
203.80000000000001
 21
143.02163204554719
 31
0.0
  0
LINE
  5
579
  8
3
 10
203.80000000000001
 20
143.02163204554719
 30
0.0
 11
203.80000000000001
 21
143.30875471910571
 31
0.0
  0
LINE
  5
57A
  8
3
 10
203.80000000000001
 20
143.30875471910571
 30
0.0
 11
203.30000000000001
 21
143.8157627949507
 31
0.0
  0
LINE
  5
57B
  8
3
 10
203.30000000000001
 20
143.8157627949507
 30
0.0
 11
203.30000000000001
 21
144.26138266326859
 31
0.0
  0
LINE
  5
57C
  8
3
 10
203.30000000000001
 20
144.26138266326859
 30
0.0
 11
203.80000000000001
 21
144.26138266326859
 31
0.0
  0
LINE
  5
57D
  8
3
 10
203.80000000000001
 20
144.26138266326859
 30
0.0
 11
203.80000000000001
 21
144.53493796930891
 31
0.0
  0
LINE
  5
57E
  8
3
 10
203.80000000000001
 20
144.53493796930891
 30
0.0
 11
203.30000000000001
 21
145.06466217928991
 31
0.0
  0
LINE
  5
57F
  8
3
 10
203.30000000000001
 20
145.06466217928991
 30
0.0
 11
203.30000000000001
 21
145.4871906649951
 31
0.0
  0
LINE
  5
580
  8
3
 10
203.30000000000001
 20
145.4871906649951
 30
0.0
 11
203.80000000000001
 21
145.43820209935561
 31
0.0
  0
LINE
  5
581
  8
3
 10
203.80000000000001
 20
145.43820209935561
 30
0.0
 11
203.80000000000001
 21
145.6962712439545
 31
0.0
  0
LINE
  5
582
  8
3
 10
203.80000000000001
 20
145.6962712439545
 30
0.0
 11
203.30000000000001
 21
146.2449959533453
 31
0.0
  0
LINE
  5
583
  8
3
 10
203.30000000000001
 20
146.2449959533453
 30
0.0
 11
203.30000000000001
 21
146.64146932269691
 31
0.0
  0
LINE
  5
584
  8
3
 10
203.30000000000001
 20
146.64146932269691
 30
0.0
 11
203.80000000000001
 21
146.54383581100751
 31
0.0
  0
LINE
  5
585
  8
3
 10
203.80000000000001
 20
146.54383581100751
 30
0.0
 11
203.80000000000001
 21
146.78460862453821
 31
0.0
  0
LINE
  5
586
  8
3
 10
203.80000000000001
 20
146.78460862453821
 30
0.0
 11
203.30000000000001
 21
147.34848492376
 31
0.0
  0
LINE
  5
587
  8
3
 10
203.30000000000001
 20
147.34848492376
 30
0.0
 11
203.30000000000001
 21
147.71612220093829
 31
0.0
  0
LINE
  5
588
  8
3
 10
203.30000000000001
 20
147.71612220093829
 30
0.0
 11
203.80000000000001
 21
147.57052857213421
 31
0.0
  0
LINE
  5
589
  8
3
 10
203.80000000000001
 20
147.57052857213421
 30
0.0
 11
203.80000000000001
 21
147.79231620630429
 31
0.0
  0
LINE
  5
58A
  8
3
 10
203.80000000000001
 20
147.79231620630429
 30
0.0
 11
203.30000000000001
 21
148.36738890826291
 31
0.0
  0
LINE
  5
58B
  8
3
 10
203.30000000000001
 20
148.36738890826291
 30
0.0
 11
203.30000000000001
 21
148.70361138191529
 31
0.0
  0
LINE
  5
58C
  8
3
 10
203.30000000000001
 20
148.70361138191529
 30
0.0
 11
203.80000000000001
 21
148.5110788706935
 31
0.0
  0
LINE
  5
58D
  8
3
 10
203.80000000000001
 20
148.5110788706935
 30
0.0
 11
203.80000000000001
 21
148.71232564460411
 31
0.0
  0
LINE
  5
58E
  8
3
 10
203.80000000000001
 20
148.71232564460411
 30
0.0
 11
203.30000000000001
 21
149.29456102748409
 31
0.0
  0
LINE
  5
58F
  8
3
 10
203.30000000000001
 20
149.29456102748409
 30
0.0
 11
203.30000000000001
 21
149.59701033853389
 31
0.0
  0
LINE
  5
590
  8
3
 10
203.30000000000001
 20
149.59701033853389
 30
0.0
 11
203.80000000000001
 21
149.3588894221262
 31
0.0
  0
LINE
  5
591
  8
3
 10
203.80000000000001
 20
149.3588894221262
 30
0.0
 11
203.80000000000001
 21
149.53818373425349
 31
0.0
  0
LINE
  5
592
  8
3
 10
203.80000000000001
 20
149.53818373425349
 30
0.0
 11
203.30000000000001
 21
150.12349783518019
 31
0.0
  0
LINE
  5
593
  8
3
 10
203.30000000000001
 20
150.12349783518019
 30
0.0
 11
203.30000000000001
 21
150.39005251901889
 31
0.0
  0
LINE
  5
594
  8
3
 10
203.30000000000001
 20
150.39005251901889
 30
0.0
 11
203.80000000000001
 21
150.10801344456431
 31
0.0
  0
LINE
  5
595
  8
3
 10
203.80000000000001
 20
150.10801344456431
 30
0.0
 11
203.80000000000001
 21
150.2640976741321
 31
0.0
  0
LINE
  5
596
  8
3
 10
203.80000000000001
 20
150.2640976741321
 30
0.0
 11
203.30000000000001
 21
150.84838493523449
 31
0.0
  0
LINE
  5
597
  8
3
 10
203.30000000000001
 20
150.84838493523449
 30
0.0
 11
203.30000000000001
 21
151.07717530227481
 31
0.0
  0
LINE
  5
598
  8
3
 10
203.30000000000001
 20
151.07717530227481
 30
0.0
 11
203.80000000000001
 21
150.7531963712355
 31
0.0
  0
LINE
  5
599
  8
3
 10
203.80000000000001
 20
150.7531963712355
 30
0.0
 11
203.80000000000001
 21
150.8849756995196
 31
0.0
  0
LINE
  5
59A
  8
3
 10
203.80000000000001
 20
150.8849756995196
 30
0.0
 11
203.30000000000001
 21
151.46413776547121
 31
0.0
  0
LINE
  5
59B
  8
3
 10
203.30000000000001
 20
151.46413776547121
 30
0.0
 11
203.30000000000001
 21
151.65355901567361
 31
0.0
  0
LINE
  5
59C
  8
3
 10
203.30000000000001
 20
151.65355901567361
 30
0.0
 11
203.80000000000001
 21
151.28991270747281
 31
0.0
  0
LINE
  5
59D
  8
3
 10
203.80000000000001
 20
151.28991270747281
 30
0.0
 11
203.80000000000001
 21
151.39646279716879
 31
0.0
  0
LINE
  5
59E
  8
3
 10
203.80000000000001
 20
151.39646279716879
 30
0.0
 11
203.30000000000001
 21
151.96643726220421
 31
0.0
  0
LINE
  5
59F
  8
3
 10
203.30000000000001
 20
152.11516074159849
 30
0.0
 11
203.80000000000001
 21
151.7143977738084
 31
0.0
  0
LINE
  5
5A0
  8
3
 10
203.80000000000001
 20
151.7143977738084
 30
0.0
 11
203.80000000000001
 21
151.79497125259121
 31
0.0
  0
LINE
  5
5A1
  8
3
 10
203.80000000000001
 20
151.79497125259121
 30
0.0
 11
203.30000000000001
 21
152.35176015536419
 31
0.0
  0
LINE
  5
5A2
  8
3
 10
203.30000000000001
 20
152.35176015536419
 30
0.0
 11
203.30000000000001
 21
152.45874267559961
 31
0.0
  0
LINE
  5
5A3
  8
3
 10
203.30000000000001
 20
152.45874267559961
 30
0.0
 11
203.80000000000001
 21
152.02367411249159
 31
0.0
  0
LINE
  5
5A4
  8
3
 10
203.80000000000001
 20
152.02367411249159
 30
0.0
 11
203.80000000000001
 21
152.07770581530261
 31
0.0
  0
LINE
  5
5A5
  8
3
 10
203.80000000000001
 20
152.07770581530261
 30
0.0
 11
203.30000000000001
 21
152.6174036817126
 31
0.0
  0
LINE
  5
5A6
  8
3
 10
203.30000000000001
 20
152.6174036817126
 30
0.0
 11
203.30000000000001
 21
152.70766212689631
 31
0.0
  0
LINE
  5
5A7
  8
3
 10
203.30000000000001
 20
152.70766212689631
 30
0.0
 11
203.80000000000001
 21
152.21557237222319
 31
0.0
  0
LINE
  5
5A8
  8
3
 10
203.80000000000001
 20
152.21557237222319
 30
0.0
 11
203.80000000000001
 21
152.2426833054877
 31
0.0
  0
LINE
  5
5A9
  8
3
 10
203.80000000000001
 20
152.2426833054877
 30
0.0
 11
203.30000000000001
 21
152.7615045427743
 31
0.0
  0
LINE
  5
5AA
  8
3
 10
203.30000000000001
 20
152.7615045427743
 30
0.0
 11
203.30000000000001
 21
152.78305197454549
 31
0.0
  0
LINE
  5
5AB
  8
0
 10
203.30000000000001
 20
152.78305197454549
 30
0.0
 11
203.80000000000001
 21
152.28874652458941
 31
0.0
  0
LINE
  5
5AC
  8
0
 10
203.80000000000001
 20
152.28874652458941
 30
0.0
 11
203.80000000000001
 21
152.2895183852917
 31
0.0
  0
TEXT
  5
6FE
  8
0
 62
     3
 10
0.0
 20
0.0
 30
0.0
 40
10.0
  1
KGP35
  7
STANDARD1
  0
ENDSEC
  0
EOF
