  0
SECTION
  2
HEADER
  9
$ACADVER
  1
AC1009
  9
$INSBASE
 10
0.0
 20
0.0
 30
0.0
  9
$EXTMIN
 10
0.0
 20
-2.960436562073669
 30
0.0
  9
$EXTMAX
 10
120.36834924965891
 20
285.99997813099202
 30
0.0
  9
$LIMMIN
 10
0.0
 20
0.0
  9
$LIMMAX
 10
375.0
 20
270.0
  9
$ORTHOMODE
 70
     1
  9
$REGENMODE
 70
     1
  9
$FILLMODE
 70
     1
  9
$QTEXTMODE
 70
     0
  9
$MIRRTEXT
 70
     0
  9
$DRAGMODE
 70
     2
  9
$LTSCALE
 40
6.0
  9
$OSMODE
 70
    37
  9
$ATTMODE
 70
     1
  9
$TEXTSIZE
 40
0.2
  9
$TRACEWID
 40
0.05
  9
$TEXTSTYLE
  7
STANDARD
  9
$CLAYER
  8
0
  9
$CELTYPE
  6
BYLAYER
  9
$CECOLOR
 62
   256
  9
$DIMSCALE
 40
1.0
  9
$DIMASZ
 40
3.0
  9
$DIMEXO
 40
1.0
  9
$DIMDLI
 40
6.0
  9
$DIMRND
 40
0.0
  9
$DIMDLE
 40
0.0
  9
$DIMEXE
 40
1.0
  9
$DIMTP
 40
495.0
  9
$DIMTM
 40
0.0
  9
$DIMTXT
 40
3.0
  9
$DIMCEN
 40
0.0
  9
$DIMTSZ
 40
0.0
  9
$DIMTOL
 70
     0
  9
$DIMLIM
 70
     0
  9
$DIMTIH
 70
     0
  9
$DIMTOH
 70
     0
  9
$DIMSE1
 70
     0
  9
$DIMSE2
 70
     0
  9
$DIMTAD
 70
     1
  9
$DIMZIN
 70
     0
  9
$DIMBLK
  1

  9
$DIMASO
 70
     0
  9
$DIMSHO
 70
     0
  9
$DIMPOST
  1

  9
$DIMAPOST
  1

  9
$DIMALT
 70
     0
  9
$DIMALTD
 70
     2
  9
$DIMALTF
 40
25.399999999999999
  9
$DIMLFAC
 40
1.0
  9
$DIMTOFL
 70
     1
  9
$DIMTVP
 40
0.0
  9
$DIMTIX
 70
     1
  9
$DIMSOXD
 70
     0
  9
$DIMSAH
 70
     0
  9
$DIMBLK1
  1

  9
$DIMBLK2
  1

  9
$DIMSTYLE
  2
STANDARD
  9
$DIMCLRD
 70
     0
  9
$DIMCLRE
 70
     0
  9
$DIMCLRT
 70
     4
  9
$DIMTFAC
 40
1.0
  9
$DIMGAP
 40
1.0
  9
$LUNITS
 70
     2
  9
$LUPREC
 70
     1
  9
$SKETCHINC
 40
0.1
  9
$FILLETRAD
 40
2.0
  9
$AUNITS
 70
     0
  9
$AUPREC
 70
     1
  9
$MENU
  1
C:\R13\WIN\SUPPORT\ACAD-I
  9
$ELEVATION
 40
0.0
  9
$PELEVATION
 40
0.0
  9
$THICKNESS
 40
0.0
  9
$LIMCHECK
 70
     0
  9
$BLIPMODE
 70
     0
  9
$CHAMFERA
 40
0.0
  9
$CHAMFERB
 40
0.0
  9
$SKPOLY
 70
     0
  9
$TDCREATE
 40
2451962.4112634258
  9
$TDUPDATE
 40
2457032.3754108101
  9
$TDINDWG
 40
0.1444881019
  9
$TDUSRTIMER
 40
0.1444881019
  9
$USRTIMER
 70
     1
  9
$ANGBASE
 50
0.0
  9
$ANGDIR
 70
     0
  9
$PDMODE
 70
     0
  9
$PDSIZE
 40
0.0
  9
$PLINEWID
 40
0.0
  9
$COORDS
 70
     1
  9
$SPLFRAME
 70
     0
  9
$SPLINETYPE
 70
     6
  9
$SPLINESEGS
 70
     8
  9
$ATTDIA
 70
     0
  9
$ATTREQ
 70
     1
  9
$HANDLING
 70
     1
  9
$HANDSEED
  5
51F2
  9
$SURFTAB1
 70
     6
  9
$SURFTAB2
 70
     6
  9
$SURFTYPE
 70
     6
  9
$SURFU
 70
     6
  9
$SURFV
 70
     6
  9
$UCSNAME
  2

  9
$UCSORG
 10
0.0
 20
0.0
 30
0.0
  9
$UCSXDIR
 10
1.0
 20
0.0
 30
0.0
  9
$UCSYDIR
 10
0.0
 20
1.0
 30
0.0
  9
$PUCSNAME
  2

  9
$PUCSORG
 10
0.0
 20
0.0
 30
0.0
  9
$PUCSXDIR
 10
1.0
 20
0.0
 30
0.0
  9
$PUCSYDIR
 10
0.0
 20
1.0
 30
0.0
  9
$USERI1
 70
     4
  9
$USERI2
 70
     1
  9
$USERI3
 70
     0
  9
$USERI4
 70
     0
  9
$USERI5
 70
     0
  9
$USERR1
 40
1.0
  9
$USERR2
 40
3.0
  9
$USERR3
 40
3.0
  9
$USERR4
 40
3.0
  9
$USERR5
 40
10.0
  9
$WORLDVIEW
 70
     1
  9
$SHADEDGE
 70
     3
  9
$SHADEDIF
 70
    70
  9
$TILEMODE
 70
     1
  9
$MAXACTVP
 70
    16
  9
$PLIMCHECK
 70
     0
  9
$PEXTMIN
 10
1.0000000000000000E+020
 20
1.0000000000000000E+020
 30
1.0000000000000000E+020
  9
$PEXTMAX
 10
-1.0000000000000000E+020
 20
-1.0000000000000000E+020
 30
-1.0000000000000000E+020
  9
$PLIMMIN
 10
0.0
 20
0.0
  9
$PLIMMAX
 10
12.0
 20
9.0
  9
$UNITMODE
 70
     0
  9
$VISRETAIN
 70
     0
  9
$PLINEGEN
 70
     0
  9
$PSLTSCALE
 70
     0
  0
ENDSEC
  0
SECTION
  2
TABLES
  0
TABLE
  2
VPORT
 70
     1
  0
VPORT
  2
*ACTIVE
 70
     0
 10
0.0
 20
0.0
 11
1.0
 21
1.0
 12
349.095966620306
 22
200.0
 13
0.0
 23
0.0
 14
10.0
 24
10.0
 15
10.0
 25
10.0
 16
0.0
 26
0.0
 36
1.0
 17
0.0
 27
0.0
 37
0.0
 40
400.0
 41
1.7454798331015291
 42
50.0
 43
0.0
 44
0.0
 50
0.0
 51
0.0
 71
     0
 72
   100
 73
     1
 74
     0
 75
     0
 76
     0
 77
     0
 78
     0
  0
ENDTAB
  0
TABLE
  2
LTYPE
 70
     3
  0
LTYPE
  2
CONTINUOUS
 70
     0
  3
Solid Line
 72
    65
 73
     0
 40
0.0
  0
LTYPE
  2
CENTER
 70
     0
  3
____ _ ____ _ ____ _ ____ _ ____ _ ____ _ ____
 72
    65
 73
     4
 40
2.0
 49
1.25
 49
-0.25
 49
0.25
 49
-0.25
  0
LTYPE
  2
PHANTOM2
 70
     0
  3
___ _ _ ___ _ _ ___ _ _ ___ _ _
 72
    65
 73
     6
 40
1.25
 49
0.625
 49
-0.125
 49
0.125
 49
-0.125
 49
0.125
 49
-0.125
  0
ENDTAB
  0
TABLE
  2
LAYER
 70
     3
  0
LAYER
  2
0
 70
     0
 62
     7
  6
CONTINUOUS
  0
LAYER
  2
1
 70
     0
 62
     1
  6
CENTER
  0
LAYER
  2
3
 70
     0
 62
     3
  6
CONTINUOUS
  0
ENDTAB
  0
TABLE
  2
STYLE
 70
     2
  0
STYLE
  2
STANDARD
 70
     0
 40
0.0
 41
1.0
 50
0.0
 71
     0
 42
0.2
  3
SIMPLEX
  4
BIGFONT
  0
STYLE
  2
STANDARD1
 70
     0
 40
0.0
 41
1.0
 50
0.0
 71
     0
 42
3.0
  3
txt
  4

  0
ENDTAB
  0
TABLE
  2
VIEW
 70
     1
  0
VIEW
  2
OLE1
 70
     0
 40
23.205456353438649
 10
338.59170241122831
 20
147.26976484028091
 41
37.128730165501842
 11
0.0
 21
0.0
 31
1.0
 12
0.0
 22
0.0
 32
0.0
 42
50.0
 43
0.0
 44
0.0
 50
0.0
 71
     0
  0
ENDTAB
  0
TABLE
  2
UCS
 70
     0
  0
ENDTAB
  0
TABLE
  2
APPID
 70
    29
  0
APPID
  2
ACAD
 70
     0
  0
APPID
  2
GENIUS_GENOREF_13
 70
     0
  0
APPID
  2
GENIUS_GENOENT_13
 70
     0
  0
APPID
  2
GENIUS_GENBH_13
 70
     0
  0
APPID
  2
GENIUS_GENOBJ_13
 70
     0
  0
APPID
  2
GENIUS_GENODEF_13
 70
     0
  0
APPID
  2
GENIUS_GENOLIS_13
 70
     0
  0
APPID
  2
GENIUS_GENOBJ-NBEHI-BHF_13
 70
     0
  0
APPID
  2
GENIUS_GENOBJ-NBEHI-BHB_13
 70
     0
  0
APPID
  2
GENIUS_GENOBJ-F-PART_13
 70
     0
  0
APPID
  2
GENIUS_GEFSTDP_13
 70
     0
  0
APPID
  2
GENIUS_GENOBJ-N-RSSYM_13
 70
     0
  0
APPID
  2
GENIUS_GENSYMENT_13
 70
     0
  0
APPID
  2
GENIUS_GENOBJ-N-TIT_13
 70
     0
  0
APPID
  2
GENIUS_GENTITLE_13
 70
     0
  0
APPID
  2
GENIUS_GENZVEED_13
 70
     0
  0
APPID
  2
GENIUS_GENOBJ-N-LEADER_13
 70
     0
  0
APPID
  2
GENIUS_GENOBJ-N-FIL_13
 70
     0
  0
APPID
  2
GENIUS_GENOBJ-N-SEC_13
 70
     0
  0
APPID
  2
GENIUS_GENOBJ-N-CRS_13
 70
     0
  0
APPID
  2
GENIUS_GENOBJ-N-ZOO_13
 70
     0
  0
APPID
  2
GENIUS_GENZOO_13
 70
     0
  0
APPID
  2
GENIUS_GENOBJ-F-TOL_13
 70
     0
  0
APPID
  2
GENIUS_GENFIL_13
 70
     0
  0
APPID
  2
GENIUS_GENOBJ-N-CHA_13
 70
     0
  0
APPID
  2
GENIUS_GENOBJ-N-CEN_13
 70
     0
  0
APPID
  2
ACAD_MLEADERVER
 70
     0
  0
APPID
  2
ACAD_EXEMPT_FROM_CAD_STANDARDS
 70
     0
  0
APPID
  2
ACAD_NAV_VCDISPLAY
 70
     0
  0
ENDTAB
  0
TABLE
  2
DIMSTYLE
 70
     1
  0
DIMSTYLE
  2
STANDARD
 70
     0
  3

  4

  5

  6

  7

 40
1.0
 41
0.18
 42
0.0625
 43
0.38
 44
0.18
 45
0.0
 46
0.0
 47
0.0
 48
0.0
140
0.18
141
0.09
142
0.0
143
25.399999999999999
144
1.0
145
0.0
146
1.0
147
0.09
 71
     0
 72
     0
 73
     1
 74
     1
 75
     0
 76
     0
 77
     0
 78
     0
170
     0
171
     2
172
     0
173
     0
174
     0
175
     0
176
     0
177
     0
178
     0
  0
ENDTAB
  0
ENDSEC
  0
SECTION
  2
BLOCKS
  0
BLOCK
  8
0
  2
$MODEL_SPACE
 70
     0
 10
0.0
 20
0.0
 30
0.0
  3
$MODEL_SPACE
  1

  0
ENDBLK
  5
4119
  8
0
  0
BLOCK
 67
     1
  8
0
  2
$PAPER_SPACE
 70
     0
 10
0.0
 20
0.0
 30
0.0
  3
$PAPER_SPACE
  1

  0
ENDBLK
  5
4117
 67
     1
  8
0
  0
ENDSEC
  0
SECTION
  2
ENTITIES
  0
TEXT
  5
4A34
  8
0
 62
     3
 10
0.0
 20
0.0
 30
0.0
 40
10.0
  1
KA75-20X100-SUS
  7
STANDARD1
  0
LINE
  5
4ED3
  8
3
 10
41.349999999999973
 20
85.999999999999815
 30
0.0
 11
39.99999999999995
 21
83.661731409781851
 31
0.0
  0
LINE
  5
4ED6
  8
3
 10
58.649999999999856
 20
85.999999999999815
 30
0.0
 11
59.999999999999943
 21
83.661731409781567
 31
0.0
  0
LINE
  5
4F7C
  8
1
 10
49.999999999999943
 20
185.99997813099191
 30
0.0
 11
50.0
 21
45.0
 31
0.0
  0
LINE
  5
4F7D
  8
3
 10
41.349999999999973
 20
179.84997813099201
 30
0.0
 11
41.349999999999973
 21
130.9999890654959
 31
0.0
  0
LINE
  5
4F7E
  8
3
 10
58.649999999999856
 20
130.9999890654959
 30
0.0
 11
58.649999999999856
 21
179.84997813099201
 31
0.0
  0
LINE
  5
4F7F
  8
0
 10
40.000000000000057
 20
178.49997813099191
 30
0.0
 11
40.000000000000057
 21
130.9999890654959
 31
0.0
  0
LINE
  5
4F80
  8
0
 10
60.0
 20
178.49997813099191
 30
0.0
 11
60.0
 21
130.9999890654959
 31
0.0
  0
LINE
  5
4F81
  8
0
 10
12.5
 20
49.99999999999978
 30
0.0
 11
87.5
 21
50.000000000000213
 31
0.0
  0
LINE
  5
4F82
  8
0
 10
12.5
 20
51.99999999999978
 30
0.0
 11
87.5
 21
51.999999999999588
 31
0.0
  0
LINE
  5
4F83
  8
0
 10
12.5
 20
51.99999999999978
 30
0.0
 11
12.5
 21
49.99999999999978
 31
0.0
  0
LINE
  5
4F89
  8
0
 10
35.063768904761901
 20
67.999999999999787
 30
0.0
 11
64.936231095238213
 21
67.999999999999787
 31
0.0
  0
LINE
  5
4F8D
  8
0
 10
31.003692048048318
 20
65.918180240762595
 30
0.0
 11
21.897784771171079
 21
53.249091855542083
 31
0.0
  0
ARC
  5
4F8E
  8
0
 10
19.46173865714292
 20
54.99999999999978
 30
0.0
 40
3.0
 50
270.0
 51
324.29330859939893
  0
ARC
  5
4F8F
  8
0
 10
35.063768904761901
 20
62.999999999999787
 30
0.0
 40
5.0
 50
90.0
 51
144.29330859939881
  0
LINE
  5
4F90
  8
0
 10
68.996307951951735
 20
65.918180240762595
 30
0.0
 11
78.102215228829095
 21
53.249091855542083
 31
0.0
  0
ARC
  5
4F91
  8
0
 10
64.936231095238213
 20
62.999999999999787
 30
0.0
 40
5.0
 50
35.706691400601152
 51
90.0
  0
ARC
  5
4F92
  8
0
 10
80.53826134285714
 20
54.99999999999978
 30
0.0
 40
3.0
 50
215.70669140060119
 51
270.0
  0
LINE
  5
4F93
  8
0
 10
87.5
 20
51.99999999999978
 30
0.0
 11
87.5
 21
49.99999999999978
 31
0.0
  0
LINE
  5
4F95
  8
0
 10
39.99999999999995
 20
85.999999999999815
 30
0.0
 11
60.0
 21
85.999999999999815
 31
0.0
  0
LINE
  5
4F9C
  8
3
 10
41.349999999999973
 20
114.9999890654958
 30
0.0
 11
41.349999999999973
 21
85.999999999999815
 31
0.0
  0
LINE
  5
4F9D
  8
0
 10
39.99999999999995
 20
80.999999999999716
 30
0.0
 11
39.99999999999995
 21
114.9999890654958
 31
0.0
  0
LINE
  5
4FA1
  8
3
 10
58.649999999999856
 20
114.9999890654958
 30
0.0
 11
58.649999999999856
 21
85.999999999999815
 31
0.0
  0
LINE
  5
4FA2
  8
0
 10
60.0
 20
114.9999890654958
 30
0.0
 11
60.0
 21
80.999999999999716
 31
0.0
  0
CIRCLE
  5
4FA5
  8
3
 10
49.999999999999943
 20
243.49997813099199
 30
0.0
 40
8.6500000000000004
  0
CIRCLE
  5
4FA6
  8
0
 10
49.999999999999943
 20
243.49997813099199
 30
0.0
 40
10.0
  0
LINE
  5
4FA8
  8
1
 10
49.999999999999943
 20
200.99997813099191
 30
0.0
 11
49.999999999999943
 21
285.99997813099202
 31
0.0
  0
CIRCLE
  5
4FA9
  8
0
 10
49.999999999999943
 20
243.49997813099199
 30
0.0
 40
37.5
  0
CIRCLE
  5
4FAA
  8
0
 10
49.999999999999943
 20
243.49997813099199
 30
0.0
 40
29.0
  0
CIRCLE
  5
4FAB
  8
0
 10
49.999999999999943
 20
243.49997813099199
 30
0.0
 40
17.5
  0
LINE
  5
4FAC
  8
0
 10
57.5
 20
180.99997813099191
 30
0.0
 11
42.499999999999943
 21
180.99997813099191
 31
0.0
  0
LINE
  5
4FAD
  8
0
 10
40.000000000000057
 20
178.49997813099191
 30
0.0
 11
60.0
 21
178.49997813099191
 31
0.0
  0
LINE
  5
4FAE
  8
0
 10
42.499999999999943
 20
180.99997813099191
 30
0.0
 11
40.000000000000057
 21
178.49997813099191
 31
0.0
  0
LINE
  5
4FAF
  8
0
 10
60.0
 20
178.49997813099191
 30
0.0
 11
57.5
 21
180.99997813099191
 31
0.0
  0
LINE
  5
4FB0
  8
1
 10
7.4999999999999432
 20
243.49997813099199
 30
0.0
 11
92.499999999999943
 21
243.49997813099199
 31
0.0
  0
LINE
  5
4FB1
  8
0
 10
41.339745962155462
 20
258.49997813099202
 30
0.0
 11
32.679491924311151
 21
243.49997813099199
 31
0.0
  0
LINE
  5
4FB2
  8
0
 10
32.679491924311151
 20
243.49997813099199
 30
0.0
 11
41.339745962155462
 21
228.49997813099199
 31
0.0
  0
LINE
  5
4FB3
  8
0
 10
41.339745962155462
 20
228.49997813099199
 30
0.0
 11
58.66025403784419
 21
228.49997813099199
 31
0.0
  0
LINE
  5
4FB4
  8
0
 10
58.66025403784419
 20
228.49997813099199
 30
0.0
 11
67.320508075688622
 21
243.49997813099199
 31
0.0
  0
LINE
  5
4FB5
  8
0
 10
67.320508075688622
 20
243.49997813099199
 30
0.0
 11
58.660254037844311
 21
258.49997813099202
 31
0.0
  0
LINE
  5
4FB6
  8
0
 10
58.660254037844311
 20
258.49997813099202
 30
0.0
 11
41.339745962155462
 21
258.49997813099202
 31
0.0
  0
ARC
  5
503F
  8
0
 10
49.999999999999943
 20
84.250072975145315
 30
0.0
 40
16.25007297514551
 50
237.79593455379
 51
302.20406544621
  0
LINE
  5
5041
  8
0
 10
67.320508075688736
 20
80.999999999999787
 30
0.0
 11
32.679491924311151
 21
80.999999999999787
 31
0.0
  0
LINE
  5
5042
  8
0
 10
58.660254037844311
 20
80.999999999999787
 30
0.0
 11
58.660254037844311
 21
70.499986731868319
 31
0.0
  0
LINE
  5
5043
  8
0
 10
67.320508075688736
 20
70.50001326813134
 30
0.0
 11
67.320508075688736
 21
80.999999999999787
 31
0.0
  0
ARC
  5
5044
  8
0
 10
62.990373396407222
 20
72.999999999999886
 30
0.0
 40
5.000000000023511
 50
210.00017556250179
 51
330.00017556250179
  0
LINE
  5
5045
  8
0
 10
41.339745962155583
 20
80.999999999999787
 30
0.0
 11
41.339745962155511
 21
70.499986731868319
 31
0.0
  0
LINE
  5
5046
  8
0
 10
32.679491924311151
 20
80.999999999999787
 30
0.0
 11
32.679491924311151
 21
70.500013268131227
 31
0.0
  0
ARC
  5
5047
  8
0
 10
37.009626603592551
 20
72.999999999999886
 30
0.0
 40
5.0000000000235261
 50
209.99982443749809
 51
329.99982443749821
  0
LINE
  5
50B4
  8
0
 10
67.320508076154852
 20
130.99998906549561
 30
0.0
 11
32.679491923845177
 21
130.99998906549621
 31
0.0
  0
LINE
  5
50B5
  8
0
 10
64.500000000000014
 20
114.9999890654958
 30
0.0
 11
67.32050807568865
 21
116.6284101622461
 31
0.0
  0
ARC
  5
50B6
  8
0
 10
62.990381056766211
 20
122.956132445367
 30
0.0
 40
7.6674682452751783
 50
235.6157525319893
 51
295.61575252954628
  0
ARC
  5
50B7
  8
0
 10
62.990381056766211
 20
122.956132445367
 30
0.0
 40
7.6674682452751783
 50
304.38424746801252
 51
304.38424746801439
  0
ARC
  5
50B8
  8
0
 10
49.999999999926587
 20
143.94891823748441
 30
0.0
 40
28.6602540373928
 50
252.41204622587409
 51
287.58795377443329
  0
LINE
  5
50B9
  8
0
 10
67.320508075688423
 20
116.6284101622462
 30
0.0
 11
67.320508076154852
 21
130.99998906549561
 31
0.0
  0
LINE
  5
50BA
  8
0
 10
58.660254037943332
 20
130.99998906549581
 30
0.0
 11
58.660254037690287
 21
116.6284101622462
 31
0.0
  0
LINE
  5
50BB
  8
0
 10
41.339745962056753
 20
130.99998906549601
 30
0.0
 11
41.339745962309763
 21
116.6284101622462
 31
0.0
  0
LINE
  5
50BC
  8
0
 10
32.679491924311641
 20
116.6284101622462
 30
0.0
 11
32.679491923845177
 21
130.99998906549621
 31
0.0
  0
ARC
  5
50BD
  8
0
 10
37.009618943233853
 20
122.956132445367
 30
0.0
 40
7.6674682452751783
 50
235.61575253198561
 51
235.61575253198751
  0
ARC
  5
50BE
  8
0
 10
37.009618943233853
 20
122.956132445367
 30
0.0
 40
7.6674682452751783
 50
244.38424747045369
 51
304.3842474680107
  0
LINE
  5
50BF
  8
0
 10
35.500000000000028
 20
114.9999890654958
 30
0.0
 11
32.679491924311407
 21
116.6284101622461
 31
0.0
  0
LINE
  5
50C0
  8
0
 10
64.500000000000014
 20
114.9999890654957
 30
0.0
 11
35.499999999999353
 21
114.9999890654961
 31
0.0
  0
ENDSEC
  0
EOF
