  0
SECTION
  2
HEADER
  9
$ACADVER
  1
AC1009
  9
$INSBASE
 10
0.0
 20
0.0
 30
0.0
  9
$EXTMIN
 10
-0.0005
 20
-1.4802182810368341
 30
0.0
  9
$EXTMAX
 10
121.1768501780801
 20
98.885437033239967
 30
0.0
  9
$LIMMIN
 10
0.0
 20
0.0
  9
$LIMMAX
 10
187.5
 20
135.0
  9
$ORTHOMODE
 70
     1
  9
$REGENMODE
 70
     1
  9
$FILLMODE
 70
     1
  9
$QTEXTMODE
 70
     0
  9
$MIRRTEXT
 70
     0
  9
$DRAGMODE
 70
     2
  9
$LTSCALE
 40
5.0
  9
$OSMODE
 70
    55
  9
$ATTMODE
 70
     1
  9
$TEXTSIZE
 40
2.5
  9
$TRACEWID
 40
0.05
  9
$TEXTSTYLE
  7
STANDARD
  9
$CLAYER
  8
0
  9
$CELTYPE
  6
BYLAYER
  9
$CECOLOR
 62
   256
  9
$DIMSCALE
 40
0.5
  9
$DIMASZ
 40
3.0
  9
$DIMEXO
 40
2.0
  9
$DIMDLI
 40
10.0
  9
$DIMRND
 40
0.0
  9
$DIMDLE
 40
0.0
  9
$DIMEXE
 40
2.0
  9
$DIMTP
 40
0.0
  9
$DIMTM
 40
0.0
  9
$DIMTXT
 40
3.0
  9
$DIMCEN
 40
0.09
  9
$DIMTSZ
 40
0.0
  9
$DIMTOL
 70
     0
  9
$DIMLIM
 70
     0
  9
$DIMTIH
 70
     0
  9
$DIMTOH
 70
     0
  9
$DIMSE1
 70
     0
  9
$DIMSE2
 70
     0
  9
$DIMTAD
 70
     1
  9
$DIMZIN
 70
     0
  9
$DIMBLK
  1

  9
$DIMASO
 70
     0
  9
$DIMSHO
 70
     0
  9
$DIMPOST
  1

  9
$DIMAPOST
  1

  9
$DIMALT
 70
     0
  9
$DIMALTD
 70
     2
  9
$DIMALTF
 40
25.399999999999999
  9
$DIMLFAC
 40
1.0
  9
$DIMTOFL
 70
     1
  9
$DIMTVP
 40
1.6000000000000001
  9
$DIMTIX
 70
     1
  9
$DIMSOXD
 70
     0
  9
$DIMSAH
 70
     0
  9
$DIMBLK1
  1

  9
$DIMBLK2
  1

  9
$DIMSTYLE
  2
STANDARD
  9
$DIMCLRD
 70
     0
  9
$DIMCLRE
 70
     0
  9
$DIMCLRT
 70
     0
  9
$DIMTFAC
 40
1.0
  9
$DIMGAP
 40
0.09
  9
$LUNITS
 70
     2
  9
$LUPREC
 70
     4
  9
$SKETCHINC
 40
0.1
  9
$FILLETRAD
 40
0.0
  9
$AUNITS
 70
     0
  9
$AUPREC
 70
     0
  9
$MENU
  1
E:\r13\win\SUPPORT\ACAD
  9
$ELEVATION
 40
0.0
  9
$PELEVATION
 40
0.0
  9
$THICKNESS
 40
0.0
  9
$LIMCHECK
 70
     0
  9
$BLIPMODE
 70
     0
  9
$CHAMFERA
 40
1.6000000000000001
  9
$CHAMFERB
 40
1.6000000000000001
  9
$SKPOLY
 70
     0
  9
$TDCREATE
 40
2449840.5944097228
  9
$TDUPDATE
 40
2456598.6930376971
  9
$TDINDWG
 40
0.05720125
  9
$TDUSRTIMER
 40
0.05720125
  9
$USRTIMER
 70
     1
  9
$ANGBASE
 50
0.0
  9
$ANGDIR
 70
     0
  9
$PDMODE
 70
     0
  9
$PDSIZE
 40
0.0
  9
$PLINEWID
 40
0.0
  9
$COORDS
 70
     1
  9
$SPLFRAME
 70
     0
  9
$SPLINETYPE
 70
     6
  9
$SPLINESEGS
 70
     8
  9
$ATTDIA
 70
     0
  9
$ATTREQ
 70
     1
  9
$HANDLING
 70
     1
  9
$HANDSEED
  5
10AF
  9
$SURFTAB1
 70
     6
  9
$SURFTAB2
 70
     6
  9
$SURFTYPE
 70
     6
  9
$SURFU
 70
     6
  9
$SURFV
 70
     6
  9
$UCSNAME
  2

  9
$UCSORG
 10
0.0
 20
0.0
 30
0.0
  9
$UCSXDIR
 10
1.0
 20
0.0
 30
0.0
  9
$UCSYDIR
 10
0.0
 20
1.0
 30
0.0
  9
$PUCSNAME
  2

  9
$PUCSORG
 10
0.0
 20
0.0
 30
0.0
  9
$PUCSXDIR
 10
1.0
 20
0.0
 30
0.0
  9
$PUCSYDIR
 10
0.0
 20
1.0
 30
0.0
  9
$USERI1
 70
     0
  9
$USERI2
 70
     1
  9
$USERI3
 70
     1
  9
$USERI4
 70
     0
  9
$USERI5
 70
     0
  9
$USERR1
 40
0.0
  9
$USERR2
 40
0.0
  9
$USERR3
 40
0.0
  9
$USERR4
 40
0.0
  9
$USERR5
 40
0.0
  9
$WORLDVIEW
 70
     1
  9
$SHADEDGE
 70
     3
  9
$SHADEDIF
 70
    70
  9
$TILEMODE
 70
     1
  9
$MAXACTVP
 70
    16
  9
$PLIMCHECK
 70
     0
  9
$PEXTMIN
 10
1.0000000000000000E+020
 20
1.0000000000000000E+020
 30
1.0000000000000000E+020
  9
$PEXTMAX
 10
-1.0000000000000000E+020
 20
-1.0000000000000000E+020
 30
-1.0000000000000000E+020
  9
$PLIMMIN
 10
0.0
 20
0.0
  9
$PLIMMAX
 10
12.0
 20
9.0
  9
$UNITMODE
 70
     0
  9
$VISRETAIN
 70
     0
  9
$PLINEGEN
 70
     0
  9
$PSLTSCALE
 70
     0
  0
ENDSEC
  0
SECTION
  2
TABLES
  0
TABLE
  2
VPORT
 70
     1
  0
VPORT
  2
*ACTIVE
 70
     0
 10
0.0
 20
0.0
 11
1.0
 21
1.0
 12
93.746889187697377
 22
87.458210191683364
 13
0.0
 23
0.0
 14
5.0
 24
5.0
 15
5.0
 25
5.0
 16
0.0
 26
0.0
 36
1.0
 17
0.0
 27
0.0
 37
0.0
 40
179.46080416505501
 41
1.7807262569832401
 42
50.0
 43
0.0
 44
0.0
 50
0.0
 51
0.0
 71
     0
 72
   100
 73
     1
 74
     0
 75
     0
 76
     0
 77
     0
 78
     0
  0
ENDTAB
  0
TABLE
  2
LTYPE
 70
     4
  0
LTYPE
  2
CONTINUOUS
 70
     0
  3
Solid Line
 72
    65
 73
     0
 40
0.0
  0
LTYPE
  2
CENTER
 70
     0
  3
____ _ ____ _ ____ _ ____ _ ____ _ ____ _ ____
 72
    65
 73
     4
 40
2.0
 49
1.25
 49
-0.25
 49
0.25
 49
-0.25
  0
LTYPE
  2
HIDDEN
 70
     0
  3
_ _ _ _ _ _ _ _ _ _ _ _ _ _ _ _ _ _ _ _ _ _ _
 72
    65
 73
     2
 40
0.375
 49
0.25
 49
-0.125
  0
LTYPE
  2
PHANTOM2
 70
     0
  3
___ _ _ ___ _ _ ___ _ _ ___ _ _
 72
    65
 73
     6
 40
1.25
 49
0.625
 49
-0.125
 49
0.125
 49
-0.125
 49
0.125
 49
-0.125
  0
ENDTAB
  0
TABLE
  2
LAYER
 70
     5
  0
LAYER
  2
0
 70
     0
 62
     7
  6
CONTINUOUS
  0
LAYER
  2
1
 70
     0
 62
     1
  6
CENTER
  0
LAYER
  2
2
 70
     0
 62
     2
  6
HIDDEN
  0
LAYER
  2
3
 70
     0
 62
     3
  6
CONTINUOUS
  0
LAYER
  2
ITTEN
 70
     0
 62
     1
  6
CENTER
  0
ENDTAB
  0
TABLE
  2
STYLE
 70
     2
  0
STYLE
  2
STANDARD
 70
     0
 40
0.0
 41
1.0
 50
0.0
 71
     0
 42
2.5
  3
TXT
  4
BIGFONT
  0
STYLE
  2
STANDARD1
 70
     0
 40
0.0
 41
1.0
 50
0.0
 71
     0
 42
3.0
  3
txt
  4

  0
ENDTAB
  0
TABLE
  2
VIEW
 70
     1
  0
VIEW
  2
ALL
 70
     0
 40
135.0
 10
110.49579799999999
 20
67.5
 41
0.0
 11
0.0
 21
0.0
 31
1.0
 12
0.0
 22
0.0
 32
0.0
 42
0.0
 43
0.0
 44
0.0
 50
0.0
 71
     0
  0
ENDTAB
  0
TABLE
  2
UCS
 70
     0
  0
ENDTAB
  0
TABLE
  2
APPID
 70
     4
  0
APPID
  2
ACAD
 70
     0
  0
APPID
  2
DCO15
 70
     0
  0
APPID
  2
ACAD_MLEADERVER
 70
     0
  0
APPID
  2
ACAD_NAV_VCDISPLAY
 70
     0
  0
ENDTAB
  0
TABLE
  2
DIMSTYLE
 70
     1
  0
DIMSTYLE
  2
STANDARD
 70
     0
  3

  4

  5

  6

  7

 40
1.0
 41
0.18
 42
0.0625
 43
0.38
 44
0.18
 45
0.0
 46
0.0
 47
0.0
 48
0.0
140
0.18
141
0.09
142
0.0
143
25.399999999999999
144
1.0
145
0.0
146
1.0
147
0.09
 71
     0
 72
     0
 73
     1
 74
     1
 75
     0
 76
     0
 77
     0
 78
     0
170
     0
171
     2
172
     0
173
     0
174
     0
175
     0
176
     0
177
     0
178
     0
  0
ENDTAB
  0
ENDSEC
  0
SECTION
  2
BLOCKS
  0
BLOCK
  8
0
  2
$MODEL_SPACE
 70
     0
 10
0.0
 20
0.0
 30
0.0
  3
$MODEL_SPACE
  1

  0
ENDBLK
  5
15D
  8
0
  0
BLOCK
 67
     1
  8
0
  2
$PAPER_SPACE
 70
     0
 10
0.0
 20
0.0
 30
0.0
  3
$PAPER_SPACE
  1

  0
ENDBLK
  5
15B
 67
     1
  8
0
  0
BLOCK
  8
0
  2
STDGX5
 70
     0
 10
0.0
 20
0.0
 30
0.0
  3
STDGX5
  1

  0
ENDBLK
  5
41
  8
0
  0
BLOCK
  8
0
  2
BATU
 70
     0
 10
0.0
 20
0.0
 30
0.0
  3
BATU
  1

  0
LINE
  5
F61
  8
ITTEN
 10
0.5
 20
0.0
 30
0.0
 11
-0.5
 21
0.0
 31
0.0
  0
LINE
  5
F62
  8
ITTEN
 10
0.0
 20
0.5
 30
0.0
 11
0.0
 21
-0.5
 31
0.0
  0
ENDBLK
  5
F64
  8
0
  0
ENDSEC
  0
SECTION
  2
ENTITIES
  0
INSERT
  5
CA
  8
0
  2
STDGX5
 10
0.0
 20
0.0
 30
0.0
  0
INSERT
  5
69A
  8
0
  2
STDGX5
 10
194.3272563481562
 20
13.52129245667936
 30
0.0
  0
LINE
  5
CD8
  8
0
 10
77.175169687584059
 20
64.445494692399734
 30
0.0
 11
87.175169464066641
 21
64.445494692399734
 31
0.0
  0
LINE
  5
CD9
  8
3
 10
77.175169687584059
 20
60.953619558922583
 30
0.0
 11
87.175169464066641
 21
60.953619558922583
 31
0.0
  0
LINE
  5
CDA
  8
3
 10
87.175169464066641
 20
60.826619523204492
 30
0.0
 11
77.175169687584059
 21
60.826619523204492
 31
0.0
  0
LINE
  5
CDB
  8
3
 10
77.175169687584059
 20
63.334869471937047
 30
0.0
 11
87.175169464066641
 21
63.334869471937047
 31
0.0
  0
LINE
  5
CDC
  8
3
 10
87.175169464066641
 20
63.207869669049607
 30
0.0
 11
77.175169687584059
 21
63.207869669049607
 31
0.0
  0
LINE
  5
CDD
  8
0
 10
86.921169392630475
 20
64.699494763835901
 30
0.0
 11
77.429169759020226
 21
64.699494763835901
 31
0.0
  0
LINE
  5
CDE
  8
3
 10
87.175169464066641
 20
62.080744672193752
 30
0.0
 11
77.175169687584059
 21
62.080744672193752
 31
0.0
  0
LINE
  5
CDF
  8
0
 10
87.175169464066641
 20
55.207494664564358
 30
0.0
 11
77.175169687584059
 21
55.207494664564358
 31
0.0
  0
LINE
  5
CE0
  8
3
 10
77.175169687584059
 20
58.445369610190021
 30
0.0
 11
87.175169464066641
 21
58.445369610190021
 31
0.0
  0
LINE
  5
CE1
  8
3
 10
87.175169464066641
 20
57.318244613334173
 30
0.0
 11
77.175169687584059
 21
57.318244613334173
 31
0.0
  0
LINE
  5
CE2
  8
3
 10
87.175169464066641
 20
58.57236958770045
 30
0.0
 11
77.175169687584059
 21
58.57236958770045
 31
0.0
  0
LINE
  5
CE3
  8
3
 10
87.175169464066641
 20
56.191119616478311
 30
0.0
 11
77.175169687584059
 21
56.191119616478311
 31
0.0
  0
LINE
  5
CE4
  8
3
 10
77.175169687584059
 20
56.064119580760227
 30
0.0
 11
87.175169464066641
 21
56.064119580760227
 31
0.0
  0
LINE
  5
CE5
  8
3
 10
87.175169464066641
 20
59.699494584556298
 30
0.0
 11
77.175169687584059
 21
59.699494584556298
 31
0.0
  0
LINE
  5
CE6
  8
0
 10
77.683169364795106
 20
54.699494521692031
 30
0.0
 11
86.667169786855595
 21
54.699494521692031
 31
0.0
  0
LINE
  5
CE9
  8
0
 10
86.667169786855595
 20
54.699494521692031
 30
0.0
 11
87.175169464066641
 21
55.207494664564358
 31
0.0
  0
LINE
  5
CEC
  8
0
 10
87.175169464066641
 20
55.207494664564358
 30
0.0
 11
87.175169464066641
 21
64.445494692399734
 31
0.0
  0
LINE
  5
CF5
  8
0
 10
87.175169464066641
 20
64.445494692399734
 30
0.0
 11
86.921169392630475
 21
64.699494763835901
 31
0.0
  0
LINE
  5
CFB
  8
1
 10
82.17516957582535
 20
67.199494763835901
 30
0.0
 11
82.17516957582535
 21
52.199494521692031
 31
0.0
  0
LINE
  5
D08
  8
0
 10
77.175169687584059
 20
55.207494664564358
 30
0.0
 11
77.683169364795106
 21
54.699494521692031
 31
0.0
  0
LINE
  5
D0B
  8
0
 10
77.175169687584059
 20
55.207494664564358
 30
0.0
 11
77.175169687584059
 21
64.445494692399734
 31
0.0
  0
LINE
  5
D1F
  8
0
 10
77.429169759020226
 20
64.699494763835901
 30
0.0
 11
77.175169687584059
 21
64.445494692399734
 31
0.0
  0
LINE
  5
D20
  8
1
 10
48.173488861811897
 20
67.199494763835901
 30
0.0
 11
48.173488861811897
 21
52.199494521692031
 31
0.0
  0
LINE
  5
D21
  8
0
 10
43.173488973570613
 20
55.207494664564358
 30
0.0
 11
43.173488973570613
 21
64.445494692399734
 31
0.0
  0
LINE
  5
D23
  8
2
 10
46.323488861255271
 20
61.499494521692021
 30
0.0
 11
46.323488861811882
 21
55.080494580551601
 31
0.0
  0
LINE
  5
D24
  8
0
 10
52.04636375319734
 20
57.318244613334173
 30
0.0
 11
53.173488750053188
 21
56.191119616478311
 31
0.0
  0
LINE
  5
D25
  8
2
 10
50.02348886181192
 20
55.080494580551601
 30
0.0
 11
50.023488862368531
 21
61.499494521692021
 31
0.0
  0
LINE
  5
D26
  8
0
 10
43.17348897357062
 20
55.207494664564358
 30
0.0
 11
52.316863833857319
 21
55.207494664564358
 31
0.0
  0
LINE
  5
D27
  8
0
 10
51.808863923815629
 20
54.699494521692031
 30
0.0
 11
43.681488650781667
 21
54.699494521692031
 31
0.0
  0
LINE
  5
D28
  8
2
 10
50.02348886181192
 20
55.080494580551601
 30
0.0
 11
46.323488861811882
 21
55.080494580551601
 31
0.0
  0
LINE
  5
D29
  8
0
 10
53.173488750053188
 20
56.064119580760227
 30
0.0
 11
52.316863833857319
 21
55.207494664564358
 31
0.0
  0
LINE
  5
D2A
  8
0
 10
53.173488750053188
 20
56.191119616478311
 30
0.0
 11
53.173488750053188
 21
56.064119580760227
 31
0.0
  0
LINE
  5
D2B
  8
2
 10
50.404488853109619
 20
54.699494521692031
 30
0.0
 11
50.02348886181192
 21
55.080494580551601
 31
0.0
  0
LINE
  5
D2C
  8
0
 10
52.316863833857319
 20
55.207494664564358
 30
0.0
 11
51.808863923815629
 21
54.699494521692031
 31
0.0
  0
LINE
  5
D2D
  8
0
 10
44.773488973570608
 20
55.207494664564358
 30
0.0
 11
44.983909434942149
 21
54.699494521692031
 31
0.0
  0
LINE
  5
D2F
  8
2
 10
46.323488861811882
 20
55.080494580551601
 30
0.0
 11
45.942488870514183
 21
54.699494521692031
 31
0.0
  0
LINE
  5
D30
  8
0
 10
43.173488973570613
 20
55.207494664564358
 30
0.0
 11
43.68148865078166
 21
54.699494521692031
 31
0.0
  0
LINE
  5
D32
  8
0
 10
52.062863762421159
 20
64.445494692399734
 30
0.0
 11
43.173488973570613
 21
64.445494692399734
 31
0.0
  0
LINE
  5
D33
  8
0
 10
43.42748904500678
 20
64.699494763835901
 30
0.0
 11
51.808863923815629
 21
64.699494763835901
 31
0.0
  0
LINE
  5
D34
  8
2
 10
45.123488861811893
 20
64.318494580551643
 30
0.0
 11
51.223488861811923
 21
64.318494580551643
 31
0.0
  0
LINE
  5
D35
  8
2
 10
45.1234888618119
 20
61.499494521692021
 30
0.0
 11
51.223488861811923
 21
61.499494521692021
 31
0.0
  0
LINE
  5
D36
  8
2
 10
51.223488861811909
 20
61.499494521692021
 30
0.0
 11
51.223488861811923
 21
64.318494580551643
 31
0.0
  0
LINE
  5
D37
  8
0
 10
53.173488750053188
 20
63.334869471937047
 30
0.0
 11
52.062863762421159
 21
64.445494692399734
 31
0.0
  0
LINE
  5
D38
  8
0
 10
52.04636375319734
 20
62.080744672193752
 30
0.0
 11
53.173488750053188
 21
63.207869669049607
 31
0.0
  0
LINE
  5
D39
  8
0
 10
53.173488750053188
 20
60.953619558922583
 30
0.0
 11
52.04636375319734
 21
62.080744672193752
 31
0.0
  0
LINE
  5
D3A
  8
0
 10
52.04636375319734
 20
59.699494584556298
 30
0.0
 11
53.173488750053188
 21
58.57236958770045
 31
0.0
  0
LINE
  5
D3B
  8
0
 10
53.173488750053188
 20
58.445369610190021
 30
0.0
 11
52.04636375319734
 21
57.318244613334173
 31
0.0
  0
LINE
  5
D3C
  8
0
 10
52.04636375319734
 20
59.699494584556298
 30
0.0
 11
53.173488750053188
 21
60.826619523204492
 31
0.0
  0
LINE
  5
D3D
  8
0
 10
53.173488750053188
 20
58.57236958770045
 30
0.0
 11
53.173488750053188
 21
58.445369610190021
 31
0.0
  0
LINE
  5
D3E
  8
0
 10
53.173488750053188
 20
60.953619558922583
 30
0.0
 11
53.173488750053188
 21
60.826619523204492
 31
0.0
  0
LINE
  5
D3F
  8
0
 10
53.173488750053188
 20
63.334869471937047
 30
0.0
 11
53.173488750053188
 21
63.207869669049607
 31
0.0
  0
LINE
  5
D40
  8
0
 10
51.808863923815629
 20
64.699494763835901
 30
0.0
 11
52.062863762421159
 21
64.445494692399734
 31
0.0
  0
LINE
  5
D41
  8
2
 10
51.223488861811923
 20
64.318494580551643
 30
0.0
 11
51.604488910106561
 21
64.699494763835901
 31
0.0
  0
LINE
  5
D42
  8
2
 10
45.123488861811893
 20
64.318494580551643
 30
0.0
 11
45.1234888618119
 21
61.499494521692021
 31
0.0
  0
LINE
  5
D43
  8
2
 10
44.742488813517241
 20
64.699494763835901
 30
0.0
 11
45.123488861811893
 21
64.318494580551643
 31
0.0
  0
LINE
  5
D44
  8
0
 10
43.42748904500678
 20
64.699494763835901
 30
0.0
 11
43.173488973570613
 21
64.445494692399734
 31
0.0
  0
LINE
  5
D45
  8
0
 10
44.8786993206717
 20
64.699494763835901
 30
0.0
 11
44.773488973570608
 21
64.445494692399734
 31
0.0
  0
LINE
  5
E7C
  8
0
 10
78.775169687584039
 20
96.385437033239967
 30
0.0
 11
85.575169464066633
 21
96.385437033239967
 31
0.0
  0
LINE
  5
E7D
  8
1
 10
74.675169687584045
 20
91.385437144998647
 30
0.0
 11
89.675169464066641
 21
91.385437144998647
 31
0.0
  0
LINE
  5
E7E
  8
0
 10
77.175169687584074
 20
86.385437256757356
 30
0.0
 11
87.175169464066641
 21
86.385437256757356
 31
0.0
  0
CIRCLE
  5
E80
  8
0
 10
82.175169575825365
 20
91.385437144998676
 30
0.0
 40
3.4310000000000112
  0
CIRCLE
  5
E81
  8
2
 10
82.175169575825365
 20
91.385437144998676
 30
0.0
 40
2.2310000000000079
  0
CIRCLE
  5
E82
  8
0
 10
82.175169575825365
 20
91.385437144998676
 30
0.0
 40
3.0499999999999972
  0
CIRCLE
  5
E83
  8
0
 10
82.175169575825365
 20
91.385437144998676
 30
0.0
 40
1.8499999999999941
  0
LINE
  5
E84
  8
0
 10
85.469959189634068
 20
96.1314369618038
 30
0.0
 11
78.880379962016619
 21
96.1314369618038
 31
0.0
  0
LINE
  5
E85
  8
0
 10
77.429169759020255
 20
94.680226758807422
 30
0.0
 11
77.429169759020255
 21
87.750062082994916
 31
0.0
  0
LINE
  5
E86
  8
0
 10
77.175169687584059
 20
86.385437256757356
 30
0.0
 11
77.175169687584045
 21
94.785437033239958
 31
0.0
  0
LINE
  5
E88
  8
0
 10
77.42916975902024
 20
87.750062082994916
 30
0.0
 11
77.175169687584074
 21
87.496062011558749
 31
0.0
  0
LINE
  5
E89
  8
0
 10
78.880379962016619
 20
96.1314369618038
 30
0.0
 11
77.429169759020255
 21
94.680226758807422
 31
0.0
  0
LINE
  5
E8A
  8
0
 10
78.775169687584039
 20
96.385437033239967
 30
0.0
 11
77.175169687584045
 21
94.785437033239958
 31
0.0
  0
LINE
  5
E8B
  8
0
 10
77.175169687584045
 20
94.785437033239958
 30
0.0
 11
77.429169759020255
 21
94.680226758807422
 31
0.0
  0
LINE
  5
E8C
  8
0
 10
78.775169687584039
 20
96.385437033239967
 30
0.0
 11
78.880379962016619
 21
96.1314369618038
 31
0.0
  0
LINE
  5
E8D
  8
0
 10
86.921169392630475
 20
87.750062082994916
 30
0.0
 11
86.921169392630475
 21
94.680226758807351
 31
0.0
  0
LINE
  5
E8E
  8
0
 10
87.175169464066641
 20
94.785437033239958
 30
0.0
 11
87.175169464066641
 21
86.385437256757356
 31
0.0
  0
LINE
  5
E8F
  8
1
 10
82.17516957582535
 20
98.885437033239967
 30
0.0
 11
82.17516957582535
 21
83.885437256757385
 31
0.0
  0
LINE
  5
E91
  8
0
 10
87.175169464066641
 20
87.496062011558749
 30
0.0
 11
86.921169392630475
 21
87.750062082994916
 31
0.0
  0
LINE
  5
E92
  8
0
 10
85.469959189634068
 20
96.1314369618038
 30
0.0
 11
86.921169392630475
 21
94.680226758807351
 31
0.0
  0
LINE
  5
E93
  8
0
 10
85.575169464066633
 20
96.385437033239967
 30
0.0
 11
87.175169464066641
 21
94.785437033239958
 31
0.0
  0
LINE
  5
E94
  8
0
 10
85.575169464066633
 20
96.385437033239967
 30
0.0
 11
85.469959189634068
 21
96.1314369618038
 31
0.0
  0
LINE
  5
E95
  8
0
 10
87.175169464066641
 20
94.785437033239958
 30
0.0
 11
86.921169392630475
 21
94.680226758807351
 31
0.0
  0
LINE
  5
E96
  8
0
 10
78.985590043565963
 20
23.521552119488831
 30
0.0
 11
85.364749108084681
 21
23.521552119488831
 31
0.0
  0
CIRCLE
  5
E97
  8
0
 10
82.17516957582535
 20
28.013552330519062
 30
0.0
 40
1.8499999999999941
  0
CIRCLE
  5
E98
  8
0
 10
82.17516957582535
 20
28.013552330519062
 30
0.0
 40
2.2310000000000079
  0
CIRCLE
  5
E99
  8
2
 10
82.17516957582535
 20
28.013552330519062
 30
0.0
 40
3.0499999999999972
  0
LINE
  5
E9A
  8
1
 10
74.675169687584031
 20
28.01355233051909
 30
0.0
 11
89.675169464066641
 21
28.013552330519069
 31
0.0
  0
CIRCLE
  5
E9B
  8
2
 10
82.17516957582535
 20
28.013552330519062
 30
0.0
 40
3.4310000000000112
  0
LINE
  5
E9C
  8
0
 10
77.175169687584059
 20
33.013552218760367
 30
0.0
 11
87.175169464066641
 21
33.013552218760367
 31
0.0
  0
LINE
  5
E9E
  8
0
 10
78.775169687584025
 20
23.013552442277781
 30
0.0
 11
85.575169464066633
 21
23.013552442277781
 31
0.0
  0
LINE
  5
E9F
  8
0
 10
77.175169687584045
 20
33.013552218760367
 30
0.0
 11
77.175169687584031
 21
24.613552442277779
 31
0.0
  0
LINE
  5
EA0
  8
0
 10
77.683169364795091
 20
32.156927302564469
 30
0.0
 11
77.683169364795134
 21
24.823972798259799
 31
0.0
  0
LINE
  5
EA1
  8
0
 10
78.775169687584025
 20
23.013552442277781
 30
0.0
 11
78.985590043565992
 21
23.521552119488831
 31
0.0
  0
LINE
  5
EA2
  8
0
 10
78.985590043565992
 20
23.521552119488831
 30
0.0
 11
77.683169364795106
 21
24.823972798259781
 31
0.0
  0
LINE
  5
EA3
  8
0
 10
77.175169687584031
 20
24.613552442277779
 30
0.0
 11
77.683169364795205
 21
24.823972798259661
 31
0.0
  0
LINE
  5
EA4
  8
0
 10
78.775169687584025
 20
23.013552442277781
 30
0.0
 11
77.175169687584031
 21
24.613552442277779
 31
0.0
  0
LINE
  5
EA7
  8
0
 10
77.175169687584059
 20
32.664927445436803
 30
0.0
 11
77.683169364795106
 21
32.156927302564469
 31
0.0
  0
LINE
  5
EA8
  8
1
 10
82.17516957582535
 20
20.513552442277781
 30
0.0
 11
82.17516957582535
 21
35.513552218760353
 31
0.0
  0
LINE
  5
EA9
  8
0
 10
87.175169464066641
 20
24.613552442277779
 30
0.0
 11
87.175169464066641
 21
33.013552218760367
 31
0.0
  0
LINE
  5
EAA
  8
0
 10
86.667169786855567
 20
24.823972798259749
 30
0.0
 11
86.667169786855595
 21
32.156927302564469
 31
0.0
  0
LINE
  5
EAB
  8
0
 10
85.575169464066633
 20
23.013552442277781
 30
0.0
 11
87.175169464066641
 21
24.613552442277779
 31
0.0
  0
LINE
  5
EAC
  8
0
 10
85.364749108084681
 20
23.521552119488831
 30
0.0
 11
86.667169786855567
 21
24.823972798259749
 31
0.0
  0
LINE
  5
EAD
  8
0
 10
85.575169464066633
 20
23.013552442277781
 30
0.0
 11
85.364749108084695
 21
23.521552119488831
 31
0.0
  0
LINE
  5
EAE
  8
0
 10
87.175169464066641
 20
24.613552442277779
 30
0.0
 11
86.667169786855595
 21
24.823972798259781
 31
0.0
  0
LINE
  5
EB0
  8
0
 10
86.667169786855595
 20
32.156927302564469
 30
0.0
 11
87.175169464066641
 21
32.664927445436803
 31
0.0
  0
LINE
  5
EB1
  8
0
 10
77.42916975902024
 20
87.750062082994916
 30
0.0
 11
86.921169392630475
 21
87.750062082994916
 31
0.0
  0
LINE
  5
F28
  8
0
 10
77.175169687584031
 20
31.648927392522779
 30
0.0
 11
87.175169464066627
 21
31.648927392522779
 31
0.0
  0
LINE
  5
F2F
  8
0
 10
44.773488973570608
 20
55.207494664564358
 30
0.0
 11
44.773488973570608
 21
64.445494692399734
 31
0.0
  0
LINE
  5
F30
  8
1
 10
116.1768502898388
 20
67.199494763835901
 30
0.0
 11
116.1768502898388
 21
52.199494521692031
 31
0.0
  0
LINE
  5
F31
  8
2
 10
119.22685028983879
 20
61.499494521692021
 30
0.0
 11
113.1268502898388
 21
61.499494521692021
 31
0.0
  0
LINE
  5
F32
  8
2
 10
119.22685028983879
 20
64.318494580551643
 30
0.0
 11
113.1268502898388
 21
64.318494580551643
 31
0.0
  0
LINE
  5
F33
  8
0
 10
120.92285010664391
 20
64.699494763835901
 30
0.0
 11
112.54147522783499
 21
64.699494763835901
 31
0.0
  0
LINE
  5
F34
  8
0
 10
112.2874753892295
 20
64.445494692399734
 30
0.0
 11
121.1768501780801
 21
64.445494692399734
 31
0.0
  0
LINE
  5
F35
  8
2
 10
114.3268502898387
 20
55.080494580551601
 30
0.0
 11
118.0268502898388
 21
55.080494580551601
 31
0.0
  0
LINE
  5
F36
  8
0
 10
112.54147522783499
 20
54.699494521692031
 30
0.0
 11
120.668850500869
 21
54.699494521692031
 31
0.0
  0
LINE
  5
F37
  8
0
 10
121.1768501780801
 20
55.207494664564358
 30
0.0
 11
112.0334753177933
 21
55.207494664564358
 31
0.0
  0
LINE
  5
F38
  8
0
 10
119.57685017808009
 20
55.207494664564358
 30
0.0
 11
119.57685017808009
 21
64.445494692399734
 31
0.0
  0
LINE
  5
F39
  8
2
 10
118.0268502903954
 20
61.499494521692021
 30
0.0
 11
118.0268502898388
 21
55.080494580551601
 31
0.0
  0
LINE
  5
F3A
  8
0
 10
121.1768501780801
 20
55.207494664564358
 30
0.0
 11
121.1768501780801
 21
64.445494692399734
 31
0.0
  0
LINE
  5
F3B
  8
0
 10
121.1768501780801
 20
55.207494664564358
 30
0.0
 11
120.668850500869
 21
54.699494521692031
 31
0.0
  0
LINE
  5
F3C
  8
0
 10
119.57685017808009
 20
55.207494664564358
 30
0.0
 11
119.3664297167085
 21
54.699494521692031
 31
0.0
  0
LINE
  5
F3D
  8
2
 10
118.0268502898388
 20
55.080494580551601
 30
0.0
 11
118.4078502811365
 21
54.699494521692031
 31
0.0
  0
LINE
  5
F3E
  8
2
 10
119.22685028983879
 20
64.318494580551643
 30
0.0
 11
119.22685028983879
 21
61.499494521692021
 31
0.0
  0
LINE
  5
F3F
  8
0
 10
120.92285010664391
 20
64.699494763835901
 30
0.0
 11
121.1768501780801
 21
64.445494692399734
 31
0.0
  0
LINE
  5
F40
  8
0
 10
119.471639830979
 20
64.699494763835901
 30
0.0
 11
119.57685017808009
 21
64.445494692399734
 31
0.0
  0
LINE
  5
F41
  8
2
 10
119.6078503381334
 20
64.699494763835901
 30
0.0
 11
119.22685028983879
 21
64.318494580551643
 31
0.0
  0
LINE
  5
F42
  8
0
 10
112.3039753984533
 20
59.699494584556298
 30
0.0
 11
111.17685040159751
 21
60.826619523204492
 31
0.0
  0
LINE
  5
F43
  8
2
 10
114.3268502898387
 20
55.080494580551601
 30
0.0
 11
114.32685028928211
 21
61.499494521692021
 31
0.0
  0
LINE
  5
F44
  8
2
 10
113.945850298541
 20
54.699494521692031
 30
0.0
 11
114.3268502898387
 21
55.080494580551601
 31
0.0
  0
LINE
  5
F45
  8
0
 10
112.3039753984533
 20
57.318244613334173
 30
0.0
 11
111.17685040159751
 21
56.191119616478311
 31
0.0
  0
LINE
  5
F46
  8
0
 10
112.0334753177933
 20
55.207494664564358
 30
0.0
 11
112.54147522783499
 21
54.699494521692031
 31
0.0
  0
LINE
  5
F47
  8
0
 10
111.17685040159751
 20
56.191119616478311
 30
0.0
 11
111.17685040159751
 21
56.064119580760227
 31
0.0
  0
LINE
  5
F48
  8
0
 10
111.17685040159751
 20
56.064119580760227
 30
0.0
 11
112.0334753177933
 21
55.207494664564358
 31
0.0
  0
LINE
  5
F49
  8
0
 10
111.17685040159751
 20
58.57236958770045
 30
0.0
 11
111.17685040159751
 21
58.445369610190021
 31
0.0
  0
LINE
  5
F4A
  8
0
 10
111.17685040159751
 20
58.445369610190021
 30
0.0
 11
112.3039753984533
 21
57.318244613334173
 31
0.0
  0
LINE
  5
F4B
  8
0
 10
112.3039753984533
 20
59.699494584556298
 30
0.0
 11
111.17685040159751
 21
58.57236958770045
 31
0.0
  0
LINE
  5
F4C
  8
0
 10
112.3039753984533
 20
62.080744672193752
 30
0.0
 11
111.17685040159751
 21
63.207869669049607
 31
0.0
  0
LINE
  5
F4D
  8
2
 10
113.1268502898388
 20
61.499494521692021
 30
0.0
 11
113.1268502898388
 21
64.318494580551643
 31
0.0
  0
LINE
  5
F4E
  8
0
 10
111.17685040159751
 20
60.953619558922583
 30
0.0
 11
111.17685040159751
 21
60.826619523204492
 31
0.0
  0
LINE
  5
F4F
  8
0
 10
111.17685040159751
 20
60.953619558922583
 30
0.0
 11
112.3039753984533
 21
62.080744672193752
 31
0.0
  0
LINE
  5
F50
  8
0
 10
112.54147522783499
 20
64.699494763835901
 30
0.0
 11
112.2874753892295
 21
64.445494692399734
 31
0.0
  0
LINE
  5
F51
  8
2
 10
113.1268502898388
 20
64.318494580551643
 30
0.0
 11
112.7458502415441
 21
64.699494763835901
 31
0.0
  0
LINE
  5
F52
  8
0
 10
111.17685040159751
 20
63.334869471937047
 30
0.0
 11
111.17685040159751
 21
63.207869669049607
 31
0.0
  0
LINE
  5
F53
  8
0
 10
111.17685040159751
 20
63.334869471937047
 30
0.0
 11
112.2874753892295
 21
64.445494692399734
 31
0.0
  0
INSERT
  5
F65
  8
0
  2
BATU
 10
0.0
 20
0.0
 30
0.0
 41
0.001
 42
0.001
 43
0.001
  0
TEXT
  5
1014
  8
0
 62
     3
 10
0.0
 20
0.0
 30
0.0
 40
5.0
  1
HSE-9100-SS
  7
STANDARD1
  0
ENDSEC
  0
EOF
