  0
SECTION
  2
HEADER
  9
$ACADVER
  1
AC1009
  9
$INSBASE
 10
82.638099999999994
 20
103.82319099999999
 30
0.0
  9
$EXTMIN
 10
0.0
 20
-2.960436562073669
 30
0.0
  9
$EXTMAX
 10
543.95201437208937
 20
727.05371775886988
 30
0.0
  9
$LIMMIN
 10
0.0
 20
0.0
  9
$LIMMAX
 10
375.0
 20
270.0
  9
$ORTHOMODE
 70
     1
  9
$REGENMODE
 70
     1
  9
$FILLMODE
 70
     1
  9
$QTEXTMODE
 70
     0
  9
$MIRRTEXT
 70
     0
  9
$DRAGMODE
 70
     2
  9
$LTSCALE
 40
10.0
  9
$OSMODE
 70
    55
  9
$ATTMODE
 70
     1
  9
$TEXTSIZE
 40
0.06
  9
$TRACEWID
 40
0.05
  9
$TEXTSTYLE
  7
STANDARD
  9
$CLAYER
  8
0
  9
$CELTYPE
  6
BYLAYER
  9
$CECOLOR
 62
   256
  9
$DIMSCALE
 40
4.0
  9
$DIMASZ
 40
3.0
  9
$DIMEXO
 40
2.0
  9
$DIMDLI
 40
10.0
  9
$DIMRND
 40
0.0
  9
$DIMDLE
 40
0.0
  9
$DIMEXE
 40
2.0
  9
$DIMTP
 40
0.0
  9
$DIMTM
 40
0.0
  9
$DIMTXT
 40
3.0
  9
$DIMCEN
 40
0.0
  9
$DIMTSZ
 40
0.0
  9
$DIMTOL
 70
     0
  9
$DIMLIM
 70
     0
  9
$DIMTIH
 70
     0
  9
$DIMTOH
 70
     0
  9
$DIMSE1
 70
     0
  9
$DIMSE2
 70
     0
  9
$DIMTAD
 70
     1
  9
$DIMZIN
 70
     0
  9
$DIMBLK
  1

  9
$DIMASO
 70
     0
  9
$DIMSHO
 70
     0
  9
$DIMPOST
  1

  9
$DIMAPOST
  1

  9
$DIMALT
 70
     0
  9
$DIMALTD
 70
     2
  9
$DIMALTF
 40
25.399999999999999
  9
$DIMLFAC
 40
1.0
  9
$DIMTOFL
 70
     1
  9
$DIMTVP
 40
1.6000000000000001
  9
$DIMTIX
 70
     1
  9
$DIMSOXD
 70
     0
  9
$DIMSAH
 70
     0
  9
$DIMBLK1
  1

  9
$DIMBLK2
  1

  9
$DIMSTYLE
  2
STANDARD
  9
$DIMCLRD
 70
     0
  9
$DIMCLRE
 70
     0
  9
$DIMCLRT
 70
     0
  9
$DIMTFAC
 40
1.0
  9
$DIMGAP
 40
0.09
  9
$LUNITS
 70
     2
  9
$LUPREC
 70
     4
  9
$SKETCHINC
 40
0.1
  9
$FILLETRAD
 40
0.0
  9
$AUNITS
 70
     0
  9
$AUPREC
 70
     4
  9
$MENU
  1
E:\r13\win\SUPPORT\ACAD
  9
$ELEVATION
 40
0.0
  9
$PELEVATION
 40
0.0
  9
$THICKNESS
 40
0.0
  9
$LIMCHECK
 70
     0
  9
$BLIPMODE
 70
     0
  9
$CHAMFERA
 40
0.0
  9
$CHAMFERB
 40
0.0
  9
$SKPOLY
 70
     0
  9
$TDCREATE
 40
2449840.6096296301
  9
$TDUPDATE
 40
2456598.6915636342
  9
$TDINDWG
 40
0.1758486806
  9
$TDUSRTIMER
 40
0.1758486806
  9
$USRTIMER
 70
     1
  9
$ANGBASE
 50
0.0
  9
$ANGDIR
 70
     0
  9
$PDMODE
 70
     1
  9
$PDSIZE
 40
0.0
  9
$PLINEWID
 40
0.0
  9
$COORDS
 70
     1
  9
$SPLFRAME
 70
     0
  9
$SPLINETYPE
 70
     6
  9
$SPLINESEGS
 70
     8
  9
$ATTDIA
 70
     0
  9
$ATTREQ
 70
     1
  9
$HANDLING
 70
     1
  9
$HANDSEED
  5
6257
  9
$SURFTAB1
 70
     6
  9
$SURFTAB2
 70
     6
  9
$SURFTYPE
 70
     6
  9
$SURFU
 70
     6
  9
$SURFV
 70
     6
  9
$UCSNAME
  2

  9
$UCSORG
 10
0.0
 20
0.0
 30
0.0
  9
$UCSXDIR
 10
1.0
 20
0.0
 30
0.0
  9
$UCSYDIR
 10
0.0
 20
1.0
 30
0.0
  9
$PUCSNAME
  2

  9
$PUCSORG
 10
0.0
 20
0.0
 30
0.0
  9
$PUCSXDIR
 10
1.0
 20
0.0
 30
0.0
  9
$PUCSYDIR
 10
0.0
 20
1.0
 30
0.0
  9
$USERI1
 70
     3
  9
$USERI2
 70
     1
  9
$USERI3
 70
     0
  9
$USERI4
 70
     0
  9
$USERI5
 70
     0
  9
$USERR1
 40
1.0
  9
$USERR2
 40
3.0
  9
$USERR3
 40
3.0
  9
$USERR4
 40
3.0
  9
$USERR5
 40
10.0
  9
$WORLDVIEW
 70
     1
  9
$SHADEDGE
 70
     3
  9
$SHADEDIF
 70
    70
  9
$TILEMODE
 70
     1
  9
$MAXACTVP
 70
    16
  9
$PLIMCHECK
 70
     0
  9
$PEXTMIN
 10
1.0000000000000000E+020
 20
1.0000000000000000E+020
 30
1.0000000000000000E+020
  9
$PEXTMAX
 10
-1.0000000000000000E+020
 20
-1.0000000000000000E+020
 30
-1.0000000000000000E+020
  9
$PLIMMIN
 10
0.0
 20
0.0
  9
$PLIMMAX
 10
12.0
 20
9.0
  9
$UNITMODE
 70
     0
  9
$VISRETAIN
 70
     0
  9
$PLINEGEN
 70
     0
  9
$PSLTSCALE
 70
     0
  0
ENDSEC
  0
SECTION
  2
TABLES
  0
TABLE
  2
VPORT
 70
     1
  0
VPORT
  2
*ACTIVE
 70
     0
 10
0.0
 20
0.0
 11
1.0
 21
1.0
 12
271.97600845253157
 22
472.78711339960478
 13
0.0
 23
0.0
 14
5.0
 24
5.0
 15
10.0
 25
10.0
 16
0.0
 26
0.0
 36
1.0
 17
0.0
 27
0.0
 37
0.0
 40
959.88963899221437
 41
1.7807262569832401
 42
50.0
 43
0.0
 44
0.0
 50
0.0
 51
0.0
 71
     0
 72
   100
 73
     1
 74
     0
 75
     0
 76
     0
 77
     0
 78
     2
  0
ENDTAB
  0
TABLE
  2
LTYPE
 70
     3
  0
LTYPE
  2
CONTINUOUS
 70
     0
  3
Solid Line
 72
    65
 73
     0
 40
0.0
  0
LTYPE
  2
CENTER
 70
     0
  3
____ _ ____ _ ____ _ ____ _ ____ _ ____ _ ____
 72
    65
 73
     4
 40
2.0
 49
1.25
 49
-0.25
 49
0.25
 49
-0.25
  0
LTYPE
  2
PHANTOM2
 70
     0
  3
___ _ _ ___ _ _ ___ _ _ ___ _ _
 72
    65
 73
     6
 40
1.25
 49
0.625
 49
-0.125
 49
0.125
 49
-0.125
 49
0.125
 49
-0.125
  0
ENDTAB
  0
TABLE
  2
LAYER
 70
     3
  0
LAYER
  2
0
 70
     0
 62
     7
  6
CONTINUOUS
  0
LAYER
  2
1
 70
     0
 62
     1
  6
CENTER
  0
LAYER
  2
3
 70
     0
 62
     3
  6
CONTINUOUS
  0
ENDTAB
  0
TABLE
  2
STYLE
 70
     2
  0
STYLE
  2
STANDARD
 70
     0
 40
0.0
 41
1.0
 50
0.0
 71
     0
 42
0.06
  3
TXT
  4
BIGFONT
  0
STYLE
  2
STANDARD1
 70
     0
 40
0.0
 41
1.0
 50
0.0
 71
     0
 42
3.0
  3
txt
  4

  0
ENDTAB
  0
TABLE
  2
VIEW
 70
     0
  0
ENDTAB
  0
TABLE
  2
UCS
 70
     0
  0
ENDTAB
  0
TABLE
  2
APPID
 70
     4
  0
APPID
  2
ACAD
 70
     0
  0
APPID
  2
DCO15
 70
     0
  0
APPID
  2
ACAD_MLEADERVER
 70
     0
  0
APPID
  2
ACAD_NAV_VCDISPLAY
 70
     0
  0
ENDTAB
  0
TABLE
  2
DIMSTYLE
 70
     1
  0
DIMSTYLE
  2
STANDARD
 70
     0
  3

  4

  5

  6

  7

 40
1.0
 41
0.18
 42
0.0625
 43
0.38
 44
0.18
 45
0.0
 46
0.0
 47
0.0
 48
0.0
140
0.18
141
0.09
142
0.0
143
25.399999999999999
144
1.0
145
0.0
146
1.0
147
0.09
 71
     0
 72
     0
 73
     1
 74
     1
 75
     0
 76
     0
 77
     0
 78
     0
170
     0
171
     2
172
     0
173
     0
174
     0
175
     0
176
     0
177
     0
178
     0
  0
ENDTAB
  0
ENDSEC
  0
SECTION
  2
BLOCKS
  0
BLOCK
  8
0
  2
$MODEL_SPACE
 70
     0
 10
0.0
 20
0.0
 30
0.0
  3
$MODEL_SPACE
  1

  0
ENDBLK
  5
1AB
  8
0
  0
BLOCK
 67
     1
  8
0
  2
$PAPER_SPACE
 70
     0
 10
0.0
 20
0.0
 30
0.0
  3
$PAPER_SPACE
  1

  0
ENDBLK
  5
1A9
 67
     1
  8
0
  0
ENDSEC
  0
SECTION
  2
ENTITIES
  0
ARC
  5
AB9
  8
0
 10
90.237271726549125
 20
95.038813977614737
 30
0.0
 40
6.3499999999999801
 50
270.00000000000068
 51
270.91677159063539
  0
ARC
  5
ABA
  8
0
 10
73.518271726548846
 20
107.7388139776148
 30
0.0
 40
19.050000000000018
 50
189.24559404503481
 51
270.00000000000068
  0
ARC
  5
ABB
  8
0
 10
231.51827172654879
 20
107.7388139776148
 30
0.0
 40
19.050000000000072
 50
270.00000000000068
 51
350.75440595496678
  0
ARC
  5
ABC
  8
0
 10
214.79927172654931
 20
95.03881397761478
 30
0.0
 40
6.3499999999999988
 50
269.08322840936609
 51
270.00000000000068
  0
LINE
  5
AD8
  8
0
 10
90.338871726549186
 20
151.6598958169015
 30
0.0
 11
90.338871726549087
 21
88.689626829640574
 31
0.0
  0
LINE
  5
ADA
  8
0
 10
54.715755524986768
 20
104.6781139776147
 30
0.0
 11
54.715755524986768
 21
122.3112176185236
 31
0.0
  0
LINE
  5
ADC
  8
0
 10
250.3207879281108
 20
122.3112176185236
 30
0.0
 11
250.3207879281108
 21
104.6781139776147
 31
0.0
  0
LINE
  5
ADE
  8
0
 10
214.69767172654929
 20
88.689626829640645
 30
0.0
 11
214.69767172654949
 21
151.65989581690181
 31
0.0
  0
LINE
  5
AE2
  8
0
 10
250.5682717265488
 20
136.87184283547609
 30
0.0
 11
250.5682717265488
 21
127.13900065983211
 31
0.0
  0
LINE
  5
AEF
  8
0
 10
54.468271726548892
 20
127.13900065983201
 30
0.0
 11
54.468271726548892
 21
136.87184283547609
 31
0.0
  0
ARC
  5
AF5
  8
0
 10
100.0797717265491
 20
159.8088139776147
 30
0.0
 40
12.700000000000021
 50
180.0
 51
219.9147494755716
  0
ARC
  5
AF7
  8
0
 10
204.95677172654919
 20
159.8088139776147
 30
0.0
 40
12.70000000000004
 50
320.08525052443082
 51
0.0
  0
LINE
  5
B0B
  8
3
 10
118.1356561751344
 20
383.41190134985328
 30
0.0
 11
113.3760182544614
 21
396.78639804456481
 31
0.0
  0
LINE
  5
B0C
  8
3
 10
113.3760182544614
 20
396.78639804456481
 30
0.0
 11
123.0469843001344
 21
400.2266173955262
 31
0.0
  0
LINE
  5
B0D
  8
3
 10
123.0469843001344
 20
400.2266173955262
 30
0.0
 11
123.6079518482114
 21
398.64674960706469
 31
0.0
  0
LINE
  5
B0E
  8
3
 10
123.6079518482114
 20
398.64674960706469
 30
0.0
 11
115.70861290590371
 21
395.83618770802639
 31
0.0
  0
LINE
  5
B0F
  8
3
 10
115.70861290590371
 20
395.83618770802639
 30
0.0
 11
117.16541128330751
 21
391.7405521911993
 31
0.0
  0
LINE
  5
B10
  8
3
 10
117.16541128330751
 20
391.7405521911993
 30
0.0
 11
124.56388634340369
 21
394.3736651719687
 31
0.0
  0
LINE
  5
B11
  8
3
 10
124.56388634340369
 20
394.3736651719687
 30
0.0
 11
125.1248538914806
 21
392.80524570081468
 31
0.0
  0
LINE
  5
B12
  8
3
 10
125.1248538914806
 20
392.80524570081468
 30
0.0
 11
117.72637883138439
 21
390.17213272004579
 31
0.0
  0
LINE
  5
B13
  8
3
 10
117.72637883138439
 20
390.17213272004579
 30
0.0
 11
119.3463157304229
 21
385.61856451091131
 31
0.0
  0
LINE
  5
B14
  8
3
 10
119.3463157304229
 20
385.61856451091131
 30
0.0
 11
127.5576213193652
 21
388.54074750369932
 31
0.0
  0
LINE
  5
B15
  8
3
 10
127.5576213193652
 20
388.54074750369932
 30
0.0
 11
128.1185888674421
 21
386.96374179456473
 31
0.0
  0
LINE
  5
B16
  8
3
 10
128.1185888674421
 20
386.96374179456473
 30
0.0
 11
118.1356561751344
 21
383.41190134985328
 31
0.0
  0
LINE
  5
B26
  8
3
 10
106.8288857088926
 20
393.53666331610179
 30
0.0
 11
108.4602709252387
 21
394.44108038340983
 31
0.0
  0
LINE
  5
B27
  8
3
 10
111.53414412235421
 20
385.04773603244831
 30
0.0
 11
106.8288857088926
 21
393.53666331610179
 31
0.0
  0
LINE
  5
B28
  8
3
 10
106.5770227281234
 20
381.85937966225578
 30
0.0
 11
107.9336483290849
 21
382.87827990264032
 31
0.0
  0
LINE
  5
B29
  8
3
 10
108.4602709252387
 20
394.44108038340983
 30
0.0
 11
113.11687399014259
 21
386.04373963821729
 31
0.0
  0
LINE
  5
B38
  8
3
 10
160.1262777138123
 20
389.28171001126827
 30
0.0
 11
161.41421341092769
 21
403.44327852088372
 31
0.0
  0
LINE
  5
B39
  8
3
 10
161.41421341092769
 20
403.44327852088372
 30
0.0
 11
171.65187116333161
 21
402.51310273963378
 31
0.0
  0
LINE
  5
B3A
  8
3
 10
171.65187116333161
 20
402.51310273963378
 30
0.0
 11
171.50018095900461
 21
400.84164841271081
 31
0.0
  0
LINE
  5
B3B
  8
3
 10
171.50018095900461
 20
400.84164841271081
 30
0.0
 11
163.13718516573539
 21
401.60296151367231
 31
0.0
  0
LINE
  5
B3C
  8
3
 10
163.13718516573539
 20
401.60296151367231
 30
0.0
 11
162.74221821862
 21
397.2669113333838
 31
0.0
  0
LINE
  5
B3D
  8
3
 10
162.74221821862
 20
397.2669113333838
 30
0.0
 11
170.5757293364085
 21
396.55425358097978
 31
0.0
  0
LINE
  5
B3E
  8
3
 10
170.5757293364085
 20
396.55425358097978
 30
0.0
 11
170.42403913208159
 21
394.89138549203778
 31
0.0
  0
LINE
  5
B3F
  8
3
 10
170.42403913208159
 20
394.89138549203778
 30
0.0
 11
162.59052801429311
 21
395.6040432444413
 31
0.0
  0
LINE
  5
B40
  8
3
 10
162.59052801429311
 20
395.6040432444413
 30
0.0
 11
162.1526298772738
 21
390.7843016579032
 31
0.0
  0
LINE
  5
B41
  8
3
 10
162.1526298772738
 20
390.7843016579032
 30
0.0
 11
170.84476479313921
 21
389.99150568434538
 31
0.0
  0
LINE
  5
B42
  8
3
 10
170.84476479313921
 20
389.99150568434538
 30
0.0
 11
170.69307458881229
 21
388.3200513574223
 31
0.0
  0
LINE
  5
B43
  8
3
 10
170.69307458881229
 20
388.3200513574223
 30
0.0
 11
160.1262777138123
 21
389.28171001126827
 31
0.0
  0
LINE
  5
B52
  8
3
 10
173.12628443007199
 20
387.81425690420929
 30
0.0
 11
177.14178172574509
 21
401.45206489699768
 31
0.0
  0
LINE
  5
B53
  8
3
 10
177.14178172574509
 20
401.45206489699768
 30
0.0
 11
178.9935470502644
 21
400.90540774555569
 31
0.0
  0
LINE
  5
B54
  8
3
 10
178.9935470502644
 20
400.90540774555569
 30
0.0
 11
183.00045810795649
 21
388.09187859892069
 31
0.0
  0
LINE
  5
B55
  8
3
 10
183.00045810795649
 20
388.09187859892069
 30
0.0
 11
186.1544695262258
 21
398.79891736094032
 31
0.0
  0
LINE
  5
B56
  8
3
 10
186.1544695262258
 20
398.79891736094032
 30
0.0
 11
187.88602751901431
 21
398.28660516142088
 31
0.0
  0
LINE
  5
B57
  8
3
 10
187.88602751901431
 20
398.28660516142088
 30
0.0
 11
183.87053022334109
 21
384.6487971686322
 31
0.0
  0
LINE
  5
B58
  8
3
 10
183.87053022334109
 20
384.6487971686322
 30
0.0
 11
182.01876489882201
 21
385.1954543200747
 31
0.0
  0
LINE
  5
B59
  8
3
 10
182.01876489882201
 20
385.1954543200747
 30
0.0
 11
178.01185384112981
 21
398.02043178401721
 31
0.0
  0
LINE
  5
B5A
  8
3
 10
178.01185384112981
 20
398.02043178401721
 30
0.0
 11
174.85784242286061
 21
387.30480678401727
 31
0.0
  0
LINE
  5
B5B
  8
3
 10
174.85784242286061
 20
387.30480678401727
 30
0.0
 11
173.12628443007199
 21
387.81425690420929
 31
0.0
  0
LINE
  5
B5E
  8
3
 10
135.0852223365832
 20
400.92233995554568
 30
0.0
 11
130.64327522119851
 21
400.27264794833428
 31
0.0
  0
LINE
  5
B5F
  8
3
 10
130.64327522119851
 20
400.27264794833428
 30
0.0
 11
131.31872594235239
 21
395.63321735939178
 31
0.0
  0
LINE
  5
B60
  8
3
 10
131.31872594235239
 20
395.63321735939178
 30
0.0
 11
135.30846452408321
 21
396.21708154208432
 31
0.0
  0
LINE
  5
B61
  8
3
 10
130.60606818994859
 20
387.52494662621882
 30
0.0
 11
128.55968147119859
 21
401.55485948679569
 31
0.0
  0
LINE
  5
B62
  8
3
 10
128.55968147119859
 20
401.55485948679569
 30
0.0
 11
134.78184192792929
 21
402.46213863343019
 31
0.0
  0
LINE
  5
B68
  8
3
 10
142.97025088225621
 20
389.3280566021802
 30
0.0
 11
140.63765623081389
 21
388.98746916227628
 31
0.0
  0
LINE
  5
B6C
  8
3
 10
133.7057001010063
 20
394.33955750362281
 30
0.0
 11
131.55341644716009
 21
394.02472877766121
 31
0.0
  0
LINE
  5
B6D
  8
3
 10
131.55341644716009
 20
394.02472877766121
 30
0.0
 11
132.46355767312161
 21
387.7939820829497
 31
0.0
  0
LINE
  5
B6E
  8
3
 10
132.46355767312161
 20
387.7939820829497
 30
0.0
 11
130.60606818994859
 21
387.52494662621882
 31
0.0
  0
LINE
  5
B8B
  8
3
 10
151.42204338952661
 20
395.03919714930493
 30
0.0
 11
151.42204338952661
 21
396.68775484161279
 31
0.0
  0
LINE
  5
B8C
  8
3
 10
151.42204338952661
 20
396.68775484161279
 30
0.0
 11
157.28358185106501
 21
396.68775484161279
 31
0.0
  0
LINE
  5
B90
  8
3
 10
157.28358185106501
 20
396.68775484161279
 30
0.0
 11
157.28358185106501
 21
391.40149432478592
 31
0.0
  0
LINE
  5
B92
  8
3
 10
157.04889134625739
 20
399.62138615170869
 30
0.0
 11
155.20571225971889
 21
399.15772930074741
 31
0.0
  0
LINE
  5
B98
  8
3
 10
155.2686780049111
 20
392.3316701060358
 30
0.0
 11
155.2686780049111
 21
395.03919714930493
 31
0.0
  0
LINE
  5
B99
  8
3
 10
155.2686780049111
 20
395.03919714930493
 30
0.0
 11
151.42204338952661
 21
395.03919714930493
 31
0.0
  0
LINE
  5
B9A
  8
3
 10
188.27010715411069
 20
387.83670639820832
 30
0.0
 11
189.9129406877646
 21
387.14980735974689
 31
0.0
  0
LINE
  5
BA2
  8
3
 10
200.53697914930299
 20
387.77087857368872
 30
0.0
 11
198.87411106036069
 21
388.48926048474692
 31
0.0
  0
ARC
  5
BFA
  8
0
 10
143.3682717265489
 20
342.57481397761489
 30
0.0
 40
88.899999999999977
 50
90.0
 51
180.0
  0
LINE
  5
BFD
  8
0
 10
54.468271726548892
 20
136.87184283547609
 30
0.0
 11
54.468271726548892
 21
342.68881397761481
 31
0.0
  0
LINE
  5
C04
  8
0
 10
87.379771726549066
 20
178.8588139776148
 30
0.0
 11
87.379771726549066
 21
159.8088139776147
 31
0.0
  0
ARC
  5
C07
  8
0
 10
100.0797717265491
 20
178.8588139776148
 30
0.0
 40
12.70000000000004
 50
90.0
 51
180.0
  0
ARC
  5
C09
  8
0
 10
146.1682717265486
 20
319.57481397761478
 30
0.0
 40
50.800000000000011
 50
90.0
 51
180.0
  0
LINE
  5
C0C
  8
0
 10
95.368271726548514
 20
319.57481397761478
 30
0.0
 11
95.368271726548514
 21
275.12481397761468
 31
0.0
  0
LINE
  5
C0F
  8
0
 10
158.8682717265485
 20
370.37481397761479
 30
0.0
 11
146.1682717265486
 21
370.37481397761479
 31
0.0
  0
ARC
  5
C11
  8
0
 10
161.66827172654899
 20
342.57481397761489
 30
0.0
 40
88.899999999999977
 50
0.0
 51
90.0
  0
LINE
  5
C13
  8
0
 10
217.6567717265491
 20
159.8088139776147
 30
0.0
 11
217.6567717265491
 21
178.8588139776148
 31
0.0
  0
ARC
  5
C15
  8
0
 10
204.95677172654919
 20
178.8588139776148
 30
0.0
 40
12.70000000000004
 50
0.0
 51
90.0
  0
LINE
  5
C17
  8
0
 10
204.95677172654919
 20
191.55881397761479
 30
0.0
 11
100.0797717265491
 21
191.55881397761479
 31
0.0
  0
LINE
  5
C18
  8
0
 10
143.3682717265535
 20
431.47481397761482
 30
0.0
 11
161.66827172654399
 21
431.47481397761482
 31
0.0
  0
ARC
  5
C19
  8
0
 10
146.1682717265486
 20
275.12481397761468
 30
0.0
 40
50.800000000000011
 50
180.0
 51
270.00000000000068
  0
LINE
  5
C1B
  8
0
 10
250.5682717265488
 20
342.68881397761481
 30
0.0
 11
250.5682717265488
 21
136.87184283547609
 31
0.0
  0
ARC
  5
C1C
  8
0
 10
158.8682717265485
 20
275.12481397761468
 30
0.0
 40
50.799999999999997
 50
270.00000000000068
 51
0.0
  0
ARC
  5
C20
  8
0
 10
158.8682717265485
 20
319.57481397761478
 30
0.0
 40
50.799999999999997
 50
0.0
 51
90.0
  0
LINE
  5
C21
  8
0
 10
209.66827172654851
 20
275.12481397761468
 30
0.0
 11
209.66827172654851
 21
319.57481397761478
 31
0.0
  0
LINE
  5
C22
  8
0
 10
146.1682717265486
 20
224.32481397761481
 30
0.0
 11
158.8682717265485
 21
224.32481397761481
 31
0.0
  0
LINE
  5
C25
  8
0
 10
214.41827172654919
 20
83.037313977614815
 30
0.0
 11
214.41827172654919
 21
149.7123139776148
 31
0.0
  0
LINE
  5
C26
  8
0
 10
214.41827172654959
 20
83.037313977614758
 30
0.0
 11
90.618271726549196
 21
83.037313977614758
 31
0.0
  0
LINE
  5
C27
  8
0
 10
90.618271726549096
 20
83.037313977614758
 30
0.0
 11
90.618271726549096
 21
149.7123139776148
 31
0.0
  0
LINE
  5
C28
  8
0
 10
214.41827172654939
 20
149.7123139776148
 30
0.0
 11
90.618271726549096
 21
149.7123139776148
 31
0.0
  0
LINE
  5
C2B
  8
0
 10
152.51827172654879
 20
168.76231397761501
 30
0.0
 11
116.77307318534611
 21
168.76231397761489
 31
0.0
  0
LINE
  5
C2E
  8
0
 10
188.26347026775119
 20
168.76231397761509
 30
0.0
 11
152.51827172654879
 21
168.76231397761501
 31
0.0
  0
LINE
  5
C31
  8
0
 10
128.68813936574711
 20
151.4232405032275
 30
0.0
 11
128.68813936574711
 21
167.0513874520023
 31
0.0
  0
LINE
  5
C32
  8
0
 10
176.3484040873505
 20
151.42324050322759
 30
0.0
 11
176.3484040873505
 21
167.05138745200239
 31
0.0
  0
LINE
  5
C36
  8
0
 10
104.85800700494541
 20
151.42324050322739
 30
0.0
 11
104.85800700494541
 21
167.0513874520023
 31
0.0
  0
LINE
  5
C39
  8
0
 10
200.1785364481523
 20
151.4232405032277
 30
0.0
 11
200.1785364481523
 21
167.05138745200239
 31
0.0
  0
LINE
  5
C3B
  8
0
 10
184.01427172654951
 20
79.874813977614906
 30
0.0
 11
121.0222717265495
 21
79.874813977614792
 31
0.0
  0
LINE
  5
C3D
  8
0
 10
116.77307318534611
 20
168.76231397761489
 30
0.0
 11
111.2432717265487
 21
168.76231397761489
 31
0.0
  0
LINE
  5
C3E
  8
0
 10
193.79327172654891
 20
168.76231397761489
 30
0.0
 11
188.26347026775119
 21
168.76231397761509
 31
0.0
  0
ARC
  5
C5E
  8
0
 10
511.75201437208898
 20
136.871842835476
 30
0.0
 40
12.699999999999999
 50
179.9999999999998
 51
210.49931591801351
  0
ARC
  5
C62
  8
0
 10
441.8520143720886
 20
136.87184283547609
 30
0.0
 40
12.70000000000001
 50
329.50068408198831
 51
0.0000000000001923
  0
LINE
  5
C66
  8
0
 10
499.05201437208922
 20
412.53881397761478
 30
0.0
 11
499.05201437208922
 21
342.6888139776147
 31
0.0
  0
ARC
  5
C69
  8
0
 10
480.0020143720896
 20
412.42481397761469
 30
0.0
 40
19.050000000000001
 50
0.0000000000001923
 51
90.0
  0
LINE
  5
C6A
  8
0
 10
499.05201437208922
 20
342.6888139776147
 30
0.0
 11
499.05201437208922
 21
136.871842835476
 31
0.0
  0
LINE
  5
C70
  8
0
 10
473.60201437208929
 20
431.4748139776147
 30
0.0
 11
480.0020143720896
 21
431.4748139776147
 31
0.0
  0
LINE
  5
C71
  8
0
 10
454.55201437208871
 20
136.87184283547609
 30
0.0
 11
454.55201437208871
 21
342.6888139776147
 31
0.0
  0
LINE
  5
C73
  8
0
 10
454.55201437208871
 20
342.6888139776147
 30
0.0
 11
454.55201437208888
 21
412.53881397761478
 31
0.0
  0
ARC
  5
C74
  8
0
 10
473.60201437208929
 20
412.42481397761469
 30
0.0
 40
19.050000000000001
 50
90.0
 51
179.9999999999998
  0
ARC
  5
C75
  8
0
 10
476.80201437208871
 20
116.4616903387161
 30
0.0
 40
27.773292303380579
 50
149.81425878775951
 51
30.185741212239581
  0
LINE
  5
CE0
  8
0
 10
533.95201437208925
 20
83.037313977614758
 30
0.0
 11
533.95201437208925
 21
149.7123139776148
 31
0.0
  0
LINE
  5
CE1
  8
0
 10
533.95201437208925
 20
83.037313977614758
 30
0.0
 11
419.65201437208901
 21
83.037313977614815
 31
0.0
  0
LINE
  5
CE2
  8
0
 10
419.65201437208901
 20
83.037313977614815
 30
0.0
 11
419.65201437208901
 21
149.7123139776148
 31
0.0
  0
LINE
  5
CE3
  8
0
 10
533.95201437208925
 20
149.7123139776148
 30
0.0
 11
499.05201437208927
 21
149.71231397761491
 31
0.0
  0
LINE
  5
CE4
  8
0
 10
454.55201437208842
 20
149.7123139776148
 30
0.0
 11
419.65201437208901
 21
149.7123139776148
 31
0.0
  0
CIRCLE
  5
CE6
  8
0
 10
476.80201437208888
 20
116.37481397761471
 30
0.0
 40
10.651718189755
  0
LINE
  5
CE9
  8
0
 10
518.07701437208925
 20
149.71231397761491
 30
0.0
 11
518.07701437208902
 21
168.76231397761489
 31
0.0
  0
LINE
  5
CEC
  8
0
 10
435.5270143720897
 20
149.7123139776148
 30
0.0
 11
435.52701437208952
 21
168.76231397761501
 31
0.0
  0
LINE
  5
CF0
  8
0
 10
518.07701437208925
 20
168.76231397761501
 30
0.0
 11
499.05201437208927
 21
168.76231397761489
 31
0.0
  0
LINE
  5
CF3
  8
0
 10
454.55201437208871
 20
168.76231397761489
 30
0.0
 11
435.52701437208952
 21
168.76231397761501
 31
0.0
  0
LINE
  5
CF5
  8
0
 10
508.29801437208931
 20
79.874813977614735
 30
0.0
 11
445.30601437208952
 21
79.874813977614792
 31
0.0
  0
ARC
  5
DD6
  8
0
 10
231.51827172654879
 20
651.26771775886982
 30
0.0
 40
19.05000000000005
 50
270.00000000000068
 51
350.75440595496713
  0
ARC
  5
DD7
  8
0
 10
231.51827172654879
 20
668.53971775886998
 30
0.0
 40
19.050000000000072
 50
9.2455940450340002
 51
90.0
  0
ARC
  5
DD8
  8
0
 10
214.7992717265488
 20
681.2397177588698
 30
0.0
 40
6.3500000000000902
 50
90.0
 51
90.916771590634653
  0
ARC
  5
DD9
  8
0
 10
214.7992717265488
 20
638.56771775886978
 30
0.0
 40
6.3500000000000254
 50
269.08322840936609
 51
270.00000000000068
  0
ARC
  5
DDA
  8
0
 10
73.518271726548846
 20
668.53971775886998
 30
0.0
 40
19.050000000000018
 50
90.0
 51
170.7544059549659
  0
ARC
  5
DDB
  8
0
 10
73.518271726548846
 20
651.26771775886982
 30
0.0
 40
19.050000000000011
 50
189.24559404503449
 51
270.00000000000068
  0
ARC
  5
DDE
  8
0
 10
90.237271726549011
 20
638.56771775886978
 30
0.0
 40
6.3500000000000254
 50
270.00000000000068
 51
270.91677159063539
  0
ARC
  5
DDF
  8
0
 10
90.237271726549011
 20
681.2397177588698
 30
0.0
 40
6.3500000000000902
 50
89.083228409365347
 51
90.0
  0
LINE
  5
DE4
  8
0
 10
73.518271726551802
 20
682.15371775886933
 30
0.0
 11
152.51827172654939
 21
682.15371775886922
 31
0.0
  0
ARC
  5
DE6
  8
0
 10
73.518271726548733
 20
663.10371775886938
 30
0.0
 40
19.050000000000001
 50
90.0
 51
180.0
  0
LINE
  5
DE7
  8
0
 10
152.51827172654939
 20
682.15371775886911
 30
0.0
 11
231.51827172654589
 21
682.15371775886933
 31
0.0
  0
ARC
  5
DE8
  8
0
 10
231.51827172654879
 20
663.10371775886938
 30
0.0
 40
19.050000000000001
 50
0.0
 51
90.0
  0
LINE
  5
DEA
  8
0
 10
250.5682717265488
 20
656.8557177588691
 30
0.0
 11
250.5682717265488
 21
662.95171775886911
 31
0.0
  0
LINE
  5
DF1
  8
0
 10
152.51827172654939
 20
637.65371775886899
 30
0.0
 11
73.518271726548846
 21
637.65371775886922
 31
0.0
  0
ARC
  5
DF2
  8
0
 10
73.518271726548846
 20
656.70371775886917
 30
0.0
 40
19.050000000000001
 50
180.0
 51
270.00000000000068
  0
LINE
  5
DF3
  8
0
 10
54.468271726548892
 20
656.8557177588691
 30
0.0
 11
54.468271726548892
 21
662.95171775886911
 31
0.0
  0
LINE
  5
DF4
  8
0
 10
231.5182717265491
 20
637.65371775886922
 30
0.0
 11
152.5182717265493
 21
637.65371775886865
 31
0.0
  0
ARC
  5
DF6
  8
0
 10
231.51827172654879
 20
656.70371775886917
 30
0.0
 40
19.050000000000001
 50
270.00000000000068
 51
0.0
  0
LINE
  5
E4B
  8
0
 10
250.5682717265488
 20
656.85571775886967
 30
0.0
 11
250.5682717265488
 21
655.32713869144675
 31
0.0
  0
LINE
  5
E4E
  8
0
 10
54.468271726548892
 20
655.32713869144675
 30
0.0
 11
54.468271726548892
 21
656.85571775886967
 31
0.0
  0
LINE
  5
E53
  8
0
 10
250.5682717265488
 20
664.48029682629283
 30
0.0
 11
250.5682717265488
 21
662.9517177588699
 31
0.0
  0
LINE
  5
E58
  8
0
 10
54.468271726548892
 20
662.9517177588699
 30
0.0
 11
54.468271726548892
 21
664.48029682629283
 31
0.0
  0
LINE
  5
E5C
  8
0
 10
214.6976717265488
 20
682.15371775886922
 30
0.0
 11
214.6976717265488
 21
683.75825008133813
 31
0.0
  0
LINE
  5
E5E
  8
0
 10
90.338871726548973
 20
637.65371775886933
 30
0.0
 11
90.338871726548973
 21
636.04918543640144
 31
0.0
  0
LINE
  5
E60
  8
0
 10
90.338871726548973
 20
683.75825008133813
 30
0.0
 11
90.338871726548845
 21
682.15371775886922
 31
0.0
  0
LINE
  5
E62
  8
0
 10
214.6976717265488
 20
636.04918543640144
 30
0.0
 11
214.6976717265488
 21
637.65371775886911
 31
0.0
  0
LINE
  5
E63
  8
0
 10
250.3207879281108
 20
649.82542907962466
 30
0.0
 11
250.3207879281108
 21
648.20701775887005
 31
0.0
  0
LINE
  5
E64
  8
0
 10
250.3207879281108
 20
671.60041775886987
 30
0.0
 11
250.3207879281108
 21
669.98200643811515
 31
0.0
  0
LINE
  5
E65
  8
0
 10
214.6976717265488
 20
683.75825008133813
 30
0.0
 11
214.6976717265488
 21
687.58890490684405
 31
0.0
  0
LINE
  5
E66
  8
0
 10
214.6976717265488
 20
632.21853061089575
 30
0.0
 11
214.6976717265488
 21
636.04918543640144
 31
0.0
  0
LINE
  5
E67
  8
0
 10
54.715755524986768
 20
669.98200643811515
 30
0.0
 11
54.715755524986768
 21
671.60041775886987
 31
0.0
  0
LINE
  5
E68
  8
0
 10
54.715755524986768
 20
648.20701775887005
 30
0.0
 11
54.715755524986768
 21
649.82542907962466
 31
0.0
  0
LINE
  5
E69
  8
0
 10
90.338871726548973
 20
636.04918543640144
 30
0.0
 11
90.338871726548973
 21
632.21853061089575
 31
0.0
  0
LINE
  5
E6A
  8
0
 10
90.338871726548973
 20
687.58890490684405
 30
0.0
 11
90.338871726548973
 21
683.75825008133813
 31
0.0
  0
LINE
  5
E6B
  8
0
 10
214.41827172654871
 20
602.7537177588697
 30
0.0
 11
90.618271726548997
 21
602.75371775886981
 31
0.0
  0
LINE
  5
E6C
  8
0
 10
90.618271726548997
 20
602.75371775886981
 30
0.0
 11
90.618271726548755
 21
637.65371775886911
 31
0.0
  0
LINE
  5
E6D
  8
0
 10
90.618271726548997
 20
682.15371775886933
 30
0.0
 11
90.618271726548997
 21
717.05371775886977
 31
0.0
  0
LINE
  5
E6E
  8
0
 10
90.618271726548997
 20
717.05371775886977
 30
0.0
 11
214.41827172654871
 21
717.05371775886977
 31
0.0
  0
LINE
  5
E6F
  8
0
 10
214.41827172654871
 20
717.05371775886977
 30
0.0
 11
214.41827172654871
 21
682.15371775886933
 31
0.0
  0
LINE
  5
E70
  8
0
 10
214.41827172654871
 20
637.65371775886911
 30
0.0
 11
214.41827172654871
 21
602.75371775886981
 31
0.0
  0
ARC
  5
E71
  8
0
 10
152.51827172654879
 20
659.90371775886956
 30
0.0
 40
41.275000000000027
 50
32.620163836507679
 51
90.0
  0
ARC
  5
E74
  8
0
 10
152.51827172654879
 20
659.90371775886956
 30
0.0
 40
41.275000000000027
 50
212.62016383650931
 51
270.00000000000068
  0
ARC
  5
E75
  8
0
 10
152.51827172654859
 20
659.90371775886956
 30
0.0
 40
41.274999999999899
 50
89.999999999999474
 51
147.3798361634922
  0
ARC
  5
E76
  8
0
 10
152.51827172654879
 20
659.90371775886956
 30
0.0
 40
41.275000000000027
 50
270.00000000000068
 51
327.37983616349049
  0
LINE
  5
1397
  8
0
 10
73.518271726552939
 20
632.21771775886987
 30
0.0
 11
90.237271726548784
 21
632.21771775886987
 31
0.0
  0
LINE
  5
1398
  8
0
 10
73.518271726548846
 20
687.58971775887005
 30
0.0
 11
90.237271726549011
 21
687.58971775886994
 31
0.0
  0
LINE
  5
1399
  8
0
 10
231.51827172654879
 20
687.58971775887005
 30
0.0
 11
214.7992717265488
 21
687.58971775886994
 31
0.0
  0
LINE
  5
139A
  8
0
 10
231.51827172654879
 20
632.21771775886975
 30
0.0
 11
214.79927172654899
 21
632.21771775886987
 31
0.0
  0
POLYLINE
  5
139C
  8
0
 66
     1
 10
0.0
 20
0.0
 30
0.0
 70
     2
  0
VERTEX
  5
139D
  8
0
 10
54.715755524986889
 20
669.98200643811515
 30
0.0
 42
-0.0040413799998157
  0
VERTEX
  5
13A3
  8
0
 10
54.691104947582062
 20
669.1026191775959
 30
0.0
 42
-0.0073295143842656
 70
     1
  0
VERTEX
  5
139E
  8
0
 10
54.666489648392258
 20
668.61815508779159
 30
0.0
 42
-0.0001709906459391
  0
VERTEX
  5
13A4
  8
0
 10
54.606955677384803
 20
667.71422713546531
 30
0.0
 42
0.0007185368467908
 70
     1
  0
VERTEX
  5
139F
  8
0
 10
54.5930239076514
 20
667.49910336818868
 30
0.0
 42
0.0007841317913932
  0
VERTEX
  5
13A6
  8
0
 10
54.58944503607426
 20
667.44114056931676
 30
0.0
 42
0.0000358166081327
 70
     1
  0
VERTEX
  5
13A0
  8
0
 10
54.513174064711393
 20
666.17203696767842
 30
0.0
 42
0.0083548442659233
  0
VERTEX
  5
13A5
  8
0
 10
54.486834490264073
 20
665.56334119230758
 30
0.0
 42
0.0046990938445372
 70
     1
  0
VERTEX
  5
13A1
  8
0
 10
54.468271726548892
 20
664.48029682629283
 30
0.0
  0
SEQEND
  5
13A2
  8
0
  0
POLYLINE
  5
13A7
  8
0
 66
     1
 10
0.0
 20
0.0
 30
0.0
 70
     2
  0
VERTEX
  5
13A8
  8
0
 10
54.468271726548892
 20
655.32713869144675
 30
0.0
 42
0.0138962190794718
  0
VERTEX
  5
13B0
  8
0
 10
54.447514046750491
 20
654.58040063018359
 30
0.0
 42
0.0209329441798326
 70
     1
  0
VERTEX
  5
13A9
  8
0
 10
54.468271726548892
 20
654.0848042188303
 30
0.0
 42
0.0014100389049529
  0
VERTEX
  5
13B1
  8
0
 10
54.514503712275079
 20
653.55190942581669
 30
0.0
 42
-0.0064523006932169
 70
     1
  0
VERTEX
  5
13AA
  8
0
 10
54.52343240250638
 20
653.43535388862097
 30
0.0
 42
-0.0010429365516694
  0
VERTEX
  5
13B2
  8
0
 10
54.561615263404981
 20
652.8149231719774
 30
0.0
 42
0.0012744478932155
 70
     1
  0
VERTEX
  5
13AB
  8
0
 10
54.593097073069089
 20
652.30721178400688
 30
0.0
 42
0.0007614028649165
  0
VERTEX
  5
13B3
  8
0
 10
54.62722148706451
 20
651.79092386233515
 30
0.0
 42
-0.001174000204153
 70
     1
  0
VERTEX
  5
13AC
  8
0
 10
54.66134590105991
 20
651.27463594066364
 30
0.0
 42
-0.0028327347887669
  0
VERTEX
  5
13B5
  8
0
 10
54.662795712280513
 20
651.24966129870825
 30
0.0
 42
-0.0001008446670411
 70
     1
  0
VERTEX
  5
13AD
  8
0
 10
54.699404020847282
 20
650.54790036080192
 30
0.0
 42
-0.007322266822615
  0
VERTEX
  5
13B4
  8
0
 10
54.708442131407757
 20
650.30552950762603
 30
0.0
 42
-0.003698519160729
 70
     1
  0
VERTEX
  5
13AE
  8
0
 10
54.715755524986768
 20
649.82542907962466
 30
0.0
  0
SEQEND
  5
13AF
  8
0
  0
POLYLINE
  5
13B6
  8
0
 66
     1
 10
0.0
 20
0.0
 30
0.0
 70
     2
  0
VERTEX
  5
13B7
  8
0
 10
250.3207879281108
 20
669.98200643811515
 30
0.0
 42
0.0041467545584605
  0
VERTEX
  5
13BF
  8
0
 10
250.3358239213178
 20
669.29496990157304
 30
0.0
 42
0.0077793310197355
 70
     1
  0
VERTEX
  5
13B8
  8
0
 10
250.3525715278231
 20
668.92902611950467
 30
0.0
 42
0.000020170886446
  0
VERTEX
  5
13C0
  8
0
 10
250.40674120209769
 20
668.04691769442388
 30
0.0
 42
0.0004035773684354
 70
     1
  0
VERTEX
  5
13B9
  8
0
 10
250.40948597829359
 20
668.00283202266087
 30
0.0
 42
0.0008857045271168
  0
VERTEX
  5
13C1
  8
0
 10
250.4697090775467
 20
667.07416589079355
 30
0.0
 42
-0.0014738962766029
 70
     1
  0
VERTEX
  5
13BA
  8
0
 10
250.505242314556
 20
666.51606208619955
 30
0.0
 42
-0.0030806169941704
  0
VERTEX
  5
13C2
  8
0
 10
250.52163288438621
 20
666.21546611653275
 30
0.0
 42
-0.0020898852964754
 70
     1
  0
VERTEX
  5
13BB
  8
0
 10
250.54121021005309
 20
665.77214564592441
 30
0.0
 42
-0.0028369833055159
  0
VERTEX
  5
13C4
  8
0
 10
250.54265527551891
 20
665.73000526661735
 30
0.0
 42
-0.0001574749342309
 70
     1
  0
VERTEX
  5
13BC
  8
0
 10
250.56414153791661
 20
664.97069076679122
 30
0.0
 42
-0.0048881479265335
  0
VERTEX
  5
13C3
  8
0
 10
250.56665352775761
 20
664.83267096486043
 30
0.0
 42
-0.0019148742840432
 70
     1
  0
VERTEX
  5
13BD
  8
0
 10
250.5682717265486
 20
664.48029682629283
 30
0.0
  0
SEQEND
  5
13BE
  8
0
  0
POLYLINE
  5
13C5
  8
0
 66
     1
 10
0.0
 20
0.0
 30
0.0
 70
     2
  0
VERTEX
  5
13C6
  8
0
 10
250.5682717265488
 20
655.32713869144675
 30
0.0
 42
-0.0037759239203916
  0
VERTEX
  5
13CE
  8
0
 10
250.56032923157679
 20
654.59313506665012
 30
0.0
 42
-0.0072076803035154
 70
     1
  0
VERTEX
  5
13C7
  8
0
 10
250.54772270743021
 20
654.20877855627714
 30
0.0
 42
-0.0001082146330778
  0
VERTEX
  5
13CF
  8
0
 10
250.499407912972
 20
653.19064754865337
 30
0.0
 42
-0.0037576025976029
 70
     1
  0
VERTEX
  5
13C8
  8
0
 10
250.49778982524569
 20
653.16133776716788
 30
0.0
 42
-0.0002469243526063
  0
VERTEX
  5
13D0
  8
0
 10
250.46822465391051
 20
652.69385663365335
 30
0.0
 42
-0.0002792575951481
 70
     1
  0
VERTEX
  5
13C9
  8
0
 10
250.44164763699951
 20
652.28052953440601
 30
0.0
 42
-0.000583733015297
  0
VERTEX
  5
13D1
  8
0
 10
250.40842882624
 20
651.77746967918074
 30
0.0
 42
0.0006345882373157
 70
     1
  0
VERTEX
  5
13CA
  8
0
 10
250.37521001548041
 20
651.27440982395535
 30
0.0
 42
0.0033461899550706
  0
VERTEX
  5
13D3
  8
0
 10
250.37343534299541
 20
651.24383379551682
 30
0.0
 42
0.0001337840180009
 70
     1
  0
VERTEX
  5
13CB
  8
0
 10
250.33437161303939
 20
650.47878794986968
 30
0.0
 42
0.0074904447215183
  0
VERTEX
  5
13D2
  8
0
 10
250.3270225526748
 20
650.27341180488247
 30
0.0
 42
0.0034356815952092
 70
     1
  0
VERTEX
  5
13CC
  8
0
 10
250.3207879281108
 20
649.82542907962466
 30
0.0
  0
SEQEND
  5
13CD
  8
0
  0
LINE
  5
13D4
  8
0
 10
128.68813936574711
 20
701.17871775886954
 30
0.0
 11
176.3484040873505
 21
701.17871775886954
 31
0.0
  0
LINE
  5
13D5
  8
0
 10
117.7040504944143
 20
682.15371775886922
 30
0.0
 11
128.68813936574711
 21
701.17871775886954
 31
0.0
  0
LINE
  5
13D6
  8
0
 10
187.33249295868339
 20
682.15371775886933
 30
0.0
 11
176.3484040873505
 21
701.17871775886954
 31
0.0
  0
LINE
  5
13D7
  8
0
 10
187.33249295868231
 20
637.65371775886877
 30
0.0
 11
176.3484040873505
 21
618.62871775886981
 31
0.0
  0
LINE
  5
13D8
  8
0
 10
128.68813936574711
 20
618.62871775886981
 30
0.0
 11
176.3484040873505
 21
618.62871775886981
 31
0.0
  0
LINE
  5
13D9
  8
0
 10
117.704050494415
 20
637.65371775886922
 30
0.0
 11
128.68813936574711
 21
618.62871775886981
 31
0.0
  0
LINE
  5
13DB
  8
0
 10
104.85800700494541
 20
167.0513874520023
 30
0.0
 11
111.2432717265487
 21
168.76231397761489
 31
0.0
  0
LINE
  5
13DC
  8
0
 10
111.2432717265489
 20
149.7123139776148
 30
0.0
 11
104.85800700494541
 21
151.42324050322739
 31
0.0
  0
LINE
  5
13DD
  8
0
 10
193.79327172654851
 20
149.712313977615
 30
0.0
 11
200.1785364481523
 21
151.4232405032277
 31
0.0
  0
LINE
  5
13DE
  8
0
 10
200.17853644815241
 20
167.05138745200239
 30
0.0
 11
193.79327172654891
 21
168.76231397761489
 31
0.0
  0
POLYLINE
  5
13DF
  8
0
 66
     1
 10
0.0
 20
0.0
 30
0.0
 70
     2
  0
VERTEX
  5
13E0
  8
0
 10
104.8580070049463
 20
167.05138745200259
 30
0.0
 42
-0.003133598759561
  0
VERTEX
  5
13EA
  8
0
 10
105.70881593022931
 20
167.27420195343029
 30
0.0
 42
-0.0043671986787608
 70
     1
  0
VERTEX
  5
13E1
  8
0
 10
106.32163265752111
 20
167.42490377948801
 30
0.0
 42
-0.0000379870416895
  0
VERTEX
  5
13EB
  8
0
 10
106.89148719224249
 20
167.55972764205899
 30
0.0
 42
-0.0008123816828925
 70
     1
  0
VERTEX
  5
13E2
  8
0
 10
106.91814434342361
 20
167.56598669460561
 30
0.0
 42
-0.0045471343662588
  0
VERTEX
  5
13EC
  8
0
 10
107.5920718810885
 20
167.7166204895511
 30
0.0
 42
-0.0029422185132152
 70
     1
  0
VERTEX
  5
13E3
  8
0
 10
108.6369696673799
 20
167.93379274096219
 30
0.0
 42
-0.0056570978663731
  0
VERTEX
  5
13ED
  8
0
 10
109.3724059830765
 20
168.07349723975489
 30
0.0
 42
-0.0043014809461779
 70
     1
  0
VERTEX
  5
13E4
  8
0
 10
110.343070162003
 20
168.23792848799539
 30
0.0
 42
-0.0061521058814442
  0
VERTEX
  5
13EE
  8
0
 10
111.3997600884522
 20
168.3942833283019
 30
0.0
 42
-0.0065271965694485
 70
     1
  0
VERTEX
  5
13E5
  8
0
 10
112.39914765165631
 20
168.51635303858779
 30
0.0
 42
-0.0037457422533706
  0
VERTEX
  5
13EF
  8
0
 10
113.16015982920359
 20
168.59347523855959
 30
0.0
 42
-0.0044975869361216
 70
     1
  0
VERTEX
  5
13E6
  8
0
 10
113.79493314926469
 20
168.64724816036241
 30
0.0
 42
-0.0043809683225978
  0
VERTEX
  5
13F1
  8
0
 10
113.89423467996311
 20
168.6538867233084
 30
0.0
 42
-0.0003183738406374
 70
     1
  0
VERTEX
  5
13E7
  8
0
 10
115.2614408376019
 20
168.732388407749
 30
0.0
 42
-0.0092311618995719
  0
VERTEX
  5
13F0
  8
0
 10
115.7814248269642
 20
168.75229066231361
 30
0.0
 42
-0.0048434800830956
 70
     1
  0
VERTEX
  5
13E8
  8
0
 10
116.77307318534611
 20
168.76231397761489
 30
0.0
  0
SEQEND
  5
13E9
  8
0
  0
POLYLINE
  5
13F2
  8
0
 66
     1
 10
0.0
 20
0.0
 30
0.0
 70
     2
  0
VERTEX
  5
13F3
  8
0
 10
116.77307318535181
 20
168.76231397761489
 30
0.0
 42
-0.0056524153263261
  0
VERTEX
  5
13FD
  8
0
 10
117.751159196945
 20
168.75090468914101
 30
0.0
 42
-0.0070941970543249
 70
     1
  0
VERTEX
  5
13F4
  8
0
 10
118.529994297264
 20
168.72195199232411
 30
0.0
 42
-0.0000362173518968
  0
VERTEX
  5
13FE
  8
0
 10
118.9777020474685
 20
168.6989115179108
 30
0.0
 42
-0.0014437941042693
 70
     1
  0
VERTEX
  5
13F5
  8
0
 10
118.9889309905579
 20
168.6983003094328
 30
0.0
 42
-0.0034380736016854
  0
VERTEX
  5
13FF
  8
0
 10
119.411682730959
 20
168.67114710207579
 30
0.0
 42
-0.0021598226732102
 70
     1
  0
VERTEX
  5
13F6
  8
0
 10
120.0841013415798
 20
168.62039282248941
 30
0.0
 42
-0.004946713686717
  0
VERTEX
  5
1400
  8
0
 10
120.50388299205579
 20
168.582700435531
 30
0.0
 42
-0.0025983007003073
 70
     1
  0
VERTEX
  5
13F7
  8
0
 10
121.30188647826409
 20
168.49889103583649
 30
0.0
 42
-0.0074341936853969
  0
VERTEX
  5
1401
  8
0
 10
122.27445275360149
 20
168.376974561163
 30
0.0
 42
-0.0059725269310355
 70
     1
  0
VERTEX
  5
13F8
  8
0
 10
123.48050958829771
 20
168.1928238820179
 30
0.0
 42
-0.0053391360249444
  0
VERTEX
  5
1402
  8
0
 10
124.51165926692551
 20
168.01142097856109
 30
0.0
 42
-0.0058921358276826
 70
     1
  0
VERTEX
  5
13F9
  8
0
 10
125.44210962784619
 20
167.8260973662079
 30
0.0
 42
-0.0039952432185719
  0
VERTEX
  5
1404
  8
0
 10
125.6696925363903
 20
167.77607024949381
 30
0.0
 42
-0.0004814716778917
 70
     1
  0
VERTEX
  5
13FA
  8
0
 10
127.5543493128713
 20
167.3440615236394
 30
0.0
 42
-0.0065822722027608
  0
VERTEX
  5
1403
  8
0
 10
127.8655073798472
 20
167.26809446348079
 30
0.0
 42
-0.00247820961655
 70
     1
  0
VERTEX
  5
13FB
  8
0
 10
128.68813936574719
 20
167.0513874520023
 30
0.0
  0
SEQEND
  5
13FC
  8
0
  0
POLYLINE
  5
1405
  8
0
 66
     1
 10
0.0
 20
0.0
 30
0.0
 70
     2
  0
VERTEX
  5
1406
  8
0
 10
116.77307318535181
 20
149.71231397761491
 30
0.0
 42
0.0056524153263261
  0
VERTEX
  5
1407
  8
0
 10
117.751159196945
 20
149.7237232660888
 30
0.0
 42
0.0070941970543249
 70
     1
  0
VERTEX
  5
1408
  8
0
 10
118.529994297264
 20
149.7526759629057
 30
0.0
 42
0.0000362173518968
  0
VERTEX
  5
1409
  8
0
 10
118.9777020474685
 20
149.77571643731901
 30
0.0
 42
0.0014437941042693
 70
     1
  0
VERTEX
  5
140A
  8
0
 10
118.9889309905579
 20
149.77632764579701
 30
0.0
 42
0.0034380736016854
  0
VERTEX
  5
140B
  8
0
 10
119.411682730959
 20
149.80348085315401
 30
0.0
 42
0.0021598226732102
 70
     1
  0
VERTEX
  5
140C
  8
0
 10
120.0841013415798
 20
149.8542351327404
 30
0.0
 42
0.004946713686717
  0
VERTEX
  5
140D
  8
0
 10
120.50388299205579
 20
149.89192751969881
 30
0.0
 42
0.0025983007003073
 70
     1
  0
VERTEX
  5
140E
  8
0
 10
121.30188647826409
 20
149.97573691939331
 30
0.0
 42
0.0074341936853969
  0
VERTEX
  5
140F
  8
0
 10
122.27445275360149
 20
150.09765339406681
 30
0.0
 42
0.0059725269310355
 70
     1
  0
VERTEX
  5
1410
  8
0
 10
123.48050958829771
 20
150.2818040732119
 30
0.0
 42
0.0053391360249444
  0
VERTEX
  5
1411
  8
0
 10
124.51165926692551
 20
150.4632069766688
 30
0.0
 42
0.0058921358276826
 70
     1
  0
VERTEX
  5
1412
  8
0
 10
125.44210962784619
 20
150.64853058902199
 30
0.0
 42
0.0039952432185719
  0
VERTEX
  5
1413
  8
0
 10
125.6696925363903
 20
150.69855770573599
 30
0.0
 42
0.0004814716778917
 70
     1
  0
VERTEX
  5
1414
  8
0
 10
127.5543493128713
 20
151.13056643159041
 30
0.0
 42
0.0065822722027608
  0
VERTEX
  5
1415
  8
0
 10
127.8655073798472
 20
151.2065334917491
 30
0.0
 42
0.00247820961655
 70
     1
  0
VERTEX
  5
1416
  8
0
 10
128.68813936574719
 20
151.4232405032275
 30
0.0
  0
SEQEND
  5
1417
  8
0
  0
POLYLINE
  5
1418
  8
0
 66
     1
 10
0.0
 20
0.0
 30
0.0
 70
     2
  0
VERTEX
  5
1419
  8
0
 10
104.8580070049463
 20
151.42324050322719
 30
0.0
 42
0.003133598759561
  0
VERTEX
  5
141A
  8
0
 10
105.70881593022931
 20
151.2004260017994
 30
0.0
 42
0.0043671986787608
 70
     1
  0
VERTEX
  5
141B
  8
0
 10
106.32163265752111
 20
151.04972417574169
 30
0.0
 42
0.0000379870416895
  0
VERTEX
  5
141C
  8
0
 10
106.89148719224249
 20
150.91490031317079
 30
0.0
 42
0.0008123816828925
 70
     1
  0
VERTEX
  5
141D
  8
0
 10
106.91814434342361
 20
150.90864126062411
 30
0.0
 42
0.0045471343662588
  0
VERTEX
  5
141E
  8
0
 10
107.5920718810885
 20
150.75800746567859
 30
0.0
 42
0.0029422185132152
 70
     1
  0
VERTEX
  5
141F
  8
0
 10
108.6369696673799
 20
150.5408352142675
 30
0.0
 42
0.0056570978663731
  0
VERTEX
  5
1420
  8
0
 10
109.3724059830765
 20
150.40113071547489
 30
0.0
 42
0.0043014809461779
 70
     1
  0
VERTEX
  5
1421
  8
0
 10
110.343070162003
 20
150.23669946723439
 30
0.0
 42
0.0061521058814442
  0
VERTEX
  5
1422
  8
0
 10
111.3997600884522
 20
150.0803446269278
 30
0.0
 42
0.0065271965694485
 70
     1
  0
VERTEX
  5
1423
  8
0
 10
112.39914765165631
 20
149.95827491664201
 30
0.0
 42
0.0037457422533706
  0
VERTEX
  5
1424
  8
0
 10
113.16015982920359
 20
149.8811527166701
 30
0.0
 42
0.0044975869361216
 70
     1
  0
VERTEX
  5
1425
  8
0
 10
113.79493314926469
 20
149.8273797948674
 30
0.0
 42
0.0043809683225978
  0
VERTEX
  5
1426
  8
0
 10
113.89423467996311
 20
149.82074123192129
 30
0.0
 42
0.0003183738406374
 70
     1
  0
VERTEX
  5
1427
  8
0
 10
115.2614408376019
 20
149.74223954748081
 30
0.0
 42
0.0092311618995719
  0
VERTEX
  5
1428
  8
0
 10
115.7814248269642
 20
149.72233729291619
 30
0.0
 42
0.0048434800830956
 70
     1
  0
VERTEX
  5
1429
  8
0
 10
116.77307318534611
 20
149.71231397761491
 30
0.0
  0
SEQEND
  5
142A
  8
0
  0
POLYLINE
  5
142B
  8
0
 66
     1
 10
0.0
 20
0.0
 30
0.0
 70
     2
  0
VERTEX
  5
142C
  8
0
 10
188.2634702677538
 20
168.7623139776174
 30
0.0
 42
0.0056524153263261
  0
VERTEX
  5
142D
  8
0
 10
187.28538425616051
 20
168.75090468914351
 30
0.0
 42
0.0070941970543249
 70
     1
  0
VERTEX
  5
142E
  8
0
 10
186.50654915584161
 20
168.72195199232661
 30
0.0
 42
0.0000362173518968
  0
VERTEX
  5
142F
  8
0
 10
186.0588414056372
 20
168.69891151791319
 30
0.0
 42
0.0014437941042693
 70
     1
  0
VERTEX
  5
1430
  8
0
 10
186.0476124625477
 20
168.69830030943521
 30
0.0
 42
0.0034380736016854
  0
VERTEX
  5
1431
  8
0
 10
185.62486072214659
 20
168.67114710207821
 30
0.0
 42
0.0021598226732102
 70
     1
  0
VERTEX
  5
1432
  8
0
 10
184.95244211152581
 20
168.62039282249171
 30
0.0
 42
0.004946713686717
  0
VERTEX
  5
1433
  8
0
 10
184.53266046104969
 20
168.5827004355333
 30
0.0
 42
0.0025983007003073
 70
     1
  0
VERTEX
  5
1434
  8
0
 10
183.7346569748415
 20
168.49889103583871
 30
0.0
 42
0.0074341936853969
  0
VERTEX
  5
1435
  8
0
 10
182.76209069950411
 20
168.37697456116521
 30
0.0
 42
0.0059725269310355
 70
     1
  0
VERTEX
  5
1436
  8
0
 10
181.55603386480789
 20
168.19282388202001
 30
0.0
 42
0.0053391360249444
  0
VERTEX
  5
1437
  8
0
 10
180.52488418618009
 20
168.01142097856311
 30
0.0
 42
0.0058921358276826
 70
     1
  0
VERTEX
  5
1438
  8
0
 10
179.59443382525939
 20
167.82609736620981
 30
0.0
 42
0.0039952432185719
  0
VERTEX
  5
1439
  8
0
 10
179.36685091671529
 20
167.77607024949569
 30
0.0
 42
0.0004814716778917
 70
     1
  0
VERTEX
  5
143A
  8
0
 10
177.4821941402343
 20
167.34406152364119
 30
0.0
 42
0.0065822722027608
  0
VERTEX
  5
143B
  8
0
 10
177.17103607325851
 20
167.2680944634825
 30
0.0
 42
0.00247820961655
 70
     1
  0
VERTEX
  5
143C
  8
0
 10
176.34840408735849
 20
167.05138745200401
 30
0.0
  0
SEQEND
  5
143D
  8
0
  0
POLYLINE
  5
143E
  8
0
 66
     1
 10
0.0
 20
0.0
 30
0.0
 70
     2
  0
VERTEX
  5
143F
  8
0
 10
200.17853644815941
 20
167.051387452006
 30
0.0
 42
0.003133598759561
  0
VERTEX
  5
1440
  8
0
 10
199.32772752287639
 20
167.27420195343359
 30
0.0
 42
0.0043671986787608
 70
     1
  0
VERTEX
  5
1441
  8
0
 10
198.7149107955845
 20
167.4249037794913
 30
0.0
 42
0.0000379870416895
  0
VERTEX
  5
1442
  8
0
 10
198.1450562608631
 20
167.5597276420622
 30
0.0
 42
0.0008123816828925
 70
     1
  0
VERTEX
  5
1443
  8
0
 10
198.118399109682
 20
167.56598669460891
 30
0.0
 42
0.0045471343662588
  0
VERTEX
  5
1444
  8
0
 10
197.44447157201711
 20
167.71662048955429
 30
0.0
 42
0.0029422185132152
 70
     1
  0
VERTEX
  5
1445
  8
0
 10
196.39957378572569
 20
167.9337927409654
 30
0.0
 42
0.0056570978663731
  0
VERTEX
  5
1446
  8
0
 10
195.66413747002909
 20
168.07349723975801
 30
0.0
 42
0.0043014809461779
 70
     1
  0
VERTEX
  5
1447
  8
0
 10
194.69347329110249
 20
168.2379284879984
 30
0.0
 42
0.0061521058814442
  0
VERTEX
  5
1448
  8
0
 10
193.63678336465341
 20
168.39428332830491
 30
0.0
 42
0.0065271965694485
 70
     1
  0
VERTEX
  5
1449
  8
0
 10
192.63739580144929
 20
168.51635303859069
 30
0.0
 42
0.0037457422533706
  0
VERTEX
  5
144A
  8
0
 10
191.876383623902
 20
168.59347523856249
 30
0.0
 42
0.0044975869361216
 70
     1
  0
VERTEX
  5
144B
  8
0
 10
191.2416103038409
 20
168.64724816036519
 30
0.0
 42
0.0043809683225978
  0
VERTEX
  5
144C
  8
0
 10
191.1423087731425
 20
168.65388672331119
 30
0.0
 42
0.0003183738406374
 70
     1
  0
VERTEX
  5
144D
  8
0
 10
189.77510261550381
 20
168.73238840775161
 30
0.0
 42
0.0092311618995719
  0
VERTEX
  5
144E
  8
0
 10
189.25511862614141
 20
168.75229066231631
 30
0.0
 42
0.0048434800830956
 70
     1
  0
VERTEX
  5
144F
  8
0
 10
188.26347026775949
 20
168.7623139776174
 30
0.0
  0
SEQEND
  5
1450
  8
0
  0
POLYLINE
  5
1451
  8
0
 66
     1
 10
0.0
 20
0.0
 30
0.0
 70
     2
  0
VERTEX
  5
1452
  8
0
 10
188.2634702677552
 20
149.7123139776175
 30
0.0
 42
-0.0056524153263261
  0
VERTEX
  5
1453
  8
0
 10
187.2853842561619
 20
149.72372326609121
 30
0.0
 42
-0.0070941970543249
 70
     1
  0
VERTEX
  5
1454
  8
0
 10
186.506549155843
 20
149.75267596290811
 30
0.0
 42
-0.0000362173518968
  0
VERTEX
  5
1455
  8
0
 10
186.0588414056385
 20
149.77571643732139
 30
0.0
 42
-0.0014437941042693
 70
     1
  0
VERTEX
  5
1456
  8
0
 10
186.04761246254901
 20
149.7763276457994
 30
0.0
 42
-0.0034380736016854
  0
VERTEX
  5
1457
  8
0
 10
185.62486072214799
 20
149.8034808531564
 30
0.0
 42
-0.0021598226732102
 70
     1
  0
VERTEX
  5
1458
  8
0
 10
184.95244211152709
 20
149.8542351327427
 30
0.0
 42
-0.004946713686717
  0
VERTEX
  5
1459
  8
0
 10
184.53266046105099
 20
149.89192751970111
 30
0.0
 42
-0.0025983007003073
 70
     1
  0
VERTEX
  5
145A
  8
0
 10
183.73465697484281
 20
149.9757369193955
 30
0.0
 42
-0.0074341936853969
  0
VERTEX
  5
145B
  8
0
 10
182.76209069950539
 20
150.097653394069
 30
0.0
 42
-0.0059725269310355
 70
     1
  0
VERTEX
  5
145C
  8
0
 10
181.55603386480911
 20
150.281804073214
 30
0.0
 42
-0.0053391360249444
  0
VERTEX
  5
145D
  8
0
 10
180.52488418618131
 20
150.46320697667079
 30
0.0
 42
-0.0058921358276826
 70
     1
  0
VERTEX
  5
145E
  8
0
 10
179.59443382526069
 20
150.64853058902389
 30
0.0
 42
-0.0039952432185719
  0
VERTEX
  5
145F
  8
0
 10
179.36685091671649
 20
150.69855770573801
 30
0.0
 42
-0.0004814716778917
 70
     1
  0
VERTEX
  5
1460
  8
0
 10
177.48219414023561
 20
151.1305664315922
 30
0.0
 42
-0.0065822722027608
  0
VERTEX
  5
1461
  8
0
 10
177.17103607325959
 20
151.2065334917508
 30
0.0
 42
-0.00247820961655
 70
     1
  0
VERTEX
  5
1462
  8
0
 10
176.3484040873596
 20
151.42324050322921
 30
0.0
  0
SEQEND
  5
1463
  8
0
  0
POLYLINE
  5
1464
  8
0
 66
     1
 10
0.0
 20
0.0
 30
0.0
 70
     2
  0
VERTEX
  5
1465
  8
0
 10
200.1785364481606
 20
151.4232405032306
 30
0.0
 42
-0.003133598759561
  0
VERTEX
  5
1466
  8
0
 10
199.32772752287761
 20
151.20042600180281
 30
0.0
 42
-0.0043671986787608
 70
     1
  0
VERTEX
  5
1467
  8
0
 10
198.71491079558569
 20
151.04972417574501
 30
0.0
 42
-0.0000379870416895
  0
VERTEX
  5
1468
  8
0
 10
198.14505626086441
 20
150.914900313174
 30
0.0
 42
-0.0008123816828925
 70
     1
  0
VERTEX
  5
1469
  8
0
 10
198.11839910968331
 20
150.90864126062729
 30
0.0
 42
-0.0045471343662588
  0
VERTEX
  5
146A
  8
0
 10
197.44447157201839
 20
150.75800746568191
 30
0.0
 42
-0.0029422185132152
 70
     1
  0
VERTEX
  5
146B
  8
0
 10
196.39957378572689
 20
150.5408352142706
 30
0.0
 42
-0.0056570978663731
  0
VERTEX
  5
146C
  8
0
 10
195.66413747003031
 20
150.4011307154779
 30
0.0
 42
-0.0043014809461779
 70
     1
  0
VERTEX
  5
146D
  8
0
 10
194.6934732911038
 20
150.2366994672374
 30
0.0
 42
-0.0061521058814442
  0
VERTEX
  5
146E
  8
0
 10
193.6367833646546
 20
150.08034462693081
 30
0.0
 42
-0.0065271965694485
 70
     1
  0
VERTEX
  5
146F
  8
0
 10
192.63739580145051
 20
149.95827491664491
 30
0.0
 42
-0.0037457422533706
  0
VERTEX
  5
1470
  8
0
 10
191.87638362390331
 20
149.881152716673
 30
0.0
 42
-0.0044975869361216
 70
     1
  0
VERTEX
  5
1471
  8
0
 10
191.24161030384229
 20
149.82737979487021
 30
0.0
 42
-0.0043809683225978
  0
VERTEX
  5
1472
  8
0
 10
191.1423087731439
 20
149.8207412319241
 30
0.0
 42
-0.0003183738406374
 70
     1
  0
VERTEX
  5
1473
  8
0
 10
189.77510261550509
 20
149.74223954748351
 30
0.0
 42
-0.0092311618995719
  0
VERTEX
  5
1474
  8
0
 10
189.2551186261428
 20
149.72233729291881
 30
0.0
 42
-0.0048434800830956
 70
     1
  0
VERTEX
  5
1475
  8
0
 10
188.26347026776091
 20
149.7123139776175
 30
0.0
  0
SEQEND
  5
1476
  8
0
  0
POLYLINE
  5
1477
  8
0
 66
     1
 10
0.0
 20
0.0
 30
0.0
 70
     2
  0
VERTEX
  5
1478
  8
0
 10
152.51827172654839
 20
168.76231397761501
 30
0.0
 42
0.0022215046110859
  0
VERTEX
  5
1483
  8
0
 10
151.045108853079
 20
168.75563219359219
 30
0.0
 42
0.0025826806593979
 70
     1
  0
VERTEX
  5
1479
  8
0
 10
149.77807256753781
 20
168.73771004618291
 30
0.0
 42
0.0000029705652762
  0
VERTEX
  5
1484
  8
0
 10
149.33306498077221
 20
168.7291135292175
 30
0.0
 42
0.0003223337692478
 70
     1
  0
VERTEX
  5
147A
  8
0
 10
149.32896392916791
 20
168.7290316371805
 30
0.0
 42
0.0014319022679207
  0
VERTEX
  5
1485
  8
0
 10
148.7775407794652
 20
168.71608495212331
 30
0.0
 42
0.0006585494590187
 70
     1
  0
VERTEX
  5
147B
  8
0
 10
147.57869631361419
 20
168.68292213728949
 30
0.0
 42
0.0022882755642715
  0
VERTEX
  5
1486
  8
0
 10
147.02623950704219
 20
168.6643808592348
 30
0.0
 42
0.0008744609347536
 70
     1
  0
VERTEX
  5
147C
  8
0
 10
145.5809215444809
 20
168.60671915243
 30
0.0
 42
0.0044641244197082
  0
VERTEX
  5
1487
  8
0
 10
143.2111336348643
 20
168.4868207145453
 30
0.0
 42
0.0040088646722515
 70
     1
  0
VERTEX
  5
147D
  8
0
 10
140.57487635072761
 20
168.3086095960507
 30
0.0
 42
0.0019884492828487
  0
VERTEX
  5
1488
  8
0
 10
138.72633864660381
 20
168.16135545819719
 30
0.0
 42
0.0026074890391209
 70
     1
  0
VERTEX
  5
147E
  8
0
 10
137.31774701698171
 20
168.03610768238659
 30
0.0
 42
0.0014553847590602
  0
VERTEX
  5
1489
  8
0
 10
135.6909555497368
 20
167.87812491353679
 30
0.0
 42
0.0019481884412383
 70
     1
  0
VERTEX
  5
147F
  8
0
 10
134.47649834027149
 20
167.7518346100205
 30
0.0
 42
0.0018833202051871
  0
VERTEX
  5
148B
  8
0
 10
134.35409078854349
 20
167.73815663158661
 30
0.0
 42
0.0000701083662708
 70
     1
  0
VERTEX
  5
1480
  8
0
 10
131.0673304214159
 20
167.35788280372171
 30
0.0
 42
0.0031977569657729
  0
VERTEX
  5
148A
  8
0
 10
130.36253732879771
 20
167.27166759238341
 30
0.0
 42
0.0013444477576357
 70
     1
  0
VERTEX
  5
1481
  8
0
 10
128.68813936574719
 20
167.0513874520023
 30
0.0
  0
SEQEND
  5
1482
  8
0
  0
POLYLINE
  5
148C
  8
0
 66
     1
 10
0.0
 20
0.0
 30
0.0
 70
     2
  0
VERTEX
  5
148D
  8
0
 10
128.68813936574711
 20
151.42324050322739
 30
0.0
 42
0.00040505448751
  0
VERTEX
  5
149D
  8
0
 10
129.21190672120059
 20
151.35348523830859
 30
0.0
 42
0.0008972590950809
 70
     1
  0
VERTEX
  5
148E
  8
0
 10
129.4484351978877
 20
151.32261118755281
 30
0.0
 42
0.0000049113461566
  0
VERTEX
  5
149E
  8
0
 10
130.37099332929569
 20
151.20388229258921
 30
0.0
 42
0.0004127770525928
 70
     1
  0
VERTEX
  5
148F
  8
0
 10
130.38197138277209
 20
151.2024787904206
 30
0.0
 42
0.0007022396198938
  0
VERTEX
  5
149F
  8
0
 10
130.86428723242349
 20
151.14190940341311
 30
0.0
 42
0.0005483107313014
 70
     1
  0
VERTEX
  5
1490
  8
0
 10
131.48219700014789
 20
151.06588142362861
 30
0.0
 42
0.0007547150283857
  0
VERTEX
  5
14A0
  8
0
 10
131.96341092581491
 20
151.00794522854221
 30
0.0
 42
0.00050510091471
 70
     1
  0
VERTEX
  5
1491
  8
0
 10
132.68264994418561
 20
150.92318971460529
 30
0.0
 42
0.0009024038823889
  0
VERTEX
  5
14A1
  8
0
 10
133.06253557887609
 20
150.8795076611309
 30
0.0
 42
0.0004173853258342
 70
     1
  0
VERTEX
  5
1492
  8
0
 10
133.88410951965301
 20
150.78723364733389
 30
0.0
 42
0.0019101666600775
  0
VERTEX
  5
14A2
  8
0
 10
135.06522783175379
 20
150.66014258323091
 30
0.0
 42
0.0016025839942993
 70
     1
  0
VERTEX
  5
1493
  8
0
 10
136.47406521089371
 20
150.5185533991804
 30
0.0
 42
0.0013885996015097
  0
VERTEX
  5
14A3
  8
0
 10
137.4870951359735
 20
150.42286107157591
 30
0.0
 42
0.0013763582761281
 70
     1
  0
VERTEX
  5
1494
  8
0
 10
138.50965315775821
 20
150.33197089762839
 30
0.0
 42
0.0011926633117378
  0
VERTEX
  5
14A4
  8
0
 10
139.35468350337391
 20
150.26123443273849
 30
0.0
 42
0.0011392914626175
 70
     1
  0
VERTEX
  5
1495
  8
0
 10
140.2396362173254
 20
150.19131078138849
 30
0.0
 42
0.0019132707671316
  0
VERTEX
  5
14A5
  8
0
 10
141.50316422377
 20
150.0992328853267
 30
0.0
 42
0.001931093709166
 70
     1
  0
VERTEX
  5
1496
  8
0
 10
142.75569505883351
 20
150.01763266319409
 30
0.0
 42
0.001038032415429
  0
VERTEX
  5
14A6
  8
0
 10
143.52436796121401
 20
149.97213717414479
 30
0.0
 42
0.0011290954366491
 70
     1
  0
VERTEX
  5
1497
  8
0
 10
144.23122117707291
 20
149.93337425512709
 30
0.0
 42
0.0016710005666924
  0
VERTEX
  5
14A7
  8
0
 10
145.36517455182539
 20
149.8775572744193
 30
0.0
 42
0.0017733574808553
 70
     1
  0
VERTEX
  5
1498
  8
0
 10
146.4340142910109
 20
149.83232378574701
 30
0.0
 42
0.00117171534301
  0
VERTEX
  5
14A8
  8
0
 10
147.21524967845099
 20
149.80387049698669
 30
0.0
 42
0.0011277339139965
 70
     1
  0
VERTEX
  5
1499
  8
0
 10
148.02708040259961
 20
149.7780407769969
 30
0.0
 42
0.0014316999505767
  0
VERTEX
  5
14AA
  8
0
 10
148.0511787192336
 20
149.777397511576
 30
0.0
 42
0.0000213011782341
 70
     1
  0
VERTEX
  5
149A
  8
0
 10
149.6709960921786
 20
149.73886930950289
 30
0.0
 42
0.0036030482054569
  0
VERTEX
  5
14A9
  8
0
 10
150.77956907629769
 20
149.72054030020561
 30
0.0
 42
0.0022975247266284
 70
     1
  0
VERTEX
  5
149B
  8
0
 10
152.5182717265487
 20
149.7123139776148
 30
0.0
  0
SEQEND
  5
149C
  8
0
  0
POLYLINE
  5
14AB
  8
0
 66
     1
 10
0.0
 20
0.0
 30
0.0
 70
     2
  0
VERTEX
  5
14AC
  8
0
 10
176.3431501410771
 20
151.4160219871959
 30
0.0
 42
-0.00040505448751
  0
VERTEX
  5
14AD
  8
0
 10
175.81936167737999
 20
151.34642540020741
 30
0.0
 42
-0.0008972590950809
 70
     1
  0
VERTEX
  5
14AE
  8
0
 10
175.58282385828801
 20
151.31562300690351
 30
0.0
 42
-0.0000049113461566
  0
VERTEX
  5
14AF
  8
0
 10
174.66022980043061
 20
151.19717360533301
 30
0.0
 42
-0.0004127770525928
 70
     1
  0
VERTEX
  5
14B0
  8
0
 10
174.64925132226861
 20
151.19577342901761
 30
0.0
 42
-0.0007022396198938
  0
VERTEX
  5
14B1
  8
0
 10
174.16691714532271
 20
151.13535016183201
 30
0.0
 42
-0.0005483107313014
 70
     1
  0
VERTEX
  5
14B2
  8
0
 10
173.54898437336291
 20
151.05950938060309
 30
0.0
 42
-0.0007547150283857
  0
VERTEX
  5
14B3
  8
0
 10
173.06775291807341
 20
151.001718971391
 30
0.0
 42
-0.00050510091471
 70
     1
  0
VERTEX
  5
14B4
  8
0
 10
172.34848825612059
 20
150.91718135399231
 30
0.0
 42
-0.0009024038823889
  0
VERTEX
  5
14B5
  8
0
 10
171.9685894054339
 20
150.8736143884467
 30
0.0
 42
-0.0004173853258342
 70
     1
  0
VERTEX
  5
14B6
  8
0
 10
171.14698754804991
 20
150.78158927378229
 30
0.0
 42
-0.0019101666600775
  0
VERTEX
  5
14B7
  8
0
 10
169.965830788055
 20
150.65485603397099
 30
0.0
 42
-0.0016025839942993
 70
     1
  0
VERTEX
  5
14B8
  8
0
 10
168.55695057928159
 20
150.5136936621119
 30
0.0
 42
-0.0013885996015097
  0
VERTEX
  5
14B9
  8
0
 10
167.54389171080629
 20
150.41830823517111
 30
0.0
 42
-0.0013763582761281
 70
     1
  0
VERTEX
  5
14BA
  8
0
 10
166.52130620086999
 20
150.32772784819309
 30
0.0
 42
-0.0011926633117378
  0
VERTEX
  5
14BB
  8
0
 10
165.67625446449981
 20
150.2572473875388
 30
0.0
 42
-0.0011392914626175
 70
     1
  0
VERTEX
  5
14BC
  8
0
 10
164.79128060786661
 20
150.18759183482339
 30
0.0
 42
-0.0019132707671316
  0
VERTEX
  5
14BD
  8
0
 10
163.5277247645094
 20
150.09589672737059
 30
0.0
 42
-0.001931093709166
 70
     1
  0
VERTEX
  5
14BE
  8
0
 10
162.275169266228
 20
150.0146759617854
 30
0.0
 42
-0.001038032415429
  0
VERTEX
  5
14BF
  8
0
 10
161.5064826163142
 20
149.9694133434121
 30
0.0
 42
-0.0011290954366491
 70
     1
  0
VERTEX
  5
14C0
  8
0
 10
160.79961768970949
 20
149.9308645665572
 30
0.0
 42
-0.0016710005666924
  0
VERTEX
  5
14C1
  8
0
 10
159.66564745730159
 20
149.875391118306
 30
0.0
 42
-0.0017733574808553
 70
     1
  0
VERTEX
  5
14C2
  8
0
 10
158.59679406372979
 20
149.83048143550209
 30
0.0
 42
-0.00117171534301
  0
VERTEX
  5
14C3
  8
0
 10
157.81555009224809
 20
149.80226482242639
 30
0.0
 42
-0.0011277339139965
 70
     1
  0
VERTEX
  5
14C4
  8
0
 10
157.0037115802692
 20
149.77668104682351
 30
0.0
 42
-0.0014316999505767
  0
VERTEX
  5
14C5
  8
0
 10
156.97961306986451
 20
149.77604508198999
 30
0.0
 42
-0.0000213011782341
 70
     1
  0
VERTEX
  5
14C6
  8
0
 10
155.3597840991759
 20
149.73800760352989
 30
0.0
 42
-0.0036030482054569
  0
VERTEX
  5
14C7
  8
0
 10
154.25120561317539
 20
149.72001443600811
 30
0.0
 42
-0.0022975247266284
 70
     1
  0
VERTEX
  5
14C8
  8
0
 10
152.51250055055661
 20
149.7123148518005
 30
0.0
  0
SEQEND
  5
14C9
  8
0
  0
POLYLINE
  5
14CA
  8
0
 66
     1
 10
0.0
 20
0.0
 30
0.0
 70
     2
  0
VERTEX
  5
14CB
  8
0
 10
152.5182717265574
 20
168.76231397761501
 30
0.0
 42
-0.0022215046110859
  0
VERTEX
  5
14CC
  8
0
 10
153.99143250818599
 20
168.7551859008689
 30
0.0
 42
-0.0025826806593979
 70
     1
  0
VERTEX
  5
14CD
  8
0
 10
155.2584633060896
 20
168.73687990706929
 30
0.0
 42
-0.0000029705652762
  0
VERTEX
  5
14CE
  8
0
 10
155.7034682681292
 20
168.72814857595219
 30
0.0
 42
-0.0003223337692478
 70
     1
  0
VERTEX
  5
14CF
  8
0
 10
155.7075692947362
 20
168.72806544151001
 30
0.0
 42
-0.0014319022679207
  0
VERTEX
  5
14D0
  8
0
 10
156.25898849695099
 20
168.71495170402599
 30
0.0
 42
-0.0006585494590187
 70
     1
  0
VERTEX
  5
14D1
  8
0
 10
157.4578228611509
 20
168.6814257021361
 30
0.0
 42
-0.0022882755642715
  0
VERTEX
  5
14D2
  8
0
 10
158.01027402531199
 20
168.66271705876619
 30
0.0
 42
-0.0008744609347536
 70
     1
  0
VERTEX
  5
14D3
  8
0
 10
159.455574453
 20
168.60461749716191
 30
0.0
 42
-0.0044641244197082
  0
VERTEX
  5
14D4
  8
0
 10
161.825325930773
 20
168.4840011402064
 30
0.0
 42
-0.0040088646722515
 70
     1
  0
VERTEX
  5
14D5
  8
0
 10
164.46152910507709
 20
168.30499137872081
 30
0.0
 42
-0.0019884492828487
  0
VERTEX
  5
14D6
  8
0
 10
166.31002211389861
 20
168.15717723521351
 30
0.0
 42
-0.0026074890391209
 70
     1
  0
VERTEX
  5
14D7
  8
0
 10
167.71857573520941
 20
168.03150273390591
 30
0.0
 42
-0.0014553847590602
  0
VERTEX
  5
14D8
  8
0
 10
169.3453192671011
 20
167.87302713766661
 30
0.0
 42
-0.0019481884412383
 70
     1
  0
VERTEX
  5
14D9
  8
0
 10
170.5597381613311
 20
167.74636892150471
 30
0.0
 42
-0.0018833202051871
  0
VERTEX
  5
14DA
  8
0
 10
170.6821415637138
 20
167.7326538604689
 30
0.0
 42
-0.0000701083662708
 70
     1
  0
VERTEX
  5
14DB
  8
0
 10
173.96878657648821
 20
167.3513843297105
 30
0.0
 42
-0.0031977569657729
  0
VERTEX
  5
14DC
  8
0
 10
174.6735535179632
 20
167.26495560605659
 30
0.0
 42
-0.0013444477576357
 70
     1
  0
VERTEX
  5
14DD
  8
0
 10
176.34788467055739
 20
167.04416821881071
 30
0.0
  0
SEQEND
  5
14DE
  8
0
  0
LINE
  5
14DF
  8
0
 10
214.79927172655221
 20
88.688813977614757
 30
0.0
 11
231.51827172654879
 21
88.688813977614686
 31
0.0
  0
LINE
  5
14E0
  8
0
 10
90.237271726549125
 20
88.688813977614757
 30
0.0
 11
73.518271726549756
 21
88.688813977614757
 31
0.0
  0
POLYLINE
  5
14E1
  8
0
 66
     1
 10
0.0
 20
0.0
 30
0.0
 70
     2
  0
VERTEX
  5
14E2
  8
0
 10
54.468271726548892
 20
127.13900065983201
 30
0.0
 42
0.0047820553785002
  0
VERTEX
  5
14EB
  8
0
 10
54.489443303732507
 20
126.6072001104107
 30
0.0
 42
0.0079083148136327
 70
     1
  0
VERTEX
  5
14E3
  8
0
 10
54.510402942630662
 20
126.286042931892
 30
0.0
 42
0.000038377744585
  0
VERTEX
  5
14EC
  8
0
 10
54.548994083234447
 20
125.81102556223679
 30
0.0
 42
-0.000221078591425
 70
     1
  0
VERTEX
  5
14E4
  8
0
 10
54.555663112004368
 20
125.72856332749021
 30
0.0
 42
-0.0000856746787669
  0
VERTEX
  5
14ED
  8
0
 10
54.591346572799459
 20
125.28394420774519
 30
0.0
 42
-0.0001720859410938
 70
     1
  0
VERTEX
  5
14E5
  8
0
 10
54.608997818161349
 20
125.06257707099719
 30
0.0
 42
-0.0028405800837948
  0
VERTEX
  5
14EE
  8
0
 10
54.625249764947966
 20
124.8419922634998
 30
0.0
 42
-0.0014721323708869
 70
     1
  0
VERTEX
  5
14E6
  8
0
 10
54.652936461156173
 20
124.41610665582481
 30
0.0
 42
-0.0031924720628915
  0
VERTEX
  5
14EF
  8
0
 10
54.672729472149513
 20
124.0604146991604
 30
0.0
 42
-0.0027701720398902
 70
     1
  0
VERTEX
  5
14E7
  8
0
 10
54.690649939165041
 20
123.6502573018076
 30
0.0
 42
-0.0027509294784213
  0
VERTEX
  5
14F1
  8
0
 10
54.691744571052823
 20
123.61671391525989
 30
0.0
 42
-0.000129133728924
 70
     1
  0
VERTEX
  5
14E8
  8
0
 10
54.710946929708143
 20
122.9020237326294
 30
0.0
 42
-0.0046161569138502
  0
VERTEX
  5
14F0
  8
0
 10
54.71414892708674
 20
122.71771338315691
 30
0.0
 42
-0.0020932883004141
 70
     1
  0
VERTEX
  5
14E9
  8
0
 10
54.715755524986768
 20
122.3112176185236
 30
0.0
  0
SEQEND
  5
14EA
  8
0
  0
LINE
  5
14F2
  8
0
 10
90.338871726549186
 20
127.9064139776147
 30
0.0
 11
90.618271726549096
 21
127.9064139776147
 31
0.0
  0
LINE
  5
14F3
  8
0
 10
90.338871726549087
 20
104.8432139776147
 30
0.0
 11
90.618271726549096
 21
104.8432139776146
 31
0.0
  0
LINE
  5
14F4
  8
0
 10
120.7682717265495
 20
80.128813977614797
 30
0.0
 11
120.7682717265494
 21
83.037313977614701
 31
0.0
  0
LINE
  5
14F5
  8
0
 10
120.7682717265495
 20
80.128813977614797
 30
0.0
 11
121.0222717265495
 21
79.874813977614792
 31
0.0
  0
LINE
  5
14F6
  8
0
 10
184.26827172654939
 20
83.037313977614815
 30
0.0
 11
184.26827172654939
 21
80.128813977614925
 31
0.0
  0
LINE
  5
14F7
  8
0
 10
184.01427172654951
 20
79.874813977614906
 30
0.0
 11
184.26827172654939
 21
80.128813977614925
 31
0.0
  0
LINE
  5
14F8
  8
0
 10
214.41827172654919
 20
104.8432139776147
 30
0.0
 11
214.69767172654929
 21
104.8432139776147
 31
0.0
  0
LINE
  5
14F9
  8
0
 10
214.41827172654919
 20
127.9064139776147
 30
0.0
 11
214.69767172654949
 21
127.9064139776147
 31
0.0
  0
POLYLINE
  5
14FA
  8
0
 66
     1
 10
0.0
 20
0.0
 30
0.0
 70
     2
  0
VERTEX
  5
14FB
  8
0
 10
250.5682717265488
 20
127.13900065983211
 30
0.0
 42
-0.0046854840679574
  0
VERTEX
  5
1504
  8
0
 10
250.54919780371981
 20
126.63511523242001
 30
0.0
 42
-0.0082972051320212
 70
     1
  0
VERTEX
  5
14FC
  8
0
 10
250.53104199880499
 20
126.3509301825078
 30
0.0
 42
-0.0000074118771266
  0
VERTEX
  5
1505
  8
0
 10
250.49000388298211
 20
125.841665999424
 30
0.0
 42
0.0000388691873377
 70
     1
  0
VERTEX
  5
14FD
  8
0
 10
250.4821845524761
 20
125.74455538589361
 30
0.0
 42
0.000013748868362
  0
VERTEX
  5
1506
  8
0
 10
250.44907964761839
 20
125.3328740974316
 30
0.0
 42
0.0000243507676162
 70
     1
  0
VERTEX
  5
14FE
  8
0
 10
250.43040575175399
 20
125.10043023330969
 30
0.0
 42
0.0032652592734326
  0
VERTEX
  5
1507
  8
0
 10
250.4091774723174
 20
124.8124680043906
 30
0.0
 42
0.0019107354889085
 70
     1
  0
VERTEX
  5
14FF
  8
0
 10
250.37799669093189
 20
124.3200231274095
 30
0.0
 42
0.0032291706202776
  0
VERTEX
  5
1508
  8
0
 10
250.3583903773897
 20
123.9501182950403
 30
0.0
 42
0.0030151693015638
 70
     1
  0
VERTEX
  5
1500
  8
0
 10
250.34234152227711
 20
123.5537287016641
 30
0.0
 42
0.0026535287424117
  0
VERTEX
  5
150A
  8
0
 10
250.34099278950001
 20
123.5074383248643
 30
0.0
 42
0.00016598832968
 70
     1
  0
VERTEX
  5
1501
  8
0
 10
250.3236049969839
 20
122.7673247742795
 30
0.0
 42
0.0042452409203615
  0
VERTEX
  5
1509
  8
0
 10
250.3217581203221
 20
122.6414105397339
 30
0.0
 42
0.0016190026612786
 70
     1
  0
VERTEX
  5
1502
  8
0
 10
250.3207879281108
 20
122.3112176185236
 30
0.0
  0
SEQEND
  5
1503
  8
0
  0
POLYLINE
  5
152B
  8
3
 66
     1
 10
0.0
 20
0.0
 30
0.0
 70
     2
  0
VERTEX
  5
152C
  8
3
 10
107.9336483290849
 20
382.87827990264032
 30
0.0
 42
0.0086375113821235
  0
VERTEX
  5
1540
  8
3
 10
108.0977781552337
 20
382.61363600897988
 30
0.0
 42
0.0156428907577078
 70
     1
  0
VERTEX
  5
152D
  8
3
 10
108.19540812384911
 20
382.47205509067771
 30
0.0
 42
0.0013049689047904
  0
VERTEX
  5
1541
  8
3
 10
108.43037269737761
 20
382.15487682347839
 30
0.0
 42
0.0073389598279478
 70
     1
  0
VERTEX
  5
152E
  8
3
 10
108.4731235950709
 20
382.09920588883961
 30
0.0
 42
0.0143838720746346
  0
VERTEX
  5
1542
  8
3
 10
108.6035199346515
 20
381.94386368901132
 30
0.0
 42
0.0109361255934938
 70
     1
  0
VERTEX
  5
152F
  8
3
 10
108.7851311619949
 20
381.74850774456729
 30
0.0
 42
0.0220193550312483
  0
VERTEX
  5
1543
  8
3
 10
108.94446188693649
 20
381.5982980406456
 30
0.0
 42
0.0209771248624672
 70
     1
  0
VERTEX
  5
1530
  8
3
 10
109.1246229009448
 20
381.45557626007968
 30
0.0
 42
0.024965426251596
  0
VERTEX
  5
1544
  8
3
 10
109.2673424993026
 20
381.3624595764208
 30
0.0
 42
0.0240498130945858
 70
     1
  0
VERTEX
  5
1531
  8
3
 10
109.4242363357903
 20
381.28076274161481
 30
0.0
 42
0.0268305190327128
  0
VERTEX
  5
1545
  8
3
 10
109.5492173780149
 20
381.23108373655668
 30
0.0
 42
0.0218625475818424
 70
     1
  0
VERTEX
  5
1532
  8
3
 10
109.7077607307378
 20
381.18532625671509
 30
0.0
 42
0.0377847840398122
  0
VERTEX
  5
1546
  8
3
 10
109.9158591476025
 20
381.15137509832027
 30
0.0
 42
0.0332413307165262
 70
     1
  0
VERTEX
  5
1533
  8
3
 10
110.1554041845324
 20
381.14664758299801
 30
0.0
 42
0.0252760741655143
  0
VERTEX
  5
1547
  8
3
 10
110.3700736651199
 20
381.16759388297169
 30
0.0
 42
0.0287281479087626
 70
     1
  0
VERTEX
  5
1534
  8
3
 10
110.55589608908799
 20
381.2062784341104
 30
0.0
 42
0.0215251396437749
  0
VERTEX
  5
1548
  8
3
 10
110.77699608454169
 20
381.2760639601205
 30
0.0
 42
0.0241548403350694
 70
     1
  0
VERTEX
  5
1535
  8
3
 10
110.9675541244079
 20
381.35597477673309
 30
0.0
 42
0.0162188411764366
  0
VERTEX
  5
1549
  8
3
 10
111.1152049864788
 20
381.43243322632082
 30
0.0
 42
0.013422840136024
 70
     1
  0
VERTEX
  5
1536
  8
3
 10
111.28781084256219
 20
381.53521688226641
 30
0.0
 42
0.0267894415657179
  0
VERTEX
  5
154A
  8
3
 10
111.4857959096628
 20
381.67581456047918
 30
0.0
 42
0.024090336879813
 70
     1
  0
VERTEX
  5
1537
  8
3
 10
111.68891783795431
 20
381.85369272513202
 30
0.0
 42
0.0338318657612555
  0
VERTEX
  5
154B
  8
3
 10
111.83400331719891
 20
382.01395080029278
 30
0.0
 42
0.0275060365402855
 70
     1
  0
VERTEX
  5
1538
  8
3
 10
111.9869431896329
 20
382.23133016047592
 30
0.0
 42
0.0328493431972466
  0
VERTEX
  5
154C
  8
3
 10
112.09311810539771
 20
382.42922364543711
 30
0.0
 42
0.0308604250971454
 70
     1
  0
VERTEX
  5
1539
  8
3
 10
112.1784504559085
 20
382.65249322069383
 30
0.0
 42
0.0413672462600852
  0
VERTEX
  5
154D
  8
3
 10
112.238480139448
 20
382.92009147124139
 30
0.0
 42
0.0470372283825305
 70
     1
  0
VERTEX
  5
153A
  8
3
 10
112.2490900202054
 20
383.16116895590881
 30
0.0
 42
0.0260312929092139
  0
VERTEX
  5
154E
  8
3
 10
112.22290990975399
 20
383.41675891477871
 30
0.0
 42
0.0344224301816647
 70
     1
  0
VERTEX
  5
153B
  8
3
 10
112.1799291538443
 20
383.6063425966575
 30
0.0
 42
0.010961710457643
  0
VERTEX
  5
154F
  8
3
 10
112.0914263333252
 20
383.87916843934318
 30
0.0
 42
0.0169924936493564
 70
     1
  0
VERTEX
  5
153C
  8
3
 10
112.02457796513769
 20
384.05173011409158
 30
0.0
 42
0.0050039221890816
  0
VERTEX
  5
1551
  8
3
 10
112.000500802369
 20
384.10658932106838
 30
0.0
 42
0.0007809119908954
 70
     1
  0
VERTEX
  5
153D
  8
3
 10
111.8421666030513
 20
384.4562987470411
 30
0.0
 42
0.0133616367783817
  0
VERTEX
  5
1550
  8
3
 10
111.72862781984981
 20
384.68929817731208
 30
0.0
 42
0.0084915026034247
 70
     1
  0
VERTEX
  5
153E
  8
3
 10
111.53414412235421
 20
385.04773603244831
 30
0.0
  0
SEQEND
  5
153F
  8
3
  0
POLYLINE
  5
1552
  8
3
 66
     1
 10
0.0
 20
0.0
 30
0.0
 70
     2
  0
VERTEX
  5
1553
  8
3
 10
106.5770227281234
 20
381.85937966225578
 30
0.0
 42
0.0126136110445836
  0
VERTEX
  5
1566
  8
3
 10
106.7785787838129
 20
381.49163365343838
 30
0.0
 42
0.0221002779017913
 70
     1
  0
VERTEX
  5
1554
  8
3
 10
106.90793992900871
 20
381.2901632400127
 30
0.0
 42
0.0019994906389399
  0
VERTEX
  5
1567
  8
3
 10
107.2012829801715
 20
380.87838161266649
 30
0.0
 42
0.0107634990062094
 70
     1
  0
VERTEX
  5
1555
  8
3
 10
107.2577169976299
 20
380.80329395885082
 30
0.0
 42
0.0141570033418061
  0
VERTEX
  5
1568
  8
3
 10
107.4034035582372
 20
380.62833084232938
 30
0.0
 42
0.0101243583552039
 70
     1
  0
VERTEX
  5
1556
  8
3
 10
107.6187331879285
 20
380.39387786592579
 30
0.0
 42
0.0247385728097453
  0
VERTEX
  5
1569
  8
3
 10
107.79551747466211
 20
380.22646621824919
 30
0.0
 42
0.0152086034918439
 70
     1
  0
VERTEX
  5
1557
  8
3
 10
108.103773371093
 20
379.97806095539318
 30
0.0
 42
0.037046392483054
  0
VERTEX
  5
156A
  8
3
 10
108.4067486350486
 20
379.78222704078053
 30
0.0
 42
0.0294239504046532
 70
     1
  0
VERTEX
  5
1558
  8
3
 10
108.8173099604241
 20
379.58847670656752
 30
0.0
 42
0.0376883223586001
  0
VERTEX
  5
156B
  8
3
 10
109.1868277126232
 20
379.47142998793038
 30
0.0
 42
0.0356023767566453
 70
     1
  0
VERTEX
  5
1559
  8
3
 10
109.5918317009193
 20
379.4059704175524
 30
0.0
 42
0.0330309969624138
  0
VERTEX
  5
156C
  8
3
 10
110.0557837741344
 20
379.39528438554811
 30
0.0
 42
0.0366293540157184
 70
     1
  0
VERTEX
  5
155A
  8
3
 10
110.47154980452569
 20
379.4438299436008
 30
0.0
 42
0.0194618998959555
  0
VERTEX
  5
156D
  8
3
 10
110.8793352018092
 20
379.53861373497921
 30
0.0
 42
0.0242235349621316
 70
     1
  0
VERTEX
  5
155B
  8
3
 10
111.1991352470984
 20
379.64308109282217
 30
0.0
 42
0.0181226899303102
  0
VERTEX
  5
156E
  8
3
 10
111.5540204695303
 20
379.79329810916062
 30
0.0
 42
0.0160000376634028
 70
     1
  0
VERTEX
  5
155C
  8
3
 10
111.9434214661041
 20
379.9904418617748
 30
0.0
 42
0.0223924773502135
  0
VERTEX
  5
156F
  8
3
 10
112.3079614478594
 20
380.2116571057303
 30
0.0
 42
0.0184910141443071
 70
     1
  0
VERTEX
  5
155D
  8
3
 10
112.725998396869
 20
380.51465508823691
 30
0.0
 42
0.0332779198399316
  0
VERTEX
  5
1570
  8
3
 10
113.050977688118
 20
380.8058910020705
 30
0.0
 42
0.0268139062527723
 70
     1
  0
VERTEX
  5
155E
  8
3
 10
113.4079317638911
 20
381.21291251555328
 30
0.0
 42
0.0402741048072072
  0
VERTEX
  5
1571
  8
3
 10
113.7120860644908
 20
381.6712919593474
 30
0.0
 42
0.044508239663981
 70
     1
  0
VERTEX
  5
155F
  8
3
 10
113.9134829605122
 20
382.12670335070811
 30
0.0
 42
0.0284978224072238
  0
VERTEX
  5
1572
  8
3
 10
114.0285487563136
 20
382.54176195408991
 30
0.0
 42
0.0371277237970784
 70
     1
  0
VERTEX
  5
1560
  8
3
 10
114.07445696091339
 20
382.86934678215027
 30
0.0
 42
0.0219487572148704
  0
VERTEX
  5
1573
  8
3
 10
114.0823704672448
 20
383.24393354468663
 30
0.0
 42
0.0281178638675913
 70
     1
  0
VERTEX
  5
1561
  8
3
 10
114.05928580746119
 20
383.53557868760367
 30
0.0
 42
0.0208279619895511
  0
VERTEX
  5
1574
  8
3
 10
113.98657399480091
 20
383.94241096855649
 30
0.0
 42
0.022986759573779
 70
     1
  0
VERTEX
  5
1562
  8
3
 10
113.8886784892951
 20
384.30389089354202
 30
0.0
 42
0.013887931561174
  0
VERTEX
  5
1576
  8
3
 10
113.8333899798381
 20
384.46108158928058
 30
0.0
 42
0.0030484864508328
 70
     1
  0
VERTEX
  5
1563
  8
3
 10
113.5574575273956
 20
385.16812200979632
 30
0.0
 42
0.0220028756447812
  0
VERTEX
  5
1575
  8
3
 10
113.4090113456195
 20
385.49859663502087
 30
0.0
 42
0.0128842927189096
 70
     1
  0
VERTEX
  5
1564
  8
3
 10
113.11687399014259
 20
386.04373963821729
 30
0.0
  0
SEQEND
  5
1565
  8
3
  0
POLYLINE
  5
1577
  8
3
 66
     1
 10
0.0
 20
0.0
 30
0.0
 70
     2
  0
VERTEX
  5
1578
  8
3
 10
134.78184192792929
 20
402.46213863343019
 30
0.0
 42
-0.0175998269842407
  0
VERTEX
  5
1586
  8
3
 10
135.6381778798995
 20
402.57287269398319
 30
0.0
 42
-0.0229384288729191
 70
     1
  0
VERTEX
  5
1579
  8
3
 10
136.30007889482499
 20
402.60435856661081
 30
0.0
 42
-0.0010451209251598
  0
VERTEX
  5
1587
  8
3
 10
136.7803190013401
 20
402.60415396890591
 30
0.0
 42
-0.0068636622896856
 70
     1
  0
VERTEX
  5
157A
  8
3
 10
136.85343826188759
 20
402.6029661603427
 30
0.0
 42
-0.0246629033186077
  0
VERTEX
  5
1588
  8
3
 10
137.21248145009849
 20
402.5744391525372
 30
0.0
 42
-0.017078102879381
 70
     1
  0
VERTEX
  5
157B
  8
3
 10
137.7255822498845
 20
402.4901841683415
 30
0.0
 42
-0.0374154820013187
  0
VERTEX
  5
1589
  8
3
 10
137.94720318946841
 20
402.42844202105829
 30
0.0
 42
-0.0190808689976423
 70
     1
  0
VERTEX
  5
157C
  8
3
 10
138.36492947205369
 20
402.25933684880511
 30
0.0
 42
-0.0718381621292091
  0
VERTEX
  5
158A
  8
3
 10
138.9851505718934
 20
401.86507322366327
 30
0.0
 42
-0.0601333802726483
 70
     1
  0
VERTEX
  5
157D
  8
3
 10
139.57689828381859
 20
401.21830150354788
 30
0.0
 42
-0.0270291220280235
  0
VERTEX
  5
158B
  8
3
 10
139.89186273582931
 20
400.72347065999702
 30
0.0
 42
-0.036226103418367
 70
     1
  0
VERTEX
  5
157E
  8
3
 10
140.07852926742669
 20
400.32734390984342
 30
0.0
 42
-0.0273996056262888
  0
VERTEX
  5
158C
  8
3
 10
140.22713367085311
 20
399.86842868041231
 30
0.0
 42
-0.025417261602866
 70
     1
  0
VERTEX
  5
157F
  8
3
 10
140.33427582216021
 20
399.35964464304578
 30
0.0
 42
-0.0414472502731812
  0
VERTEX
  5
158D
  8
3
 10
140.38195307785281
 20
398.71549862436632
 30
0.0
 42
-0.0429860025570883
 70
     1
  0
VERTEX
  5
1580
  8
3
 10
140.32294112739359
 20
398.09543286870661
 30
0.0
 42
-0.0395165681417856
  0
VERTEX
  5
158E
  8
3
 10
140.18382335917499
 20
397.57204600697378
 30
0.0
 42
-0.0396999274468267
 70
     1
  0
VERTEX
  5
1581
  8
3
 10
139.96492613395179
 20
397.07942335611261
 30
0.0
 42
-0.0326499570756751
  0
VERTEX
  5
158F
  8
3
 10
139.69833835470399
 20
396.65682515710819
 30
0.0
 42
-0.0348986050567201
 70
     1
  0
VERTEX
  5
1582
  8
3
 10
139.39792242833411
 20
396.29858146755828
 30
0.0
 42
-0.0407348445929939
  0
VERTEX
  5
1591
  8
3
 10
139.1778150402119
 20
396.10483957556471
 30
0.0
 42
-0.0123940775840808
 70
     1
  0
VERTEX
  5
1583
  8
3
 10
138.39215697395011
 20
395.54919535664629
 30
0.0
 42
-0.0523308003179117
  0
VERTEX
  5
1590
  8
3
 10
137.82626209911069
 20
395.2501020230244
 30
0.0
 42
-0.0359369054571087
 70
     1
  0
VERTEX
  5
1584
  8
3
 10
136.9398497404292
 20
394.96635287621888
 30
0.0
  0
SEQEND
  5
1585
  8
3
  0
POLYLINE
  5
1592
  8
3
 66
     1
 10
0.0
 20
0.0
 30
0.0
 70
     2
  0
VERTEX
  5
1593
  8
3
 10
135.0852223365832
 20
400.92233995554568
 30
0.0
 42
-0.0211164959608335
  0
VERTEX
  5
15A0
  8
3
 10
135.57416871583061
 20
400.98411846316679
 30
0.0
 42
-0.0334217783980259
 70
     1
  0
VERTEX
  5
1594
  8
3
 10
135.88571594056199
 20
400.98930273516481
 30
0.0
 42
-0.0086563813739625
  0
VERTEX
  5
15A1
  8
3
 10
136.4672305825606
 20
400.94999536170837
 30
0.0
 42
-0.0235156246404858
 70
     1
  0
VERTEX
  5
1595
  8
3
 10
136.6800216136017
 20
400.92178011110082
 30
0.0
 42
-0.0427388179463247
  0
VERTEX
  5
15A2
  8
3
 10
136.99220885096929
 20
400.83730080110371
 30
0.0
 42
-0.0344588126534849
 70
     1
  0
VERTEX
  5
1596
  8
3
 10
137.3584707147283
 20
400.67435676497058
 30
0.0
 42
-0.0509216429312995
  0
VERTEX
  5
15A3
  8
3
 10
137.6335573887909
 20
400.49047473338442
 30
0.0
 42
-0.0407888008913242
 70
     1
  0
VERTEX
  5
1597
  8
3
 10
137.92911425192071
 20
400.20243114538988
 30
0.0
 42
-0.055583536110302
  0
VERTEX
  5
15A4
  8
3
 10
138.1745057495163
 20
399.84808397439741
 30
0.0
 42
-0.0533655250015736
 70
     1
  0
VERTEX
  5
1598
  8
3
 10
138.3443154503172
 20
399.43261999667351
 30
0.0
 42
-0.0453853690150892
  0
VERTEX
  5
15A5
  8
3
 10
138.4395288842982
 20
398.93931088982981
 30
0.0
 42
-0.0547515419767775
 70
     1
  0
VERTEX
  5
1599
  8
3
 10
138.43559497998541
 20
398.52247231579997
 30
0.0
 42
-0.023122186054874
  0
VERTEX
  5
15A6
  8
3
 10
138.3912771926602
 20
398.25643190685292
 30
0.0
 42
-0.0240355397034915
 70
     1
  0
VERTEX
  5
159A
  8
3
 10
138.3247320287669
 20
398.00564162747202
 30
0.0
 42
-0.0477574211731775
  0
VERTEX
  5
15A7
  8
3
 10
138.17628928225821
 20
397.65733126979489
 30
0.0
 42
-0.0442898912636364
 70
     1
  0
VERTEX
  5
159B
  8
3
 10
137.950293321088
 20
397.31747717034608
 30
0.0
 42
-0.0610112275064584
  0
VERTEX
  5
15A8
  8
3
 10
137.6024720005534
 20
396.9777885868441
 30
0.0
 42
-0.0585259444500098
 70
     1
  0
VERTEX
  5
159C
  8
3
 10
137.16654082523681
 20
396.71956238027133
 30
0.0
 42
-0.0198906264886783
  0
VERTEX
  5
15AA
  8
3
 10
136.90497739659801
 20
396.61567097232432
 30
0.0
 42
-0.0083761972499268
 70
     1
  0
VERTEX
  5
159D
  8
3
 10
136.27111298346799
 20
396.40451913914848
 30
0.0
 42
-0.0281326193277539
  0
VERTEX
  5
15A9
  8
3
 10
135.89287377543039
 20
396.30852094922142
 30
0.0
 42
-0.0185510783985584
 70
     1
  0
VERTEX
  5
159E
  8
3
 10
135.30846452408321
 20
396.21708154208432
 30
0.0
  0
SEQEND
  5
159F
  8
3
  0
POLYLINE
  5
15AB
  8
3
 66
     1
 10
0.0
 20
0.0
 30
0.0
 70
     2
  0
VERTEX
  5
15AC
  8
3
 10
133.7057001010063
 20
394.33955750362293
 30
0.0
 42
-0.0246650605349417
  0
VERTEX
  5
15B9
  8
3
 10
134.14022255851879
 20
394.40973316919337
 30
0.0
 42
-0.0358890784536928
 70
     1
  0
VERTEX
  5
15AD
  8
3
 10
134.44269576391
 20
394.42155094938931
 30
0.0
 42
-0.0043750183253162
  0
VERTEX
  5
15BA
  8
3
 10
134.8234938152691
 20
394.40575908178619
 30
0.0
 42
-0.0189183837756738
 70
     1
  0
VERTEX
  5
15AE
  8
3
 10
134.91132038383611
 20
394.3980077699054
 30
0.0
 42
-0.0297467018682142
  0
VERTEX
  5
15BB
  8
3
 10
135.13772995904489
 20
394.35555852713719
 30
0.0
 42
-0.0232019907440292
 70
     1
  0
VERTEX
  5
15AF
  8
3
 10
135.4205297694603
 20
394.2707950905388
 30
0.0
 42
-0.0335437592679887
  0
VERTEX
  5
15BC
  8
3
 10
135.7287483172131
 20
394.13878356967871
 30
0.0
 42
-0.0340141612783138
 70
     1
  0
VERTEX
  5
15B0
  8
3
 10
136.0124150261247
 20
393.96884901394111
 30
0.0
 42
-0.0215743404659757
  0
VERTEX
  5
15BD
  8
3
 10
136.39387071765671
 20
393.67833759216552
 30
0.0
 42
-0.0206438388708876
 70
     1
  0
VERTEX
  5
15B1
  8
3
 10
136.7654846218669
 20
393.3422106180779
 30
0.0
 42
-0.0036425691041979
  0
VERTEX
  5
15BE
  8
3
 10
137.19124500071121
 20
392.91775299238321
 30
0.0
 42
-0.0085896372365469
 70
     1
  0
VERTEX
  5
15B2
  8
3
 10
137.3673489128895
 20
392.73338131228121
 30
0.0
 42
-0.0025569799685185
  0
VERTEX
  5
15BF
  8
3
 10
137.8889969515912
 20
392.1622805332222
 30
0.0
 42
-0.0050929587191866
 70
     1
  0
VERTEX
  5
15B3
  8
3
 10
138.1464841401681
 20
391.87157372430852
 30
0.0
 42
-0.0002269161652743
  0
VERTEX
  5
15C0
  8
3
 10
138.67393003715179
 20
391.26315876065149
 30
0.0
 42
-0.0004894553167178
 70
     1
  0
VERTEX
  5
15B4
  8
3
 10
138.9180546643301
 20
390.98074165475469
 30
0.0
  0
VERTEX
  5
15B5
  8
3
 10
139.49568657937161
 20
390.3111808509783
 30
0.0
  0
VERTEX
  5
15B6
  8
3
 10
140.0636050043251
 20
389.65287941854479
 30
0.0
  0
VERTEX
  5
15B7
  8
3
 10
140.63765623081389
 20
388.98746916227628
 30
0.0
  0
SEQEND
  5
15B8
  8
3
  0
POLYLINE
  5
15C1
  8
3
 66
     1
 10
0.0
 20
0.0
 30
0.0
 70
     2
  0
VERTEX
  5
15C2
  8
3
 10
136.9398497404292
 20
394.96635287621888
 30
0.0
 42
-0.0050447919282814
  0
VERTEX
  5
15CD
  8
3
 10
137.12926412229351
 20
394.90539404651599
 30
0.0
 42
-0.0098129273123223
 70
     1
  0
VERTEX
  5
15C3
  8
3
 10
137.22567415741671
 20
394.8711736207834
 30
0.0
 42
-0.0013720639986037
  0
VERTEX
  5
15CE
  8
3
 10
137.4763927971471
 20
394.77581524819061
 30
0.0
 42
-0.0037400743644787
 70
     1
  0
VERTEX
  5
15C4
  8
3
 10
137.56800875451151
 20
394.73989358921801
 30
0.0
 42
-0.0250583879208761
  0
VERTEX
  5
15CF
  8
3
 10
137.84024600935479
 20
394.61462614330998
 30
0.0
 42
-0.020408617682232
 70
     1
  0
VERTEX
  5
15C5
  8
3
 10
138.15909553369849
 20
394.43114404208433
 30
0.0
 42
-0.020895747305578
  0
VERTEX
  5
15D0
  8
3
 10
138.43549908709059
 20
394.2401044257108
 30
0.0
 42
-0.0149733355224382
 70
     1
  0
VERTEX
  5
15C6
  8
3
 10
138.8010522590813
 20
393.94660609333113
 30
0.0
 42
-0.0094546873445079
  0
VERTEX
  5
15D1
  8
3
 10
139.2394973736609
 20
393.55788805807202
 30
0.0
 42
-0.0174820594347802
 70
     1
  0
VERTEX
  5
15C7
  8
3
 10
139.46500370134061
 20
393.33515011449651
 30
0.0
 42
-0.0056934994721517
  0
VERTEX
  5
15D2
  8
3
 10
139.9144348349036
 20
392.84807803861582
 30
0.0
 42
-0.0051341118267978
 70
     1
  0
VERTEX
  5
15C8
  8
3
 10
140.40101813310321
 20
392.29727496557598
 30
0.0
  0
VERTEX
  5
15C9
  8
3
 10
141.03593908435761
 20
391.56350767711569
 30
0.0
  0
VERTEX
  5
15CA
  8
3
 10
142.03143888988191
 20
390.41302557139988
 30
0.0
  0
VERTEX
  5
15CB
  8
3
 10
142.97025088225621
 20
389.3280566021802
 30
0.0
  0
SEQEND
  5
15CC
  8
3
  0
POLYLINE
  5
15D3
  8
3
 66
     1
 10
0.0
 20
0.0
 30
0.0
 70
     2
  0
VERTEX
  5
15D4
  8
3
 10
155.20571225971889
 20
399.15772930074741
 30
0.0
 42
0.020808323080409
  0
VERTEX
  5
15EC
  8
3
 10
155.05331914228279
 20
399.6621419005582
 30
0.0
 42
0.0349896894358913
 70
     1
  0
VERTEX
  5
15D5
  8
3
 10
154.9297607771303
 20
399.95038880233142
 30
0.0
 42
0.0143129634701598
  0
VERTEX
  5
15ED
  8
3
 10
154.52004005544131
 20
400.6941133643972
 30
0.0
 42
0.0405598503139991
 70
     1
  0
VERTEX
  5
15D6
  8
3
 10
154.34734374881481
 20
400.93950890817899
 30
0.0
 42
0.0356573656629163
  0
VERTEX
  5
15EE
  8
3
 10
154.10487754825411
 20
401.1917731711996
 30
0.0
 42
0.0307897357530425
 70
     1
  0
VERTEX
  5
15D7
  8
3
 10
153.78795984281609
 20
401.44407006504571
 30
0.0
 42
0.0356844843478598
  0
VERTEX
  5
15EF
  8
3
 10
153.37590263755831
 20
401.69076539982871
 30
0.0
 42
0.0320714544023671
 70
     1
  0
VERTEX
  5
15D8
  8
3
 10
152.8846766510926
 20
401.90077104969117
 30
0.0
 42
0.0333302949876045
  0
VERTEX
  5
15F0
  8
3
 10
152.24079688031179
 20
402.08121846323422
 30
0.0
 42
0.0354708980037456
 70
     1
  0
VERTEX
  5
15D9
  8
3
 10
151.6181479513377
 20
402.16622976397991
 30
0.0
 42
0.0183281204904636
  0
VERTEX
  5
15F1
  8
3
 10
151.0828692272716
 20
402.181290311721
 30
0.0
 42
0.0193827463086888
 70
     1
  0
VERTEX
  5
15DA
  8
3
 10
150.57706084801151
 20
402.15735567671618
 30
0.0
 42
0.022444538729735
  0
VERTEX
  5
15F2
  8
3
 10
150.05342796149401
 20
402.08840383011687
 30
0.0
 42
0.0202982186012873
 70
     1
  0
VERTEX
  5
15DB
  8
3
 10
149.4831011728055
 20
401.96302247213288
 30
0.0
 42
0.0381381707653528
  0
VERTEX
  5
15F3
  8
3
 10
149.03118027091571
 20
401.80659598624419
 30
0.0
 42
0.0277464828365132
 70
     1
  0
VERTEX
  5
15DC
  8
3
 10
148.44402634589511
 20
401.5120645312727
 30
0.0
 42
0.0500269711871445
  0
VERTEX
  5
15F4
  8
3
 10
147.8575737733016
 20
401.0930395343828
 30
0.0
 42
0.0465599834110754
 70
     1
  0
VERTEX
  5
15DD
  8
3
 10
147.3256977921734
 20
400.53048769165611
 30
0.0
 42
0.0339016667670313
  0
VERTEX
  5
15F5
  8
3
 10
146.92445608407519
 20
399.9396256115478
 30
0.0
 42
0.0376211566038745
 70
     1
  0
VERTEX
  5
15DE
  8
3
 10
146.642370913565
 20
399.36093693295948
 30
0.0
 42
0.024394824372749
  0
VERTEX
  5
15F6
  8
3
 10
146.3862741839107
 20
398.61222617017529
 30
0.0
 42
0.0289408353792917
 70
     1
  0
VERTEX
  5
15DF
  8
3
 10
146.23877252002359
 20
397.96157245722981
 30
0.0
 42
0.0191476734831521
  0
VERTEX
  5
15F7
  8
3
 10
146.14246193391369
 20
397.205940775682
 30
0.0
 42
0.0209461285444325
 70
     1
  0
VERTEX
  5
15E0
  8
3
 10
146.1100241587574
 20
396.51030592334462
 30
0.0
 42
0.0198790523315067
  0
VERTEX
  5
15F8
  8
3
 10
146.13523024615699
 20
395.79129560869978
 30
0.0
 42
0.0188679901748925
 70
     1
  0
VERTEX
  5
15E1
  8
3
 10
146.2203427532653
 20
395.03811443312202
 30
0.0
 42
0.0261423046538159
  0
VERTEX
  5
15F9
  8
3
 10
146.32320773184529
 20
394.53718016673292
 30
0.0
 42
0.0181266448473626
 70
     1
  0
VERTEX
  5
15E2
  8
3
 10
146.5347731612672
 20
393.83092576140302
 30
0.0
 42
0.0492982844977441
  0
VERTEX
  5
15FA
  8
3
 10
146.8427316811235
 20
393.1519604147029
 30
0.0
 42
0.0428225450767773
 70
     1
  0
VERTEX
  5
15E3
  8
3
 10
147.3340721491638
 20
392.44885282791461
 30
0.0
 42
0.0541826236409547
  0
VERTEX
  5
15FB
  8
3
 10
147.92889781262869
 20
391.87550373734712
 30
0.0
 42
0.0513532573853008
 70
     1
  0
VERTEX
  5
15E4
  8
3
 10
148.6689965875411
 20
391.41546951094273
 30
0.0
 42
0.0294962620871486
  0
VERTEX
  5
15FC
  8
3
 10
149.3908955569195
 20
391.11488427436569
 30
0.0
 42
0.0369201908390379
 70
     1
  0
VERTEX
  5
15E5
  8
3
 10
149.99464839796991
 20
390.95313100973777
 30
0.0
 42
0.0295075370229397
  0
VERTEX
  5
15FD
  8
3
 10
150.8835001503048
 20
390.8378642240026
 30
0.0
 42
0.0376468951846434
 70
     1
  0
VERTEX
  5
15E6
  8
3
 10
151.58638722993479
 20
390.84158629365788
 30
0.0
 42
0.0187656650147785
  0
VERTEX
  5
15FE
  8
3
 10
152.23022897116971
 20
390.91796678785789
 30
0.0
 42
0.027038473411988
 70
     1
  0
VERTEX
  5
15E7
  8
3
 10
152.67052334760979
 20
391.01166088508381
 30
0.0
 42
0.0209812911501179
  0
VERTEX
  5
15FF
  8
3
 10
153.27573948143211
 20
391.202657020218
 30
0.0
 42
0.0220916826496657
 70
     1
  0
VERTEX
  5
15E8
  8
3
 10
153.83282669557451
 20
391.43283919078772
 30
0.0
 42
0.016617008551137
  0
VERTEX
  5
1601
  8
3
 10
154.1769342010634
 20
391.60730137501542
 30
0.0
 42
0.0089472043975162
 70
     1
  0
VERTEX
  5
15E9
  8
3
 10
154.7985057119962
 20
391.96348342934101
 30
0.0
 42
0.0315339134607898
  0
VERTEX
  5
1600
  8
3
 10
154.95172354868481
 20
392.06859736901322
 30
0.0
 42
0.0142134458881912
 70
     1
  0
VERTEX
  5
15EA
  8
3
 10
155.2686780049111
 20
392.3316701060358
 30
0.0
  0
SEQEND
  5
15EB
  8
3
  0
POLYLINE
  5
1602
  8
3
 66
     1
 10
0.0
 20
0.0
 30
0.0
 70
     2
  0
VERTEX
  5
1603
  8
3
 10
157.04889134625739
 20
399.62138615170869
 30
0.0
 42
0.0212538781120408
  0
VERTEX
  5
161B
  8
3
 10
156.86205900339971
 20
400.28184156833368
 30
0.0
 42
0.0354656743587797
 70
     1
  0
VERTEX
  5
1604
  8
3
 10
156.705899006419
 20
400.66273383848949
 30
0.0
 42
0.0112883424013682
  0
VERTEX
  5
161C
  8
3
 10
156.27888823341979
 20
401.47784067329621
 30
0.0
 42
0.0263187447527696
 70
     1
  0
VERTEX
  5
1605
  8
3
 10
156.06987308833979
 20
401.8128883771451
 30
0.0
 42
0.0411287744029191
  0
VERTEX
  5
161D
  8
3
 10
155.75925883343371
 20
402.18725093813509
 30
0.0
 42
0.0295369498955094
 70
     1
  0
VERTEX
  5
1606
  8
3
 10
155.2580665857794
 20
402.64207006673018
 30
0.0
 42
0.054068464184067
  0
VERTEX
  5
161E
  8
3
 10
154.48200175934201
 20
403.13932894335778
 30
0.0
 42
0.0481362150176989
 70
     1
  0
VERTEX
  5
1607
  8
3
 10
153.51571707103921
 20
403.50924429909873
 30
0.0
 42
0.0252006923436884
  0
VERTEX
  5
161F
  8
3
 10
152.54455976688951
 20
403.7254168750066
 30
0.0
 42
0.0300166432386759
 70
     1
  0
VERTEX
  5
1608
  8
3
 10
151.7139643090523
 20
403.81598930657191
 30
0.0
 42
0.0162001346900556
  0
VERTEX
  5
1620
  8
3
 10
151.0677269936368
 20
403.82646141509741
 30
0.0
 42
0.0147510781281702
 70
     1
  0
VERTEX
  5
1609
  8
3
 10
150.35868675387741
 20
403.79403987089307
 30
0.0
 42
0.038345212588457
  0
VERTEX
  5
1621
  8
3
 10
149.28743585387929
 20
403.63011175161949
 30
0.0
 42
0.034987776848053
 70
     1
  0
VERTEX
  5
160A
  8
3
 10
148.15250371869359
 20
403.2809664950222
 30
0.0
 42
0.0372444665331937
  0
VERTEX
  5
1622
  8
3
 10
147.30322560604711
 20
402.87818363414112
 30
0.0
 42
0.0420198436357007
 70
     1
  0
VERTEX
  5
160B
  8
3
 10
146.61596358474659
 20
402.40669643702762
 30
0.0
 42
0.0308534084068922
  0
VERTEX
  5
1623
  8
3
 10
145.99643514579901
 20
401.83304150534281
 30
0.0
 42
0.0380083434678111
 70
     1
  0
VERTEX
  5
160C
  8
3
 10
145.5619798190109
 20
401.30250476716469
 30
0.0
 42
0.0233218320997907
  0
VERTEX
  5
1624
  8
3
 10
145.15964668779841
 20
400.6657969315678
 30
0.0
 42
0.0247370930799426
 70
     1
  0
VERTEX
  5
160D
  8
3
 10
144.8396580679717
 20
400.03184726918721
 30
0.0
 42
0.0216812934822011
  0
VERTEX
  5
1625
  8
3
 10
144.58666035173559
 20
399.38840153292091
 30
0.0
 42
0.0189972873176392
 70
     1
  0
VERTEX
  5
160E
  8
3
 10
144.35856864709771
 20
398.63309612347558
 30
0.0
 42
0.0340020774500487
  0
VERTEX
  5
1626
  8
3
 10
144.165279408603
 20
397.61327060422582
 30
0.0
 42
0.0299154608007749
 70
     1
  0
VERTEX
  5
160F
  8
3
 10
144.09512031260351
 20
396.4358918608433
 30
0.0
 42
0.0256277667751951
  0
VERTEX
  5
1627
  8
3
 10
144.1458067271578
 20
395.45329669415651
 30
0.0
 42
0.0283635207518686
 70
     1
  0
VERTEX
  5
1610
  8
3
 10
144.28701813696651
 20
394.57544954532239
 30
0.0
 42
0.0254048411211126
  0
VERTEX
  5
1628
  8
3
 10
144.5144114941599
 20
393.7441411745362
 30
0.0
 42
0.0270464225599417
 70
     1
  0
VERTEX
  5
1611
  8
3
 10
144.80859939680869
 20
392.98987479951381
 30
0.0
 42
0.0287286669521246
  0
VERTEX
  5
1629
  8
3
 10
145.15328247486741
 20
392.3332684460234
 30
0.0
 42
0.027850268037964
 70
     1
  0
VERTEX
  5
1612
  8
3
 10
145.58300261702419
 20
391.70045090226893
 30
0.0
 42
0.0357140489172715
  0
VERTEX
  5
162A
  8
3
 10
146.05310012679629
 20
391.16835744478749
 30
0.0
 42
0.0307625996409776
 70
     1
  0
VERTEX
  5
1613
  8
3
 10
146.67570340409461
 20
390.6285655586446
 30
0.0
 42
0.0397777513027617
  0
VERTEX
  5
162B
  8
3
 10
147.46391750870399
 20
390.11971568695623
 30
0.0
 42
0.0355903097298783
 70
     1
  0
VERTEX
  5
1614
  8
3
 10
148.4199510814272
 20
389.68980081260941
 30
0.0
 42
0.0277979308769013
  0
VERTEX
  5
162C
  8
3
 10
149.27926866737201
 20
389.42787519935882
 30
0.0
 42
0.026483339034017
 70
     1
  0
VERTEX
  5
1615
  8
3
 10
150.20564887210841
 20
389.25228255283452
 30
0.0
 42
0.0327239618162638
  0
VERTEX
  5
162D
  8
3
 10
151.35346123031829
 20
389.17301999097941
 30
0.0
 42
0.0341403113227353
 70
     1
  0
VERTEX
  5
1616
  8
3
 10
152.45406972116501
 20
389.24436515549979
 30
0.0
 42
0.029847089597607
  0
VERTEX
  5
162E
  8
3
 10
153.60144861188019
 20
389.46819945288922
 30
0.0
 42
0.0359979345177857
 70
     1
  0
VERTEX
  5
1617
  8
3
 10
154.5205588214701
 20
389.77718007399011
 30
0.0
 42
0.0185058688189716
  0
VERTEX
  5
1630
  8
3
 10
155.06800437823259
 20
390.03042467275691
 30
0.0
 42
0.0086931875593924
 70
     1
  0
VERTEX
  5
1618
  8
3
 10
156.20205923182911
 20
390.6319267789703
 30
0.0
 42
0.0283539771103539
  0
VERTEX
  5
162F
  8
3
 10
156.59618128560621
 20
390.87998279780118
 30
0.0
 42
0.0152943040254807
 70
     1
  0
VERTEX
  5
1619
  8
3
 10
157.28358185106501
 20
391.40149432478592
 30
0.0
  0
SEQEND
  5
161A
  8
3
  0
POLYLINE
  5
1631
  8
3
 66
     1
 10
0.0
 20
0.0
 30
0.0
 70
     2
  0
VERTEX
  5
1632
  8
3
 10
200.53697914930311
 20
387.77087857368889
 30
0.0
 42
0.032620199211374
  0
VERTEX
  5
164B
  8
3
 10
200.7937624100569
 20
388.39047021177697
 30
0.0
 42
0.0491283232605407
 70
     1
  0
VERTEX
  5
1633
  8
3
 10
200.8952055173136
 20
388.82470630330403
 30
0.0
 42
0.0076498325466609
  0
VERTEX
  5
164C
  8
3
 10
200.96754771749849
 20
389.44543891476269
 30
0.0
 42
0.0239075808753921
 70
     1
  0
VERTEX
  5
1634
  8
3
 10
200.97812915637789
 20
389.64522481541633
 30
0.0
 42
0.0294197212311499
  0
VERTEX
  5
164D
  8
3
 10
200.95262776448811
 20
390.11952990940841
 30
0.0
 42
0.0294645527134113
 70
     1
  0
VERTEX
  5
1635
  8
3
 10
200.87171282901181
 20
390.58684517666018
 30
0.0
 42
0.0313417702395111
  0
VERTEX
  5
164E
  8
3
 10
200.7342413689548
 20
391.04248812986913
 30
0.0
 42
0.032585937854541
 70
     1
  0
VERTEX
  5
1636
  8
3
 10
200.54722172802789
 20
391.46033898262817
 30
0.0
 42
0.0251591309979722
  0
VERTEX
  5
164F
  8
3
 10
200.29091899077781
 20
391.89153436163309
 30
0.0
 42
0.0271942068929508
 70
     1
  0
VERTEX
  5
1637
  8
3
 10
200.01338065771881
 20
392.26353977678849
 30
0.0
 42
0.018019008343943
  0
VERTEX
  5
1650
  8
3
 10
199.66333298569589
 20
392.65360297533113
 30
0.0
 42
0.0223386454899824
 70
     1
  0
VERTEX
  5
1638
  8
3
 10
199.35647493482711
 20
392.94450328463938
 30
0.0
 42
0.0165143396546181
  0
VERTEX
  5
1651
  8
3
 10
198.9252791555773
 20
393.29391768190129
 30
0.0
 42
0.0177073883083064
 70
     1
  0
VERTEX
  5
1639
  8
3
 10
198.50177536204461
 20
393.59153941291481
 30
0.0
 42
0.011718386834358
  0
VERTEX
  5
1652
  8
3
 10
198.16198192568839
 20
393.80161614548842
 30
0.0
 42
0.0106440335930153
 70
     1
  0
VERTEX
  5
163A
  8
3
 10
197.77793467814919
 20
394.01593566503482
 30
0.0
 42
0.0221843356205784
  0
VERTEX
  5
1653
  8
3
 10
197.20044587337719
 20
394.29017879631601
 30
0.0
 42
0.0206312634316757
 70
     1
  0
VERTEX
  5
163B
  8
3
 10
196.55658559659611
 20
394.53086959516338
 30
0.0
 42
0.0182174795921717
  0
VERTEX
  5
1654
  8
3
 10
196.2569459516526
 20
394.61704919483333
 30
0.0
 42
0.0117341663259278
 70
     1
  0
VERTEX
  5
163C
  8
3
 10
195.78466730547461
 20
394.72273623336218
 30
0.0
 42
0.0367598954321208
  0
VERTEX
  5
1655
  8
3
 10
195.0537090495572
 20
394.81324871142328
 30
0.0
 42
0.0387664919083005
 70
     1
  0
VERTEX
  5
163D
  8
3
 10
194.35545616278699
 20
394.79384565509127
 30
0.0
 42
0.0292177583564502
  0
VERTEX
  5
1656
  8
3
 10
193.9088241970548
 20
394.7200746158386
 30
0.0
 42
0.0320916930913226
 70
     1
  0
VERTEX
  5
163E
  8
3
 10
193.51338389052859
 20
394.6036729307109
 30
0.0
 42
0.0288294077114783
  0
VERTEX
  5
1657
  8
3
 10
193.14763817487139
 20
394.4455433101877
 30
0.0
 42
0.026183522020753
 70
     1
  0
VERTEX
  5
163F
  8
3
 10
192.76653555412761
 20
394.22831087036172
 30
0.0
 42
0.0368168475208394
  0
VERTEX
  5
1658
  8
3
 10
192.36558234436501
 20
393.92726330954071
 30
0.0
 42
0.0333127154294565
 70
     1
  0
VERTEX
  5
1640
  8
3
 10
191.9733918747026
 20
393.5359856055328
 30
0.0
 42
0.0347338106688507
  0
VERTEX
  5
1659
  8
3
 10
191.72359896843179
 20
393.20775534352742
 30
0.0
 42
0.031247498030742
 70
     1
  0
VERTEX
  5
1641
  8
3
 10
191.49639066073661
 20
392.80964393027841
 30
0.0
 42
0.0488571462950968
  0
VERTEX
  5
165A
  8
3
 10
191.27972539196
 20
392.23138856756208
 30
0.0
 42
0.0377979543475329
 70
     1
  0
VERTEX
  5
1642
  8
3
 10
191.1328060026303
 20
391.44761273173049
 30
0.0
 42
0.0274420003068081
  0
VERTEX
  5
165B
  8
3
 10
191.10349818030571
 20
390.91401912795533
 30
0.0
 42
0.0574445417395754
 70
     1
  0
VERTEX
  5
1643
  8
3
 10
191.1328060026303
 20
390.65976424769468
 30
0.0
 42
0.0482018742566241
  0
VERTEX
  5
165C
  8
3
 10
191.2546283380679
 20
390.29923671166438
 30
0.0
 42
0.0292685410818783
 70
     1
  0
VERTEX
  5
1644
  8
3
 10
191.54400531821551
 20
389.74435045264158
 30
0.0
 42
0.0135496777671783
  0
VERTEX
  5
165D
  8
3
 10
191.95241380031439
 20
389.10198939006608
 30
0.0
 42
0.0291926547677187
 70
     1
  0
VERTEX
  5
1645
  8
3
 10
192.16687745520159
 20
388.82092146579163
 30
0.0
 42
0.013840552525291
  0
VERTEX
  5
165E
  8
3
 10
192.6452212809144
 20
388.2947667132953
 30
0.0
 42
0.0176350519588722
 70
     1
  0
VERTEX
  5
1646
  8
3
 10
193.0459210209934
 20
387.90621053208952
 30
0.0
 42
0.0001502120577464
  0
VERTEX
  5
165F
  8
3
 10
193.7423058882959
 20
387.27740492093238
 30
0.0
 42
0.0002026430284051
 70
     1
  0
VERTEX
  5
1647
  8
3
 10
194.25884000254311
 20
386.81165812033851
 30
0.0
 42
0.0001114113230456
  0
VERTEX
  5
1661
  8
3
 10
194.4648802687787
 20
386.62611090359792
 30
0.0
 42
-0.000042239263701
 70
     1
  0
VERTEX
  5
1648
  8
3
 10
195.00840123073269
 20
386.13678544046439
 30
0.0
 42
-0.0114667581271128
  0
VERTEX
  5
1660
  8
3
 10
195.29246260043141
 20
385.8689580947389
 30
0.0
 42
-0.006061600935271
 70
     1
  0
VERTEX
  5
1649
  8
3
 10
195.81168618055301
 20
385.3438353044582
 30
0.0
  0
SEQEND
  5
164A
  8
3
  0
POLYLINE
  5
1663
  8
3
 66
     1
 10
0.0
 20
0.0
 30
0.0
 70
     2
  0
VERTEX
  5
1664
  8
3
 10
189.9129406877646
 20
387.14980735974689
 30
0.0
 42
0.0069662764323257
  0
VERTEX
  5
167C
  8
3
 10
189.83718929024411
 20
386.94144797282519
 30
0.0
 42
0.0140603706829155
 70
     1
  0
VERTEX
  5
1665
  8
3
 10
189.80402591717521
 20
386.83671320483501
 30
0.0
 42
0.00393735663629
  0
VERTEX
  5
167D
  8
3
 10
189.705500363526
 20
386.48162609520978
 30
0.0
 42
0.0092809551257473
 70
     1
  0
VERTEX
  5
1666
  8
3
 10
189.6676956965475
 20
386.32992084033191
 30
0.0
 42
0.035213120690817
  0
VERTEX
  5
167E
  8
3
 10
189.62945245397759
 20
386.08559429219213
 30
0.0
 42
0.0198400066387871
 70
     1
  0
VERTEX
  5
1667
  8
3
 10
189.60963952747849
 20
385.64748905365809
 30
0.0
 42
0.0326548223741612
  0
VERTEX
  5
167F
  8
3
 10
189.63267139036449
 20
385.26259309100402
 30
0.0
 42
0.0352562520054347
 70
     1
  0
VERTEX
  5
1668
  8
3
 10
189.7020725467932
 20
384.91220345055848
 30
0.0
 42
0.0327728070368322
  0
VERTEX
  5
1680
  8
3
 10
189.8063328771122
 20
384.60934117842731
 30
0.0
 42
0.0292187039179679
 70
     1
  0
VERTEX
  5
1669
  8
3
 10
189.96433928989279
 20
384.28677335477317
 30
0.0
 42
0.0241413131193587
  0
VERTEX
  5
1681
  8
3
 10
190.2218806106348
 20
383.87797161649502
 30
0.0
 42
0.0297133385992823
 70
     1
  0
VERTEX
  5
166A
  8
3
 10
190.46568398302711
 20
383.5701509406349
 30
0.0
 42
0.0135810381816171
  0
VERTEX
  5
1682
  8
3
 10
190.74203767853211
 20
383.2773052147636
 30
0.0
 42
0.0186330240027427
 70
     1
  0
VERTEX
  5
166B
  8
3
 10
190.95682165125729
 20
383.07723649450918
 30
0.0
 42
0.0119244798243323
  0
VERTEX
  5
1683
  8
3
 10
191.21913624436641
 20
382.86125318916811
 30
0.0
 42
0.0143728340973779
 70
     1
  0
VERTEX
  5
166C
  8
3
 10
191.4458999088011
 20
382.693738973405
 30
0.0
 42
0.016586509986515
  0
VERTEX
  5
1684
  8
3
 10
191.75216114593599
 20
382.4955601976194
 30
0.0
 42
0.0148199398267075
 70
     1
  0
VERTEX
  5
166D
  8
3
 10
192.10815553151451
 20
382.29572082128539
 30
0.0
 42
0.0135290659751945
  0
VERTEX
  5
1685
  8
3
 10
192.45897422197231
 20
382.12416334400001
 30
0.0
 42
0.0145521746231665
 70
     1
  0
VERTEX
  5
166E
  8
3
 10
192.7935759910612
 20
381.98322160314888
 30
0.0
 42
0.0144305846261252
  0
VERTEX
  5
1686
  8
3
 10
193.0290233218947
 20
381.89974835766179
 30
0.0
 42
0.0111817461837154
 70
     1
  0
VERTEX
  5
166F
  8
3
 10
193.3379707844941
 20
381.80772827142221
 30
0.0
 42
0.0259024395504225
  0
VERTEX
  5
1687
  8
3
 10
193.7033914911971
 20
381.72780403815358
 30
0.0
 42
0.0223914879908564
 70
     1
  0
VERTEX
  5
1670
  8
3
 10
194.13298182180301
 20
381.67654522045717
 30
0.0
 42
0.0253791114635702
  0
VERTEX
  5
1688
  8
3
 10
194.41404799477371
 20
381.67001321086059
 30
0.0
 42
0.0236808851058028
 70
     1
  0
VERTEX
  5
1671
  8
3
 10
194.71448261394761
 20
381.69254715819989
 30
0.0
 42
0.0348426065734642
  0
VERTEX
  5
1689
  8
3
 10
195.06508504382049
 20
381.76065663683659
 30
0.0
 42
0.0400642255008604
 70
     1
  0
VERTEX
  5
1672
  8
3
 10
195.35785874384709
 20
381.8647544261413
 30
0.0
 42
0.0214652151720648
  0
VERTEX
  5
168A
  8
3
 10
195.5218396349041
 20
381.94694559578312
 30
0.0
 42
0.0202005078832163
 70
     1
  0
VERTEX
  5
1673
  8
3
 10
195.68820531219299
 20
382.04847562740781
 30
0.0
 42
0.0351832605040609
  0
VERTEX
  5
168B
  8
3
 10
195.90303091286131
 20
382.21474850076061
 30
0.0
 42
0.032341816887721
 70
     1
  0
VERTEX
  5
1674
  8
3
 10
196.11021976268191
 20
382.4253967932321
 30
0.0
 42
0.039332775687098
  0
VERTEX
  5
168C
  8
3
 10
196.2582448694136
 20
382.62679105639199
 30
0.0
 42
0.0313236770505712
 70
     1
  0
VERTEX
  5
1675
  8
3
 10
196.4065809027754
 20
382.90317234783311
 30
0.0
 42
0.036649021547208
  0
VERTEX
  5
168D
  8
3
 10
196.50215960541931
 20
383.15967186753602
 30
0.0
 42
0.0350728789524082
 70
     1
  0
VERTEX
  5
1676
  8
3
 10
196.56270313366389
 20
383.43918742181842
 30
0.0
 42
0.0497721810439438
  0
VERTEX
  5
168E
  8
3
 10
196.57947343073829
 20
383.82246361915759
 30
0.0
 42
0.0573122761505259
 70
     1
  0
VERTEX
  5
1677
  8
3
 10
196.522984494734
 20
384.15108237797631
 30
0.0
 42
0.0181875821138119
  0
VERTEX
  5
168F
  8
3
 10
196.4467711767565
 20
384.38021543753672
 30
0.0
 42
0.0299607921222359
 70
     1
  0
VERTEX
  5
1678
  8
3
 10
196.38731614830371
 20
384.51429430393421
 30
0.0
 42
0.0193390199809627
  0
VERTEX
  5
1691
  8
3
 10
196.31080101999029
 20
384.64919281456559
 30
0.0
 42
0.0068363690973224
 70
     1
  0
VERTEX
  5
1679
  8
3
 10
196.07475902643009
 20
385.01883093522071
 30
0.0
 42
0.0246295418211044
  0
VERTEX
  5
1690
  8
3
 10
195.98943002483969
 20
385.13556152250521
 30
0.0
 42
0.0130006999988873
 70
     1
  0
VERTEX
  5
167A
  8
3
 10
195.81168618055301
 20
385.3438353044582
 30
0.0
  0
SEQEND
  5
167B
  8
3
  0
POLYLINE
  5
1692
  8
3
 66
     1
 10
0.0
 20
0.0
 30
0.0
 70
     2
  0
VERTEX
  5
1693
  8
3
 10
193.09557289930319
 20
390.7703377083044
 30
0.0
 42
-0.0396924618802513
  0
VERTEX
  5
16A5
  8
3
 10
193.0077100805658
 20
391.05756865012648
 30
0.0
 42
-0.0599879963110726
 70
     1
  0
VERTEX
  5
1694
  8
3
 10
192.98828795562011
 20
391.25576687526791
 30
0.0
 42
-0.0142851141408675
  0
VERTEX
  5
16A6
  8
3
 10
193.00406981936189
 20
391.56666208573688
 30
0.0
 42
-0.0364038710929681
 70
     1
  0
VERTEX
  5
1695
  8
3
 10
193.02259421809421
 20
391.68754222800447
 30
0.0
 42
-0.0335632671512694
  0
VERTEX
  5
16A7
  8
3
 10
193.09162639717599
 20
391.91724619387742
 30
0.0
 42
-0.0327429885691199
 70
     1
  0
VERTEX
  5
1696
  8
3
 10
193.1928835964184
 20
392.14127370590029
 30
0.0
 42
-0.0281593675806919
  0
VERTEX
  5
16A8
  8
3
 10
193.31762323838939
 20
392.34644256597988
 30
0.0
 42
-0.0314740651949869
 70
     1
  0
VERTEX
  5
1697
  8
3
 10
193.45029419739711
 20
392.51545916877387
 30
0.0
 42
-0.0326489368660667
  0
VERTEX
  5
16A9
  8
3
 10
193.5946329167175
 20
392.65741999344579
 30
0.0
 42
-0.0280863273345589
 70
     1
  0
VERTEX
  5
1698
  8
3
 10
193.7811220596021
 20
392.80086265227959
 30
0.0
 42
-0.0376818324012827
  0
VERTEX
  5
16AA
  8
3
 10
193.97148115565551
 20
392.9109126365031
 30
0.0
 42
-0.0271310461631447
 70
     1
  0
VERTEX
  5
1699
  8
3
 10
194.25320858619449
 20
393.02823503066509
 30
0.0
 42
-0.0446810311014871
  0
VERTEX
  5
16AB
  8
3
 10
194.63100619516621
 20
393.12512364508581
 30
0.0
 42
-0.046292275146346
 70
     1
  0
VERTEX
  5
169A
  8
3
 10
195.00660802341989
 20
393.1511662253962
 30
0.0
 42
-0.0280236995990447
  0
VERTEX
  5
16AC
  8
3
 10
195.3949984606333
 20
393.12029181534859
 30
0.0
 42
-0.0326212471284511
 70
     1
  0
VERTEX
  5
169B
  8
3
 10
195.72308382784729
 20
393.05358799309738
 30
0.0
 42
-0.0130722929465174
  0
VERTEX
  5
16AD
  8
3
 10
196.12744736606331
 20
392.93206549216711
 30
0.0
 42
-0.0191431513900822
 70
     1
  0
VERTEX
  5
169C
  8
3
 10
196.3977127521953
 20
392.83145668783129
 30
0.0
 42
-0.0108700753476541
  0
VERTEX
  5
16AE
  8
3
 10
196.75349496266421
 20
392.674113594841
 30
0.0
 42
-0.0117138932719338
 70
     1
  0
VERTEX
  5
169D
  8
3
 10
197.076725243053
 20
392.51334401840029
 30
0.0
 42
-0.0127783019608065
  0
VERTEX
  5
16AF
  8
3
 10
197.32418425590731
 20
392.37475193909222
 30
0.0
 42
-0.0086310315776662
 70
     1
  0
VERTEX
  5
169E
  8
3
 10
197.68139879144979
 20
392.1540912592302
 30
0.0
 42
-0.0263036936593989
  0
VERTEX
  5
16B0
  8
3
 10
197.9259630753931
 20
391.9783073507474
 30
0.0
 42
-0.0149499460273842
 70
     1
  0
VERTEX
  5
169F
  8
3
 10
198.32912507264751
 20
391.63478047905051
 30
0.0
 42
-0.0487921578280705
  0
VERTEX
  5
16B1
  8
3
 10
198.59658128118011
 20
391.34050498173252
 30
0.0
 42
-0.0359708901356216
 70
     1
  0
VERTEX
  5
16A0
  8
3
 10
198.88655673152829
 20
390.88637830008628
 30
0.0
 42
-0.0674999521026813
  0
VERTEX
  5
16B2
  8
3
 10
199.11432002112471
 20
390.28413632231741
 30
0.0
 42
-0.0787926996422725
 70
     1
  0
VERTEX
  5
16A1
  8
3
 10
199.1526935509423
 20
389.73297236770759
 30
0.0
 42
-0.0159245320761496
  0
VERTEX
  5
16B4
  8
3
 10
199.12053196838181
 20
389.46533791052519
 30
0.0
 42
-0.0106153866746538
 70
     1
  0
VERTEX
  5
16A2
  8
3
 10
199.0510633957114
 20
389.06703067600102
 30
0.0
 42
-0.0258293278401323
  0
VERTEX
  5
16B3
  8
3
 10
198.99222099449389
 20
388.83223111002138
 30
0.0
 42
-0.0172299193958898
 70
     1
  0
VERTEX
  5
16A3
  8
3
 10
198.87411106036069
 20
388.48926048474692
 30
0.0
  0
SEQEND
  5
16A4
  8
3
  0
POLYLINE
  5
16B5
  8
3
 66
     1
 10
0.0
 20
0.0
 30
0.0
 70
     2
  0
VERTEX
  5
16B6
  8
3
 10
197.5003129834376
 20
386.28832148234278
 30
0.0
 42
0.0076222478027355
  0
VERTEX
  5
16C0
  8
3
 10
197.1552658258297
 20
386.6859820417007
 30
0.0
 42
0.0177911647797033
 70
     1
  0
VERTEX
  5
16B7
  8
3
 10
196.99893325466491
 20
386.8486635317463
 30
0.0
 42
0.0010535644471389
  0
VERTEX
  5
16C1
  8
3
 10
196.28857440885261
 20
387.53419161883312
 30
0.0
 42
0.0087019327600199
 70
     1
  0
VERTEX
  5
16B8
  8
3
 10
196.20096009921801
 20
387.6155025669799
 30
0.0
 42
0.0013689110685582
  0
VERTEX
  5
16C2
  8
3
 10
195.77693989892941
 20
387.99341054021312
 30
0.0
 42
0.001946819298708
 70
     1
  0
VERTEX
  5
16B9
  8
3
 10
195.47703282649601
 20
388.25715502047223
 30
0.0
 42
0.0026357711709918
  0
VERTEX
  5
16C3
  8
3
 10
195.19546056844391
 20
388.5002354660985
 30
0.0
 42
-0.0021820154821625
 70
     1
  0
VERTEX
  5
16BA
  8
3
 10
194.85506904899319
 20
388.79355568676209
 30
0.0
 42
-0.0077970511900161
  0
VERTEX
  5
16C4
  8
3
 10
194.4851860180315
 20
389.12537964143439
 30
0.0
 42
-0.0063468606749456
 70
     1
  0
VERTEX
  5
16BB
  8
3
 10
194.04250906877749
 20
389.54570213476472
 30
0.0
 42
-0.0135034282255353
  0
VERTEX
  5
16C5
  8
3
 10
193.77191453837801
 20
389.82387081761732
 30
0.0
 42
-0.0125252980315023
 70
     1
  0
VERTEX
  5
16BC
  8
3
 10
193.4961944653175
 20
390.13852691922011
 30
0.0
 42
-0.0131766767462846
  0
VERTEX
  5
16C7
  8
3
 10
193.4326182676341
 20
390.21908131633558
 30
0.0
 42
-0.0044655294644415
 70
     1
  0
VERTEX
  5
16BD
  8
3
 10
193.25354970763371
 20
390.4632096363851
 30
0.0
 42
-0.037230101311305
  0
VERTEX
  5
16C6
  8
3
 10
193.19210509155801
 20
390.56354054713438
 30
0.0
 42
-0.0191733196362175
 70
     1
  0
VERTEX
  5
16BE
  8
3
 10
193.09557289930299
 20
390.77033770830428
 30
0.0
  0
SEQEND
  5
16BF
  8
3
  0
POLYLINE
  5
16C8
  8
3
 66
     1
 10
0.0
 20
0.0
 30
0.0
 70
     2
  0
VERTEX
  5
16C9
  8
3
 10
197.5003129834376
 20
386.28832148234289
 30
0.0
 42
-0.0335805559752654
  0
VERTEX
  5
16DB
  8
3
 10
197.9152996825614
 20
385.70689170247118
 30
0.0
 42
-0.0506303074252687
 70
     1
  0
VERTEX
  5
16CA
  8
3
 10
198.12234683772641
 20
385.27998900802811
 30
0.0
 42
-0.0196039678402152
  0
VERTEX
  5
16DC
  8
3
 10
198.39931471987751
 20
384.41889969664732
 30
0.0
 42
-0.0455987134562751
 70
     1
  0
VERTEX
  5
16CB
  8
3
 10
198.4693836218303
 20
384.03571287010391
 30
0.0
 42
-0.0458496781547667
  0
VERTEX
  5
16DD
  8
3
 10
198.4683793870077
 20
383.5097443444734
 30
0.0
 42
-0.0412730687489448
 70
     1
  0
VERTEX
  5
16CC
  8
3
 10
198.3660895664548
 20
382.93471171215151
 30
0.0
 42
-0.041640016167997
  0
VERTEX
  5
16DE
  8
3
 10
198.137782975102
 20
382.2929238848119
 30
0.0
 42
-0.0449216136502647
 70
     1
  0
VERTEX
  5
16CD
  8
3
 10
197.8268114614462
 20
381.74317809631719
 30
0.0
 42
-0.0325757749108638
  0
VERTEX
  5
16DF
  8
3
 10
197.45798547228051
 20
381.27735228987621
 30
0.0
 42
-0.0369021218240415
 70
     1
  0
VERTEX
  5
16CE
  8
3
 10
197.0784881368111
 20
380.91506912333369
 30
0.0
 42
-0.0333798538633478
  0
VERTEX
  5
16E0
  8
3
 10
196.60981935073031
 20
380.57928502539079
 30
0.0
 42
-0.0355041550191684
 70
     1
  0
VERTEX
  5
16CF
  8
3
 10
196.12995576978861
 20
380.32703234373253
 30
0.0
 42
-0.0344373332198111
  0
VERTEX
  5
16E1
  8
3
 10
195.6024625536115
 20
380.1379714734685
 30
0.0
 42
-0.0336256795311143
 70
     1
  0
VERTEX
  5
16D0
  8
3
 10
195.04099551542069
 20
380.01942718611809
 30
0.0
 42
-0.0335430573665539
  0
VERTEX
  5
16E2
  8
3
 10
194.388230453017
 20
379.97117190306801
 30
0.0
 42
-0.0330708812857248
 70
     1
  0
VERTEX
  5
16D1
  8
3
 10
193.7255300301232
 20
380.01057497745342
 30
0.0
 42
-0.0267281942265026
  0
VERTEX
  5
16E3
  8
3
 10
193.00165569509861
 20
380.14151278465062
 30
0.0
 42
-0.0305315774385288
 70
     1
  0
VERTEX
  5
16D2
  8
3
 10
192.3850650312848
 20
380.32782205615678
 30
0.0
 42
-0.021108248977078
  0
VERTEX
  5
16E4
  8
3
 10
191.7276119430189
 20
380.60322874548052
 30
0.0
 42
-0.0188825643583379
 70
     1
  0
VERTEX
  5
16D3
  8
3
 10
191.01967113100699
 20
380.96879283184188
 30
0.0
 42
-0.0187032907384945
  0
VERTEX
  5
16E5
  8
3
 10
190.4533603291402
 20
381.31742514803722
 30
0.0
 42
-0.0155406317986646
 70
     1
  0
VERTEX
  5
16D4
  8
3
 10
189.80217912847669
 20
381.782610897616
 30
0.0
 42
-0.0371649718437815
  0
VERTEX
  5
16E6
  8
3
 10
189.19657600181199
 20
382.31988377104562
 30
0.0
 42
-0.0328093102733677
 70
     1
  0
VERTEX
  5
16D5
  8
3
 10
188.60231730388821
 20
383.01797808003619
 30
0.0
 42
-0.0443259032056972
  0
VERTEX
  5
16E7
  8
3
 10
188.238077989808
 20
383.61068950762592
 30
0.0
 42
-0.0397009998697377
 70
     1
  0
VERTEX
  5
16D6
  8
3
 10
187.94786540101819
 20
384.33083812567901
 30
0.0
 42
-0.04466618911294
  0
VERTEX
  5
16E8
  8
3
 10
187.75453215493769
 20
385.21851542523967
 30
0.0
 42
-0.0550317108618721
 70
     1
  0
VERTEX
  5
16D7
  8
3
 10
187.74329659542349
 20
385.9565589864481
 30
0.0
 42
-0.0225978975174803
  0
VERTEX
  5
16EA
  8
3
 10
187.80381900751991
 20
386.38628775545249
 30
0.0
 42
-0.0144549540609922
 70
     1
  0
VERTEX
  5
16D8
  8
3
 10
187.94786540101819
 20
387.04904907579231
 30
0.0
 42
-0.0363701170180048
  0
VERTEX
  5
16E9
  8
3
 10
188.04771434583489
 20
387.35482115763313
 30
0.0
 42
-0.0220246514264791
 70
     1
  0
VERTEX
  5
16D9
  8
3
 10
188.27010715411069
 20
387.83670639820832
 30
0.0
  0
SEQEND
  5
16DA
  8
3
  0
CIRCLE
  5
1840
  8
0
 10
476.80201437208888
 20
116.37481397761471
 30
0.0
 40
11.69670000000019
  0
LINE
  5
1841
  8
0
 10
445.05201437208927
 20
83.037313977614815
 30
0.0
 11
445.05201437208927
 21
80.128813977614797
 31
0.0
  0
LINE
  5
1842
  8
0
 10
445.05201437208927
 20
80.128813977614797
 30
0.0
 11
445.30601437208952
 21
79.874813977614792
 31
0.0
  0
LINE
  5
1843
  8
0
 10
508.55201437208927
 20
80.128813977614755
 30
0.0
 11
508.29801437208931
 21
79.874813977614735
 31
0.0
  0
LINE
  5
1844
  8
0
 10
508.55201437208927
 20
83.037313977614758
 30
0.0
 11
508.55201437208927
 21
80.128813977614755
 31
0.0
  0
LINE
  5
184D
  8
1
 10
44.468271726548771
 20
659.90371775886899
 30
0.0
 11
260.5682717265488
 21
659.90371775886911
 31
0.0
  0
LINE
  5
184E
  8
1
 10
152.51827172654879
 20
727.05371775886988
 30
0.0
 11
152.51827172654851
 21
592.75371775886958
 31
0.0
  0
LINE
  5
184F
  8
1
 10
152.51827172654851
 20
441.47481397761487
 30
0.0
 11
152.5182717265495
 21
16.27481397761477
 31
0.0
  0
LINE
  5
1850
  8
1
 10
44.715755524986889
 20
116.37481397761481
 30
0.0
 11
260.3207879281108
 21
116.37481397761501
 31
0.0
  0
LINE
  5
1851
  8
1
 10
409.65201437208918
 20
116.37481397761471
 30
0.0
 11
543.95201437208937
 21
116.37481397761471
 31
0.0
  0
LINE
  5
1852
  8
1
 10
476.80201437208962
 20
16.274813977614819
 30
0.0
 11
476.80201437208927
 21
441.47481397761459
 31
0.0
  0
POLYLINE
  5
18E8
  8
0
 66
     1
 10
0.0
 20
0.0
 30
0.0
  0
VERTEX
  5
18E9
  8
0
 10
435.52701437208952
 20
167.05138745200239
 30
0.0
 42
-0.000549913227105
  0
VERTEX
  5
18EA
  8
0
 10
436.77011906329062
 20
167.23026873870319
 30
0.0
 42
-0.0015827550910141
  0
VERTEX
  5
18EB
  8
0
 10
437.20228609959509
 20
167.2905766975592
 30
0.0
 42
-0.000052423101305
  0
VERTEX
  5
18EC
  8
0
 10
440.3391689623495
 20
167.71786804067909
 30
0.0
 42
-0.0009546416289315
  0
VERTEX
  5
18ED
  8
0
 10
440.51147452217327
 20
167.7409853004435
 30
0.0
 42
-0.0032413413360266
  0
VERTEX
  5
18EE
  8
0
 10
441.54507437528082
 20
167.87083721294761
 30
0.0
 42
-0.0020794903276519
  0
VERTEX
  5
18EF
  8
0
 10
443.15821888933959
 20
168.05608293904439
 30
0.0
 42
-0.0048776633079462
  0
VERTEX
  5
18F0
  8
0
 10
444.85891101299791
 20
168.2274430474786
 30
0.0
 42
-0.0050593154330287
  0
VERTEX
  5
18F1
  8
0
 10
446.50150291755881
 20
168.36003465726921
 30
0.0
 42
-0.0027555686406441
  0
VERTEX
  5
18F2
  8
0
 10
447.88950444160213
 20
168.4502658666556
 30
0.0
 42
-0.0036084621964609
  0
VERTEX
  5
18F3
  8
0
 10
448.9502358065979
 20
168.5056743120355
 30
0.0
 42
-0.0015771609442857
  0
VERTEX
  5
18F4
  8
0
 10
449.06545828663729
 20
168.5104954307921
 30
0.0
 42
-0.0000623427672622
  0
VERTEX
  5
18F5
  8
0
 10
451.98075877089099
 20
168.62290218043859
 30
0.0
 42
-0.002700094299106
  0
VERTEX
  5
18F6
  8
0
 10
452.86896398507452
 20
168.6522356594794
 30
0.0
 42
-0.001198931004731
  0
VERTEX
  5
18F7
  8
0
 10
454.55201437208842
 20
168.69468366328709
 30
0.0
  0
SEQEND
  5
18F8
  8
0
  0
POLYLINE
  5
18F9
  8
0
 66
     1
 10
0.0
 20
0.0
 30
0.0
  0
VERTEX
  5
18FA
  8
0
 10
435.52701437208952
 20
151.42324050322739
 30
0.0
 42
0.000549913227105
  0
VERTEX
  5
18FB
  8
0
 10
436.77011906329062
 20
151.24435921652659
 30
0.0
 42
0.0015827550910141
  0
VERTEX
  5
18FC
  8
0
 10
437.20228609959509
 20
151.1840512576706
 30
0.0
 42
0.000052423101305
  0
VERTEX
  5
18FD
  8
0
 10
440.3391689623495
 20
150.75675991455071
 30
0.0
 42
0.0009546416289315
  0
VERTEX
  5
18FE
  8
0
 10
440.51147452217327
 20
150.73364265478631
 30
0.0
 42
0.0032413413360266
  0
VERTEX
  5
18FF
  8
0
 10
441.54507437528082
 20
150.6037907422822
 30
0.0
 42
0.0020794903276519
  0
VERTEX
  5
1900
  8
0
 10
443.15821888933959
 20
150.41854501618539
 30
0.0
 42
0.0048776633079462
  0
VERTEX
  5
1901
  8
0
 10
444.85891101299791
 20
150.2471849077512
 30
0.0
 42
0.0050593154330287
  0
VERTEX
  5
1902
  8
0
 10
446.50150291755881
 20
150.1145932979606
 30
0.0
 42
0.0027555686406441
  0
VERTEX
  5
1903
  8
0
 10
447.88950444160213
 20
150.02436208857421
 30
0.0
 42
0.0036084621964609
  0
VERTEX
  5
1904
  8
0
 10
448.9502358065979
 20
149.9689536431942
 30
0.0
 42
0.0015771609442857
  0
VERTEX
  5
1905
  8
0
 10
449.06545828663729
 20
149.96413252443759
 30
0.0
 42
0.0000623427672622
  0
VERTEX
  5
1906
  8
0
 10
451.98075877089099
 20
149.85172577479119
 30
0.0
 42
0.002700094299106
  0
VERTEX
  5
1907
  8
0
 10
452.86896398507452
 20
149.8223922957504
 30
0.0
 42
0.001198931004731
  0
VERTEX
  5
1908
  8
0
 10
454.55201437208842
 20
149.77994429194271
 30
0.0
  0
SEQEND
  5
1909
  8
0
  0
POLYLINE
  5
190A
  8
0
 66
     1
 10
0.0
 20
0.0
 30
0.0
  0
VERTEX
  5
190B
  8
0
 10
518.07701437208834
 20
151.42324050322739
 30
0.0
 42
-0.000549913227105
  0
VERTEX
  5
190C
  8
0
 10
516.83390968088725
 20
151.24435921652659
 30
0.0
 42
-0.0015827550910141
  0
VERTEX
  5
190D
  8
0
 10
516.40174264458278
 20
151.1840512576706
 30
0.0
 42
-0.000052423101305
  0
VERTEX
  5
190E
  8
0
 10
513.26485978182825
 20
150.75675991455071
 30
0.0
 42
-0.0009546416289315
  0
VERTEX
  5
190F
  8
0
 10
513.09255422200454
 20
150.73364265478631
 30
0.0
 42
-0.0032413413360266
  0
VERTEX
  5
1910
  8
0
 10
512.05895436889705
 20
150.6037907422822
 30
0.0
 42
-0.0020794903276519
  0
VERTEX
  5
1911
  8
0
 10
510.44580985483822
 20
150.41854501618539
 30
0.0
 42
-0.0048776633079462
  0
VERTEX
  5
1912
  8
0
 10
508.74511773118002
 20
150.2471849077512
 30
0.0
 42
-0.0050593154330287
  0
VERTEX
  5
1913
  8
0
 10
507.102525826619
 20
150.1145932979606
 30
0.0
 42
-0.0027555686406441
  0
VERTEX
  5
1914
  8
0
 10
505.71452430257568
 20
150.02436208857421
 30
0.0
 42
-0.0036084621964609
  0
VERTEX
  5
1915
  8
0
 10
504.65379293758002
 20
149.9689536431942
 30
0.0
 42
-0.0015771609442857
  0
VERTEX
  5
1916
  8
0
 10
504.53857045754052
 20
149.96413252443759
 30
0.0
 42
-0.0000623427672622
  0
VERTEX
  5
1917
  8
0
 10
501.62326997328682
 20
149.85172577479119
 30
0.0
 42
-0.002700094299106
  0
VERTEX
  5
1918
  8
0
 10
500.7350647591033
 20
149.8223922957504
 30
0.0
 42
-0.001198931004731
  0
VERTEX
  5
1919
  8
0
 10
499.05201437208927
 20
149.77994429194271
 30
0.0
  0
SEQEND
  5
191A
  8
0
  0
POLYLINE
  5
191B
  8
0
 66
     1
 10
0.0
 20
0.0
 30
0.0
  0
VERTEX
  5
191C
  8
0
 10
518.07701437208834
 20
167.05138745200239
 30
0.0
 42
0.000549913227105
  0
VERTEX
  5
191D
  8
0
 10
516.83390968088725
 20
167.23026873870319
 30
0.0
 42
0.0015827550910141
  0
VERTEX
  5
191E
  8
0
 10
516.40174264458278
 20
167.2905766975592
 30
0.0
 42
0.000052423101305
  0
VERTEX
  5
191F
  8
0
 10
513.26485978182825
 20
167.71786804067909
 30
0.0
 42
0.0009546416289315
  0
VERTEX
  5
1920
  8
0
 10
513.09255422200454
 20
167.7409853004435
 30
0.0
 42
0.0032413413360266
  0
VERTEX
  5
1921
  8
0
 10
512.05895436889705
 20
167.87083721294761
 30
0.0
 42
0.0020794903276519
  0
VERTEX
  5
1922
  8
0
 10
510.44580985483822
 20
168.05608293904439
 30
0.0
 42
0.0048776633079462
  0
VERTEX
  5
1923
  8
0
 10
508.74511773118002
 20
168.2274430474786
 30
0.0
 42
0.0050593154330287
  0
VERTEX
  5
1924
  8
0
 10
507.102525826619
 20
168.36003465726921
 30
0.0
 42
0.0027555686406441
  0
VERTEX
  5
1925
  8
0
 10
505.71452430257568
 20
168.4502658666556
 30
0.0
 42
0.0036084621964609
  0
VERTEX
  5
1926
  8
0
 10
504.65379293758002
 20
168.5056743120355
 30
0.0
 42
0.0015771609442857
  0
VERTEX
  5
1927
  8
0
 10
504.53857045754052
 20
168.5104954307921
 30
0.0
 42
0.0000623427672622
  0
VERTEX
  5
1928
  8
0
 10
501.62326997328682
 20
168.62290218043859
 30
0.0
 42
0.002700094299106
  0
VERTEX
  5
1929
  8
0
 10
500.7350647591033
 20
168.6522356594794
 30
0.0
 42
0.001198931004731
  0
VERTEX
  5
192A
  8
0
 10
499.05201437208927
 20
168.69468366328709
 30
0.0
  0
SEQEND
  5
192B
  8
0
  0
ARC
  5
19B5
  8
0
 10
135.62727172654971
 20
75.680075446671481
 30
0.0
 40
1.524000000000022
 50
313.86117337054338
 51
0.0
  0
ARC
  5
19B6
  8
0
 10
169.40927172654941
 20
75.680075446671594
 30
0.0
 40
1.524000000000022
 50
180.0
 51
226.13882662947179
  0
LINE
  5
19B7
  8
0
 10
167.88527172654949
 20
78.350813977614905
 30
0.0
 11
167.88527172654949
 21
75.680075446671651
 31
0.0
  0
LINE
  5
19B8
  8
0
 10
137.15127172654951
 20
78.350813977614834
 30
0.0
 11
137.15127172654951
 21
75.680075446671481
 31
0.0
  0
LINE
  5
19B9
  8
0
 10
137.15127172654951
 20
75.680075446671481
 30
0.0
 11
167.88527172654921
 21
75.680075446671594
 31
0.0
  0
LINE
  5
19BA
  8
0
 10
167.88527172654921
 20
78.350813977614905
 30
0.0
 11
137.15127172654951
 21
78.350813977614834
 31
0.0
  0
ARC
  5
19BB
  8
0
 10
135.62727172654971
 20
78.350813977614834
 30
0.0
 40
1.524000000000012
 50
0.0
 51
90.0
  0
ARC
  5
19BC
  8
0
 10
169.40927172654941
 20
78.350813977614905
 30
0.0
 40
1.524000000000012
 50
90.0
 51
180.0
  0
LINE
  5
19BD
  8
0
 10
134.5182717265495
 20
72.564693977614922
 30
0.0
 11
136.68327172654841
 21
74.58123969916295
 31
0.0
  0
LINE
  5
19BE
  8
0
 10
170.5182717265495
 20
72.564693977614922
 30
0.0
 11
168.3532717265509
 21
74.581239699162779
 31
0.0
  0
LINE
  5
19BF
  8
0
 10
170.5182717265495
 20
72.564693977614922
 30
0.0
 11
134.5182717265495
 21
72.564693977614922
 31
0.0
  0
LINE
  5
19C0
  8
0
 10
166.5182717265495
 20
26.27481397761483
 30
0.0
 11
138.5182717265495
 21
26.27481397761483
 31
0.0
  0
LINE
  5
19C1
  8
0
 10
170.5182717265495
 20
30.27481397761483
 30
0.0
 11
134.5182717265495
 21
30.27481397761483
 31
0.0
  0
LINE
  5
19C2
  8
0
 10
170.5182717265495
 20
72.564693977614809
 30
0.0
 11
170.51827172654961
 21
30.27481397761483
 31
0.0
  0
LINE
  5
19C3
  8
3
 10
168.35327172654951
 20
74.581239699164087
 30
0.0
 11
168.35327172654939
 21
28.109813977614749
 31
0.0
  0
LINE
  5
19C4
  8
0
 10
170.5182717265495
 20
30.27481397761483
 30
0.0
 11
166.5182717265495
 21
26.27481397761483
 31
0.0
  0
LINE
  5
19C5
  8
0
 10
134.5182717265495
 20
30.27481397761483
 30
0.0
 11
138.5182717265495
 21
26.27481397761483
 31
0.0
  0
LINE
  5
19C6
  8
3
 10
136.68327172654969
 20
74.5812396991642
 30
0.0
 11
136.68327172654949
 21
28.109813977614749
 31
0.0
  0
LINE
  5
19C7
  8
0
 10
134.5182717265495
 20
72.564693977614922
 30
0.0
 11
134.51827172654939
 21
30.27481397761483
 31
0.0
  0
LINE
  5
19D0
  8
0
 10
458.80201437208939
 20
72.564693977614866
 30
0.0
 11
458.80201437208939
 21
30.27481397761483
 31
0.0
  0
LINE
  5
19D1
  8
3
 10
460.96701437208958
 20
74.581239699164144
 30
0.0
 11
460.9670143720893
 21
28.109813977614749
 31
0.0
  0
LINE
  5
19D2
  8
0
 10
458.80201437208939
 20
30.27481397761483
 30
0.0
 11
462.80201437208939
 21
26.27481397761483
 31
0.0
  0
LINE
  5
19D3
  8
0
 10
494.80201437208939
 20
30.27481397761483
 30
0.0
 11
490.80201437208939
 21
26.27481397761483
 31
0.0
  0
LINE
  5
19D4
  8
3
 10
492.63701437208942
 20
74.58123969916403
 30
0.0
 11
492.6370143720892
 21
28.109813977614749
 31
0.0
  0
LINE
  5
19D5
  8
0
 10
494.80201437208939
 20
72.564693977614752
 30
0.0
 11
494.80201437208939
 21
30.27481397761483
 31
0.0
  0
LINE
  5
19D6
  8
0
 10
494.80201437208939
 20
30.27481397761483
 30
0.0
 11
458.80201437208939
 21
30.27481397761483
 31
0.0
  0
LINE
  5
19D7
  8
0
 10
490.80201437208939
 20
26.27481397761483
 30
0.0
 11
462.80201437208939
 21
26.27481397761483
 31
0.0
  0
LINE
  5
19D8
  8
0
 10
494.80201437208939
 20
72.564693977614866
 30
0.0
 11
458.80201437208939
 21
72.564693977614866
 31
0.0
  0
LINE
  5
19D9
  8
0
 10
494.80201437208939
 20
72.564693977614866
 30
0.0
 11
492.63701437209079
 21
74.581239699162722
 31
0.0
  0
LINE
  5
19DA
  8
0
 10
458.80201437208939
 20
72.564693977614866
 30
0.0
 11
460.96701437208822
 21
74.581239699162893
 31
0.0
  0
ARC
  5
19DB
  8
0
 10
493.69301437208918
 20
78.350813977614834
 30
0.0
 40
1.524000000000012
 50
90.0
 51
180.0
  0
ARC
  5
19DC
  8
0
 10
459.91101437208948
 20
78.350813977614791
 30
0.0
 40
1.524000000000012
 50
0.0
 51
90.0
  0
LINE
  5
19DD
  8
0
 10
492.16901437208912
 20
78.350813977614834
 30
0.0
 11
461.43501437208943
 21
78.350813977614791
 31
0.0
  0
LINE
  5
19DE
  8
0
 10
461.43501437208943
 20
75.680075446671424
 30
0.0
 11
492.16901437208912
 21
75.680075446671523
 31
0.0
  0
LINE
  5
19DF
  8
0
 10
461.43501437208943
 20
78.350813977614791
 30
0.0
 11
461.43501437208943
 21
75.680075446671424
 31
0.0
  0
LINE
  5
19E0
  8
0
 10
492.16901437208929
 20
78.350813977614834
 30
0.0
 11
492.16901437208929
 21
75.680075446671594
 31
0.0
  0
ARC
  5
19E1
  8
0
 10
493.69301437208918
 20
75.680075446671523
 30
0.0
 40
1.524000000000022
 50
180.0
 51
226.13882662947179
  0
ARC
  5
19E2
  8
0
 10
459.91101437208948
 20
75.680075446671424
 30
0.0
 40
1.524000000000022
 50
313.86117337054338
 51
0.0
  0
TEXT
  5
61C2
  8
0
 62
     3
 10
0.0
 20
0.0
 30
0.0
 40
10.0
  1
HRE36
  7
STANDARD1
  0
ENDSEC
  0
EOF
