  0
SECTION
  2
HEADER
  9
$ACADVER
  1
AC1009
  9
$INSBASE
 10
0.0
 20
0.0
 30
0.0
  9
$EXTMIN
 10
0.0
 20
-2.960436562073669
 30
0.0
  9
$EXTMAX
 10
521.66780832841232
 20
504.85240102388519
 30
0.0
  9
$LIMMIN
 10
0.0
 20
0.0
  9
$LIMMAX
 10
375.0
 20
278.0
  9
$ORTHOMODE
 70
     0
  9
$REGENMODE
 70
     1
  9
$FILLMODE
 70
     1
  9
$QTEXTMODE
 70
     0
  9
$MIRRTEXT
 70
     0
  9
$DRAGMODE
 70
     2
  9
$LTSCALE
 40
10.0
  9
$OSMODE
 70
    55
  9
$ATTMODE
 70
     1
  9
$TEXTSIZE
 40
0.2
  9
$TRACEWID
 40
0.05
  9
$TEXTSTYLE
  7
STANDARD
  9
$CLAYER
  8
0
  9
$CELTYPE
  6
BYLAYER
  9
$CECOLOR
 62
   256
  9
$DIMSCALE
 40
1.0
  9
$DIMASZ
 40
3.0
  9
$DIMEXO
 40
1.0
  9
$DIMDLI
 40
6.0
  9
$DIMRND
 40
0.0
  9
$DIMDLE
 40
0.0
  9
$DIMEXE
 40
1.0
  9
$DIMTP
 40
495.0
  9
$DIMTM
 40
0.0
  9
$DIMTXT
 40
3.0
  9
$DIMCEN
 40
0.0
  9
$DIMTSZ
 40
0.0
  9
$DIMTOL
 70
     0
  9
$DIMLIM
 70
     0
  9
$DIMTIH
 70
     0
  9
$DIMTOH
 70
     0
  9
$DIMSE1
 70
     0
  9
$DIMSE2
 70
     0
  9
$DIMTAD
 70
     1
  9
$DIMZIN
 70
     0
  9
$DIMBLK
  1

  9
$DIMASO
 70
     0
  9
$DIMSHO
 70
     0
  9
$DIMPOST
  1

  9
$DIMAPOST
  1

  9
$DIMALT
 70
     0
  9
$DIMALTD
 70
     2
  9
$DIMALTF
 40
25.399999999999999
  9
$DIMLFAC
 40
1.0
  9
$DIMTOFL
 70
     1
  9
$DIMTVP
 40
0.0
  9
$DIMTIX
 70
     1
  9
$DIMSOXD
 70
     0
  9
$DIMSAH
 70
     0
  9
$DIMBLK1
  1

  9
$DIMBLK2
  1

  9
$DIMSTYLE
  2
STANDARD
  9
$DIMCLRD
 70
     0
  9
$DIMCLRE
 70
     0
  9
$DIMCLRT
 70
     4
  9
$DIMTFAC
 40
1.0
  9
$DIMGAP
 40
1.0
  9
$LUNITS
 70
     2
  9
$LUPREC
 70
     4
  9
$SKETCHINC
 40
0.1
  9
$FILLETRAD
 40
0.0
  9
$AUNITS
 70
     0
  9
$AUPREC
 70
     0
  9
$MENU
  1
C:\R13\WIN\SUPPORT\ACAD-I
  9
$ELEVATION
 40
0.0
  9
$PELEVATION
 40
0.0
  9
$THICKNESS
 40
0.0
  9
$LIMCHECK
 70
     0
  9
$BLIPMODE
 70
     0
  9
$CHAMFERA
 40
0.0
  9
$CHAMFERB
 40
0.0
  9
$SKPOLY
 70
     0
  9
$TDCREATE
 40
2450834.4199027782
  9
$TDUPDATE
 40
2456598.6908383449
  9
$TDINDWG
 40
0.232152662
  9
$TDUSRTIMER
 40
0.232152662
  9
$USRTIMER
 70
     1
  9
$ANGBASE
 50
0.0
  9
$ANGDIR
 70
     0
  9
$PDMODE
 70
     0
  9
$PDSIZE
 40
0.0
  9
$PLINEWID
 40
0.0
  9
$COORDS
 70
     1
  9
$SPLFRAME
 70
     0
  9
$SPLINETYPE
 70
     6
  9
$SPLINESEGS
 70
     8
  9
$ATTDIA
 70
     0
  9
$ATTREQ
 70
     1
  9
$HANDLING
 70
     1
  9
$HANDSEED
  5
1493
  9
$SURFTAB1
 70
     6
  9
$SURFTAB2
 70
     6
  9
$SURFTYPE
 70
     6
  9
$SURFU
 70
     6
  9
$SURFV
 70
     6
  9
$UCSNAME
  2

  9
$UCSORG
 10
0.0
 20
0.0
 30
0.0
  9
$UCSXDIR
 10
1.0
 20
0.0
 30
0.0
  9
$UCSYDIR
 10
0.0
 20
1.0
 30
0.0
  9
$PUCSNAME
  2

  9
$PUCSORG
 10
0.0
 20
0.0
 30
0.0
  9
$PUCSXDIR
 10
1.0
 20
0.0
 30
0.0
  9
$PUCSYDIR
 10
0.0
 20
1.0
 30
0.0
  9
$USERI1
 70
     4
  9
$USERI2
 70
     1
  9
$USERI3
 70
     0
  9
$USERI4
 70
     0
  9
$USERI5
 70
     0
  9
$USERR1
 40
1.0
  9
$USERR2
 40
3.0
  9
$USERR3
 40
3.0
  9
$USERR4
 40
3.0
  9
$USERR5
 40
10.0
  9
$WORLDVIEW
 70
     1
  9
$SHADEDGE
 70
     3
  9
$SHADEDIF
 70
    70
  9
$TILEMODE
 70
     1
  9
$MAXACTVP
 70
    16
  9
$PLIMCHECK
 70
     0
  9
$PEXTMIN
 10
1.0000000000000000E+020
 20
1.0000000000000000E+020
 30
1.0000000000000000E+020
  9
$PEXTMAX
 10
-1.0000000000000000E+020
 20
-1.0000000000000000E+020
 30
-1.0000000000000000E+020
  9
$PLIMMIN
 10
0.0
 20
0.0
  9
$PLIMMAX
 10
12.0
 20
9.0
  9
$UNITMODE
 70
     0
  9
$VISRETAIN
 70
     0
  9
$PLINEGEN
 70
     0
  9
$PSLTSCALE
 70
     0
  0
ENDSEC
  0
SECTION
  2
TABLES
  0
TABLE
  2
VPORT
 70
     1
  0
VPORT
  2
*ACTIVE
 70
     0
 10
0.0
 20
0.0
 11
1.0
 21
1.0
 12
260.83390537880871
 22
327.97246855811881
 13
0.0
 23
0.0
 14
10.0
 24
10.0
 15
10.0
 25
10.0
 16
0.0
 26
0.0
 36
1.0
 17
0.0
 27
0.0
 37
0.0
 40
667.74473972599424
 41
1.7807262569832401
 42
50.0
 43
0.0
 44
0.0
 50
0.0
 51
0.0
 71
     0
 72
   100
 73
     1
 74
     0
 75
     0
 76
     0
 77
     0
 78
     0
  0
ENDTAB
  0
TABLE
  2
LTYPE
 70
     4
  0
LTYPE
  2
CONTINUOUS
 70
     0
  3
Solid Line
 72
    65
 73
     0
 40
0.0
  0
LTYPE
  2
CENTER
 70
     0
  3
____ _ ____ _ ____ _ ____ _ ____ _ ____ _ ____
 72
    65
 73
     4
 40
2.0
 49
1.25
 49
-0.25
 49
0.25
 49
-0.25
  0
LTYPE
  2
HIDDEN
 70
     0
  3
__ __ __ __ __ __ __ __ __ __ __ __ __ __ __ __
 72
    65
 73
     2
 40
0.375
 49
0.25
 49
-0.125
  0
LTYPE
  2
PHANTOM2
 70
     0
  3
___ _ _ ___ _ _ ___ _ _ ___ _ _
 72
    65
 73
     6
 40
1.25
 49
0.625
 49
-0.125
 49
0.125
 49
-0.125
 49
0.125
 49
-0.125
  0
ENDTAB
  0
TABLE
  2
LAYER
 70
     4
  0
LAYER
  2
0
 70
     0
 62
     7
  6
CONTINUOUS
  0
LAYER
  2
1
 70
     0
 62
     1
  6
CENTER
  0
LAYER
  2
3
 70
     0
 62
     3
  6
CONTINUOUS
  0
LAYER
  2
2
 70
     0
 62
     2
  6
HIDDEN
  0
ENDTAB
  0
TABLE
  2
STYLE
 70
     3
  0
STYLE
  2
STANDARD
 70
     0
 40
0.0
 41
1.0
 50
0.0
 71
     0
 42
0.2
  3
SIMPLEX
  4
BIGFONT
  0
STYLE
  2
ROMANS
 70
     0
 40
0.0
 41
1.0
 50
0.0
 71
     0
 42
0.18
  3
romans
  4

  0
STYLE
  2
STANDARD1
 70
     0
 40
0.0
 41
1.0
 50
0.0
 71
     0
 42
3.0
  3
txt
  4

  0
ENDTAB
  0
TABLE
  2
VIEW
 70
     0
  0
ENDTAB
  0
TABLE
  2
UCS
 70
     0
  0
ENDTAB
  0
TABLE
  2
APPID
 70
    40
  0
APPID
  2
ACAD
 70
     0
  0
APPID
  2
GENIUS_GENOBJ_13
 70
     0
  0
APPID
  2
GENIUS_GENODEF_13
 70
     0
  0
APPID
  2
GENIUS_GENOENT_13
 70
     0
  0
APPID
  2
GENIUS_GENOLIS_13
 70
     0
  0
APPID
  2
GENIUS_GENOREF_13
 70
     0
  0
APPID
  2
GENIUS_GENOBJ-N-TIT_13
 70
     0
  0
APPID
  2
GENIUS_GENTITLE_13
 70
     0
  0
APPID
  2
GENIUS_GENZVEED_13
 70
     0
  0
APPID
  2
GENIUS_GENOBJ-N-FIL_13
 70
     0
  0
APPID
  2
GENIUS_GENOBJ-N-CRS_13
 70
     0
  0
APPID
  2
GENIUS_GEFINERT_13
 70
     0
  0
APPID
  2
GENIUS_GENOBJ-F-INER_13
 70
     0
  0
APPID
  2
GENIUS_GENOBJ-N-ZOO_13
 70
     0
  0
APPID
  2
GENIUS_GENZOO_13
 70
     0
  0
APPID
  2
GENIUS_GENOBJ-F-TOL_13
 70
     0
  0
APPID
  2
GENIUS_GENOBJ-N-RSSYM_13
 70
     0
  0
APPID
  2
GENIUS_GENSYMENT_13
 70
     0
  0
APPID
  2
GENIUS_GENBH_13
 70
     0
  0
APPID
  2
GENIUS_GENOBJ-NBEHI-BHF_13
 70
     0
  0
APPID
  2
GENIUS_GENOBJ-NBEHI-BHB_13
 70
     0
  0
APPID
  2
GENIUS_GENOBJ-F-PART_13
 70
     0
  0
APPID
  2
GENIUS_GEFSTDP_13
 70
     0
  0
APPID
  2
GENIUS_GENOBJ-N-LEADER_13
 70
     0
  0
APPID
  2
GENIUS_GENOBJ-N-REV_13
 70
     0
  0
APPID
  2
GENIUS_GENCFG_13
 70
     0
  0
APPID
  2
GENIUS_GENCFG0_13
 70
     0
  0
APPID
  2
GENIUS_GENCFG1_13
 70
     0
  0
APPID
  2
GENIUS_GENCFG2_13
 70
     0
  0
APPID
  2
GENIUS_GENCFG3_13
 70
     0
  0
APPID
  2
GENIUS_GEVCFG0_13
 70
     0
  0
APPID
  2
GENIUS_GENCFG4_13
 70
     0
  0
APPID
  2
GENIUS_GENOBJ-N-REC_13
 70
     0
  0
APPID
  2
GENIUS_GENFIL_13
 70
     0
  0
APPID
  2
GENIUS_GENOBJ-N-CHA_13
 70
     0
  0
APPID
  2
GENIUS_GENREC_13
 70
     0
  0
APPID
  2
MCAD_NO_VIS
 70
     0
  0
APPID
  2
ACAD_TEMP_GRAPHIC
 70
     0
  0
APPID
  2
ACAD_MLEADERVER
 70
     0
  0
APPID
  2
ACAD_NAV_VCDISPLAY
 70
     0
  0
ENDTAB
  0
TABLE
  2
DIMSTYLE
 70
     1
  0
DIMSTYLE
  2
STANDARD
 70
     0
  3

  4

  5

  6

  7

 40
1.0
 41
0.18
 42
0.0625
 43
0.38
 44
0.18
 45
0.0
 46
0.0
 47
0.0
 48
0.0
140
0.18
141
0.09
142
0.0
143
25.399999999999999
144
1.0
145
0.0
146
1.0
147
0.09
 71
     0
 72
     0
 73
     1
 74
     1
 75
     0
 76
     0
 77
     0
 78
     0
170
     0
171
     2
172
     0
173
     0
174
     0
175
     0
176
     0
177
     0
178
     0
  0
ENDTAB
  0
ENDSEC
  0
SECTION
  2
BLOCKS
  0
BLOCK
  8
0
  2
$MODEL_SPACE
 70
     0
 10
0.0
 20
0.0
 30
0.0
  3
$MODEL_SPACE
  1

  0
ENDBLK
  5
1349
  8
0
  0
BLOCK
 67
     1
  8
0
  2
$PAPER_SPACE
 70
     0
 10
0.0
 20
0.0
 30
0.0
  3
$PAPER_SPACE
  1

  0
ENDBLK
  5
1347
 67
     1
  8
0
  0
BLOCK
  8
0
  2
STDGX5
 70
     0
 10
0.0
 20
0.0
 30
0.0
  3
STDGX5
  1

  0
ENDBLK
  5
4F
  8
0
  0
ENDSEC
  0
SECTION
  2
ENTITIES
  0
INSERT
  5
DE
  8
0
  2
STDGX5
 10
0.0
 20
0.0
 30
0.0
  0
INSERT
  5
DF
  8
0
  2
STDGX5
 10
0.0
 20
0.0
 30
0.0
  0
INSERT
  5
15C
  8
0
  2
STDGX5
 10
275.0
 20
0.0
 30
0.0
  0
INSERT
  5
15D
  8
0
  2
STDGX5
 10
275.0
 20
0.0
 30
0.0
  0
INSERT
  5
314
  8
0
  2
STDGX5
 10
0.0
 20
0.0
 30
0.0
  0
INSERT
  5
315
  8
0
  2
STDGX5
 10
0.0
 20
0.0
 30
0.0
  0
INSERT
  5
316
  8
0
  2
STDGX5
 10
275.0
 20
0.0
 30
0.0
  0
INSERT
  5
317
  8
0
  2
STDGX5
 10
275.0
 20
0.0
 30
0.0
  0
INSERT
  5
4EF
  8
0
  2
STDGX5
 10
0.0
 20
0.0
 30
0.0
  0
INSERT
  5
4F0
  8
0
  2
STDGX5
 10
0.0
 20
0.0
 30
0.0
  0
INSERT
  5
4F1
  8
0
  2
STDGX5
 10
275.0
 20
0.0
 30
0.0
  0
INSERT
  5
4F2
  8
0
  2
STDGX5
 10
275.0
 20
0.0
 30
0.0
  0
LINE
  5
125D
  8
0
 10
258.20916011127508
 20
230.67322209820551
 30
0.0
 11
275.83555713096632
 21
213.04682507851419
 31
0.0
  0
LINE
  5
125E
  8
0
 10
275.83555713096632
 20
186.83713907532149
 30
0.0
 11
258.20916011127508
 21
169.21074205562951
 31
0.0
  0
LINE
  5
125F
  8
0
 10
245.4364086477307
 20
213.5130305069334
 30
0.0
 11
498.09675989839599
 21
213.5130305069334
 31
0.0
  0
LINE
  5
1260
  8
0
 10
245.4364086477307
 20
186.37093364690151
 30
0.0
 11
498.09675989839599
 21
186.37093364690151
 31
0.0
  0
LINE
  5
1261
  8
1
 10
196.2613155130843
 20
259.03405232705057
 30
0.0
 11
196.26131551308421
 21
51.434265206241662
 31
0.0
  0
LINE
  5
1262
  8
0
 10
148.10804249552189
 20
230.67322209820551
 30
0.0
 11
148.10804249552189
 21
216.112285429765
 31
0.0
  0
LINE
  5
1263
  8
0
 10
236.97573807827899
 20
166.93719229511859
 30
0.0
 11
155.5468929478896
 21
166.93719229511859
 31
0.0
  0
LINE
  5
1264
  8
0
 10
236.97573807827899
 20
157.99626627063759
 30
0.0
 11
155.5468929478896
 21
157.99626627063759
 31
0.0
  0
LINE
  5
1265
  8
0
 10
175.45450337897009
 20
61.434265206241662
 30
0.0
 11
217.06812764719839
 21
61.434265206241662
 31
0.0
  0
LINE
  5
1266
  8
0
 10
148.36349752479259
 20
184.87013534993491
 30
0.0
 11
230.04524313415979
 21
184.87013534993491
 31
0.0
  0
LINE
  5
1267
  8
0
 10
148.36349752479259
 20
215.0138288039
 30
0.0
 11
230.04524313415911
 21
215.0138288039
 31
0.0
  0
LINE
  5
1268
  8
0
 10
148.10804249552189
 20
169.21074205562951
 30
0.0
 11
258.20916011127508
 21
169.21074205562951
 31
0.0
  0
LINE
  5
1269
  8
0
 10
148.10804249552189
 20
183.7716787240706
 30
0.0
 11
245.4364086477307
 21
183.7716787240706
 31
0.0
  0
LINE
  5
126A
  8
0
 10
148.10804249552189
 20
216.112285429765
 30
0.0
 11
245.4364086477307
 21
216.112285429765
 31
0.0
  0
LINE
  5
126B
  8
0
 10
237.77275776960369
 20
158.79328596196311
 30
0.0
 11
154.7498732565648
 21
158.79328596196311
 31
0.0
  0
LINE
  5
126C
  8
0
 10
154.7498732565648
 20
166.14017260379379
 30
0.0
 11
237.77275776960369
 21
166.14017260379379
 31
0.0
  0
LINE
  5
126D
  8
0
 10
172.26131551308401
 20
64.627453072127764
 30
0.0
 11
220.2613155130845
 21
64.627453072127764
 31
0.0
  0
LINE
  5
126E
  8
3
 10
175.46855340558079
 20
61.434265206241662
 30
0.0
 11
175.46855340558079
 21
157.99626627063759
 31
0.0
  0
LINE
  5
126F
  8
0
 10
172.26131551308401
 20
157.99626627063759
 30
0.0
 11
172.26131551308401
 21
64.627453072127764
 31
0.0
  0
LINE
  5
1270
  8
0
 10
172.26131551308401
 20
64.627453072127764
 30
0.0
 11
175.45450337897009
 21
61.434265206241662
 31
0.0
  0
LINE
  5
1271
  8
0
 10
148.10804249552189
 20
183.7716787240706
 30
0.0
 11
148.10804249552189
 21
169.21074205562951
 31
0.0
  0
LINE
  5
1272
  8
0
 10
154.7498732565648
 20
166.14017260379379
 30
0.0
 11
154.7498732565648
 21
158.79328596196311
 31
0.0
  0
LINE
  5
1273
  8
0
 10
154.7498732565648
 20
158.79328596196311
 30
0.0
 11
155.5468929478896
 21
157.99626627063759
 31
0.0
  0
LINE
  5
1274
  8
0
 10
154.7498732565648
 20
166.14017260379379
 30
0.0
 11
155.5468929478896
 21
166.93719229511859
 31
0.0
  0
LINE
  5
1275
  8
0
 10
164.52102812617611
 20
169.21074205562951
 30
0.0
 11
164.52102812617611
 21
168.5337862280617
 31
0.0
  0
ARC
  5
1276
  8
0
 10
162.92443419323311
 20
168.5337862280617
 30
0.0
 40
1.5965939329430541
 50
270.0
 51
0.0
  0
LINE
  5
1277
  8
0
 10
148.36349752479259
 20
184.87013534993491
 30
0.0
 11
148.36349752479259
 21
215.0138288039
 31
0.0
  0
LINE
  5
1278
  8
0
 10
164.52102812617611
 20
184.87013534993491
 30
0.0
 11
164.52102812617611
 21
183.7716787240706
 31
0.0
  0
LINE
  5
1279
  8
0
 10
164.52102812617611
 20
216.112285429765
 30
0.0
 11
164.52102812617611
 21
215.0138288039
 31
0.0
  0
LINE
  5
127A
  8
3
 10
217.0540776205884
 20
61.434265206241662
 30
0.0
 11
217.0540776205884
 21
157.99626627063759
 31
0.0
  0
LINE
  5
127B
  8
0
 10
220.2613155130845
 20
157.99626627063759
 30
0.0
 11
220.2613155130845
 21
64.627453072127764
 31
0.0
  0
LINE
  5
127C
  8
0
 10
217.06812764719839
 20
61.434265206241662
 30
0.0
 11
220.2613155130845
 21
64.627453072127764
 31
0.0
  0
ARC
  5
127D
  8
0
 10
229.59819683293551
 20
168.5337862280617
 30
0.0
 40
1.5965939329430541
 50
180.0
 51
270.0
  0
LINE
  5
127E
  8
0
 10
228.00160289999241
 20
169.21074205562951
 30
0.0
 11
228.00160289999241
 21
168.5337862280617
 31
0.0
  0
LINE
  5
127F
  8
0
 10
237.77275776960369
 20
166.14017260379379
 30
0.0
 11
237.77275776960369
 21
158.79328596196311
 31
0.0
  0
LINE
  5
1280
  8
0
 10
237.77275776960369
 20
158.79328596196311
 30
0.0
 11
236.97573807827899
 21
157.99626627063759
 31
0.0
  0
LINE
  5
1281
  8
0
 10
237.77275776960369
 20
166.14017260379379
 30
0.0
 11
236.97573807827899
 21
166.93719229511859
 31
0.0
  0
ARC
  5
1282
  8
0
 10
245.4364086477307
 20
199.9419820769175
 30
0.0
 40
13.57104843001596
 50
90.0
 51
270.0
  0
LINE
  5
1283
  8
0
 10
230.04524313415911
 20
215.0138288039
 30
0.0
 11
230.04524313415979
 21
184.87013534993491
 31
0.0
  0
LINE
  5
1284
  8
0
 10
228.00160289999241
 20
184.87013534993491
 30
0.0
 11
228.00160289999241
 21
183.7716787240706
 31
0.0
  0
LINE
  5
1285
  8
0
 10
228.00160289999241
 20
216.112285429765
 30
0.0
 11
228.00160289999241
 21
215.0138288039
 31
0.0
  0
ARC
  5
1286
  8
2
 10
245.4364086477307
 20
199.9419820769175
 30
0.0
 40
16.17030335284727
 50
302.93820326958132
 51
57.061796730418962
  0
ARC
  5
1287
  8
2
 10
245.4364086477307
 20
199.9419820769175
 30
0.0
 40
13.57104843001596
 50
270.0
 51
90.0
  0
ARC
  5
1288
  8
0
 10
245.4364086477307
 20
199.9419820769175
 30
0.0
 40
16.17030335284727
 50
270.0
 51
302.93820326958138
  0
ARC
  5
1289
  8
0
 10
245.4364086477307
 20
199.9419820769175
 30
0.0
 40
16.17030335284727
 50
57.061796730418841
 51
90.0
  0
LINE
  5
128A
  8
2
 10
185.1997882694302
 20
236.26130086350619
 30
0.0
 11
207.3228427567384
 21
236.26130086350619
 31
0.0
  0
LINE
  5
128B
  8
0
 10
158.142316045283
 20
249.0340523270506
 30
0.0
 11
234.3803149808862
 21
249.0340523270506
 31
0.0
  0
LINE
  5
128C
  8
0
 10
148.10804249552189
 20
230.67322209820551
 30
0.0
 11
258.20916011127508
 21
230.67322209820551
 31
0.0
  0
ARC
  5
128D
  8
0
 10
196.26131551308501
 20
380.55100004627349
 30
0.0
 40
149.877777948068
 50
261.5117084092621
 51
278.48829159073779
  0
ARC
  5
128E
  8
0
 10
196.26131551308421
 20
99.156274378982644
 30
0.0
 40
149.877777948068
 50
81.511708409262098
 51
98.488291590737802
  0
ARC
  5
128F
  8
0
 10
163.11894441199851
 20
211.2328069430605
 30
0.0
 40
37.801245383990008
 50
73.051817996838352
 51
90.0
  0
ARC
  5
1290
  8
0
 10
163.11894441199931
 20
268.47446748219562
 30
0.0
 40
37.801245383990008
 50
269.99999999999989
 51
286.94818200316149
  0
LINE
  5
1291
  8
0
 10
152.01520653846711
 20
247.39229828276271
 30
0.0
 11
152.01520653846711
 21
232.3149761424942
 31
0.0
  0
LINE
  5
1292
  8
0
 10
152.01520653846711
 20
232.3149761424942
 30
0.0
 11
158.14231604528231
 21
230.67322209820551
 31
0.0
  0
LINE
  5
1293
  8
0
 10
158.14231604528231
 20
230.67322209820551
 30
0.0
 11
162.92443419323311
 21
230.67322209820551
 31
0.0
  0
LINE
  5
1294
  8
0
 10
152.01520653846711
 20
247.39229828276271
 30
0.0
 11
158.142316045283
 21
249.0340523270506
 31
0.0
  0
LINE
  5
1295
  8
2
 10
185.1997882694302
 20
249.0340523270506
 30
0.0
 11
185.1997882694302
 21
236.26130086350619
 31
0.0
  0
LINE
  5
1296
  8
0
 10
174.13826102577599
 20
247.39229828276271
 30
0.0
 11
174.13826102577599
 21
232.3149761424942
 31
0.0
  0
ARC
  5
1297
  8
0
 10
229.40368661417
 20
211.2328069430605
 30
0.0
 40
37.801245383990008
 50
89.999999999999844
 51
106.94818200316151
  0
ARC
  5
1298
  8
0
 10
229.40368661417
 20
268.47446748219562
 30
0.0
 40
37.801245383990008
 50
253.05181799683831
 51
270.00000000000011
  0
LINE
  5
1299
  8
2
 10
201.79207913491209
 20
249.0340523270506
 30
0.0
 11
201.79207913491209
 21
236.26130086350619
 31
0.0
  0
LINE
  5
129A
  8
2
 10
190.73055189125719
 20
249.0340523270506
 30
0.0
 11
190.73055189125719
 21
236.26130086350619
 31
0.0
  0
LINE
  5
129B
  8
0
 10
218.38437000039329
 20
247.39229828276271
 30
0.0
 11
218.38437000039329
 21
232.31497614249349
 31
0.0
  0
LINE
  5
129C
  8
2
 10
207.3228427567384
 20
249.0340523270506
 30
0.0
 11
207.3228427567384
 21
236.26130086350619
 31
0.0
  0
LINE
  5
129D
  8
0
 10
240.5074244877022
 20
247.39229828276271
 30
0.0
 11
240.5074244877022
 21
232.31497614249349
 31
0.0
  0
LINE
  5
129E
  8
0
 10
229.59819683293551
 20
230.67322209820551
 30
0.0
 11
234.38031498088699
 21
230.67322209820551
 31
0.0
  0
LINE
  5
129F
  8
0
 10
240.5074244877022
 20
232.31497614249349
 30
0.0
 11
234.38031498088699
 21
230.67322209820551
 31
0.0
  0
LINE
  5
12A0
  8
0
 10
240.5074244877022
 20
247.39229828276271
 30
0.0
 11
234.3803149808862
 21
249.0340523270506
 31
0.0
  0
LINE
  5
12A1
  8
2
 10
275.83555713096632
 20
213.04682507851419
 30
0.0
 11
275.83555713096632
 21
186.83713907532149
 31
0.0
  0
ARC
  5
12A2
  8
2
 10
486.92060236779457
 20
199.9419820769175
 30
0.0
 40
13.57104843001596
 50
90.0
 51
270.0
  0
ARC
  5
12A3
  8
0
 10
498.09675989839599
 20
199.9419820769175
 30
0.0
 40
13.57104843001596
 50
270.0
 51
90.0
  0
ARC
  5
12A4
  8
0
 10
268.58702067540491
 20
465.31541326443869
 30
0.0
 40
9.5795635976583284
 50
90.0
 51
173.68468443064239
  0
ARC
  5
12A5
  8
0
 10
268.58702067540491
 20
371.1163712207985
 30
0.0
 40
9.5795635976583284
 50
186.3153155693567
 51
270.0
  0
LINE
  5
12A6
  8
0
 10
151.3012303614081
 20
370.06261922505638
 30
0.0
 11
275.83555713096632
 21
370.06261922505638
 31
0.0
  0
LINE
  5
12A7
  8
0
 10
151.3012303614081
 20
466.36916526018098
 30
0.0
 11
275.83555713096632
 21
466.36916526018098
 31
0.0
  0
LINE
  5
12A8
  8
0
 10
257.4108631448035
 20
502.03707372212898
 30
0.0
 11
451.55203769167639
 21
502.03707372212898
 31
0.0
  0
LINE
  5
12A9
  8
0
 10
257.4108631448035
 20
334.39471076310832
 30
0.0
 11
451.55203769167639
 21
334.39471076310832
 31
0.0
  0
LINE
  5
12AB
  8
0
 10
218.38437000039329
 20
379.89763785198528
 30
0.0
 11
240.5074244877014
 21
418.21589224261868
 31
0.0
  0
LINE
  5
12AC
  8
0
 10
258.20916011127508
 20
370.06261922505638
 30
0.0
 11
258.20916011127508
 21
466.36916526018098
 31
0.0
  0
LINE
  5
12AD
  8
0
 10
152.01520653846711
 20
418.21589224261868
 30
0.0
 11
174.13826102577531
 21
379.89763785198528
 31
0.0
  0
LINE
  5
12AE
  8
0
 10
148.10804249552189
 20
463.17597739429488
 30
0.0
 11
148.10804249552189
 21
373.25580709094248
 31
0.0
  0
CIRCLE
  5
12AF
  8
0
 10
196.26131551308421
 20
418.21589224261868
 30
0.0
 40
38.126663118680149
  0
TEXT
  5
12B0
  8
3
 10
184.48605511621659
 20
398.75478376926668
 30
0.0
 40
4.0872804683342201
  1
TORQUE
  7
ROMANS
 72
     1
 11
196.26131551308421
 21
398.75478376926668
 31
0.0
  0
TEXT
  5
12B1
  8
3
 10
179.13366402673131
 20
392.19271047163431
 30
0.0
 40
4.0872804683342201
  1
1200 N m
  7
ROMANS
 72
     1
 11
196.26131551308421
 21
392.19271047163431
 31
0.0
  0
LINE
  5
12B2
  8
0
 10
174.13826102577531
 20
379.89763785198528
 30
0.0
 11
218.38437000039329
 21
379.89763785198528
 31
0.0
  0
LINE
  5
12B3
  8
0
 10
148.10804249552189
 20
373.25580709094248
 30
0.0
 11
151.3012303614081
 21
370.06261922505638
 31
0.0
  0
CIRCLE
  5
12B4
  8
3
 10
205.11371983440171
 20
394.13740926146011
 30
0.0
 40
0.9699681243437094
  0
LINE
  5
12B5
  8
3
 10
199.7691754501349
 20
385.79129285670382
 30
0.0
 11
199.7691754501349
 21
386.74924921646959
 31
0.0
  0
ARC
  5
12B6
  8
3
 10
194.9187230818539
 20
386.27027103658639
 30
0.0
 40
3.143693453964874
 50
90.0
 51
270.0
  0
ARC
  5
12B7
  8
3
 10
194.9187230818539
 20
386.27027103658639
 30
0.0
 40
2.1857370941990411
 50
90.0
 51
270.0
  0
ARC
  5
12B8
  8
3
 10
200.24815363001741
 20
386.27027103658639
 30
0.0
 40
3.143693453964874
 50
90.0
 51
270.0
  0
LINE
  5
12B9
  8
3
 10
194.9187230818539
 20
384.08453394238779
 30
0.0
 11
194.9187230818539
 21
383.12657758262208
 31
0.0
  0
ARC
  5
12BA
  8
3
 10
200.24815363001741
 20
386.27027103658639
 30
0.0
 40
2.1857370941990411
 50
192.6584119890106
 51
270.0
  0
LINE
  5
12BB
  8
3
 10
198.11554336366481
 20
385.79129285670382
 30
0.0
 11
199.7691754501349
 21
385.79129285670382
 31
0.0
  0
LINE
  5
12BC
  8
3
 10
200.24815363001741
 20
384.08453394238779
 30
0.0
 11
200.24815363001741
 21
383.12657758262208
 31
0.0
  0
LINE
  5
12BD
  8
3
 10
194.9187230818539
 20
388.45600813078562
 30
0.0
 11
194.9187230818539
 21
389.41396449055128
 31
0.0
  0
ARC
  5
12BE
  8
3
 10
200.24815363001741
 20
386.27027103658639
 30
0.0
 40
2.1857370941990411
 50
90.0
 51
167.34158801098931
  0
LINE
  5
12BF
  8
3
 10
198.11554336366481
 20
386.74924921646959
 30
0.0
 11
199.7691754501349
 21
386.74924921646959
 31
0.0
  0
LINE
  5
12C0
  8
3
 10
200.24815363001741
 20
388.45600813078562
 30
0.0
 11
200.24815363001741
 21
389.41396449055128
 31
0.0
  0
LINE
  5
12C1
  8
0
 10
231.86536021771471
 20
370.06261922505638
 30
0.0
 11
231.86536021771471
 21
359.94021369019708
 31
0.0
  0
ARC
  5
12C2
  8
0
 10
257.4108631448035
 20
359.94021369019708
 30
0.0
 40
25.545502927088879
 50
180.0
 51
270.0
  0
TEXT
  5
12C3
  8
3
 10
180.39877464788239
 20
445.0858659240194
 30
0.0
 40
4.0872804683342201
  1
10000 Kg
  7
ROMANS
 72
     1
 11
196.26131551308421
 21
445.0858659240194
 31
0.0
  0
LINE
  5
12C5
  8
0
 10
185.1997882694302
 20
418.21589224261868
 30
0.0
 11
190.73055189125719
 21
408.63632864496032
 31
0.0
  0
LINE
  5
12C6
  8
0
 10
190.73055189125719
 20
427.79545584027687
 30
0.0
 11
185.1997882694302
 21
418.21589224261868
 31
0.0
  0
TEXT
  5
12C7
  8
3
 10
179.03634782510429
 20
437.60498401889049
 30
0.0
 40
4.0872804683342201
  1
M48 X 5.0
  7
ROMANS
 72
     1
 11
196.26131551308421
 21
437.60498401889049
 31
0.0
  0
CIRCLE
  5
12C8
  8
0
 10
196.26131551308421
 20
418.21589224261868
 30
0.0
 40
11.17615753060138
  0
LINE
  5
12C9
  8
0
 10
218.38437000039329
 20
456.53414663325202
 30
0.0
 11
174.13826102577531
 21
456.53414663325202
 31
0.0
  0
LINE
  5
12CA
  8
0
 10
174.13826102577531
 20
456.53414663325202
 30
0.0
 11
152.01520653846711
 21
418.21589224261868
 31
0.0
  0
LINE
  5
12CB
  8
0
 10
148.10804249552189
 20
463.17597739429488
 30
0.0
 11
151.3012303614081
 21
466.36916526018098
 31
0.0
  0
ARC
  5
12CC
  8
0
 10
257.4108631448035
 20
476.4915707950401
 30
0.0
 40
25.545502927088879
 50
90.0
 51
180.0
  0
LINE
  5
12CD
  8
0
 10
240.5074244877014
 20
418.21589224261868
 30
0.0
 11
218.38437000039329
 21
456.53414663325202
 31
0.0
  0
LINE
  5
12CF
  8
0
 10
201.79207913491129
 20
408.63632864496032
 30
0.0
 11
207.3228427567384
 21
418.21589224261868
 31
0.0
  0
LINE
  5
12D0
  8
0
 10
207.3228427567384
 20
418.21589224261868
 30
0.0
 11
201.79207913491129
 21
427.79545584027687
 31
0.0
  0
LINE
  5
12D3
  8
0
 10
201.79207913491129
 20
427.79545584027687
 30
0.0
 11
190.73055189125719
 21
427.79545584027687
 31
0.0
  0
LINE
  5
12D4
  8
0
 10
190.73055189125719
 20
408.63632864496032
 30
0.0
 11
201.79207913491129
 21
408.63632864496032
 31
0.0
  0
LINE
  5
12D6
  8
0
 10
231.86536021771471
 20
476.4915707950401
 30
0.0
 11
231.86536021771471
 21
466.36916526018098
 31
0.0
  0
LINE
  5
12D7
  8
0
 10
268.58702067540491
 20
474.894976862097
 30
0.0
 11
433.9431371725654
 21
474.894976862097
 31
0.0
  0
LINE
  5
12D8
  8
0
 10
268.58702067540491
 20
361.53680762314031
 30
0.0
 11
433.9431371725654
 21
361.53680762314031
 31
0.0
  0
LINE
  5
12D9
  8
0
 10
275.83555713096632
 20
466.36916526018098
 30
0.0
 11
275.83555713096632
 21
370.06261922505638
 31
0.0
  0
TEXT
  5
12DA
  8
3
 10
483.12566696190311
 20
413.90074053979981
 30
0.0
 40
12.77275146354444
  1
E
 50
263.27660991578853
  7
ROMANS
 72
     1
 11
482.37797452949189
 21
407.5582843110281
 31
0.0
  0
ARC
  5
12DB
  8
0
 10
396.71304515651212
 20
418.21589224261868
 30
0.0
 40
114.9547631718999
 50
329.16950256821212
 51
30.830497431787879
  0
ARC
  5
12DC
  8
0
 10
396.71304515651212
 20
418.21589224261868
 30
0.0
 40
76.636508781266627
 50
326.38762540153391
 51
33.61237459846609
  0
ARC
  5
12DD
  8
0
 10
451.55203769167639
 20
385.48571661728602
 30
0.0
 40
51.091005854177752
 50
270.0
 51
329.16950256821201
  0
ARC
  5
12DE
  8
0
 10
433.9431371725654
 20
393.46868628200127
 30
0.0
 40
31.931878658861091
 50
270.0
 51
326.38762540153391
  0
TEXT
  5
12DF
  8
3
 10
479.1681354153896
 20
391.37098862000181
 30
0.0
 40
12.77275146354444
  1
S
 50
249.0654260881779
  7
ROMANS
 72
     1
 11
476.99493289105908
 21
385.6902220217217
 31
0.0
  0
TEXT
  5
12E0
  8
3
 10
481.96451308166758
 20
402.9536981374099
 30
0.0
 40
12.77275146354444
  1
N
 50
256.17101800198321
  7
ROMANS
 72
     1
 11
480.36532127532172
 21
396.4571431444046
 31
0.0
  0
ARC
  5
12E1
  8
0
 10
451.55203769167639
 20
450.94606786795129
 30
0.0
 40
51.091005854177752
 50
30.830497431787879
 51
90.0
  0
ARC
  5
12E2
  8
0
 10
433.9431371725654
 20
442.96309820323597
 30
0.0
 40
31.931878658861091
 50
33.61237459846609
 51
90.0
  0
TEXT
  5
12E3
  8
3
 10
481.35587529159568
 20
436.71208328178437
 30
0.0
 40
12.77275146354444
  1
R
 50
277.4877937433991
  7
ROMANS
 72
     1
 11
482.22774616346561
 21
430.07864658626897
 31
0.0
  0
TEXT
  5
12E4
  8
3
 10
482.9593766211978
 20
425.20936274861492
 30
0.0
 40
12.77275146354444
  1
G
 50
270.3822018295939
  7
ROMANS
 72
     1
 11
483.00197777624862
 21
418.82312910671311
 31
0.0
  0
TEXT
  5
12E5
  8
3
 10
478.45807591829958
 20
447.33228923484592
 30
0.0
 40
12.77275146354444
  1
E
 50
284.59338565720458
  7
ROMANS
 72
     1
 11
480.06717209003313
 21
441.15194907450831
 31
0.0
  0
TEXT
  5
12E6
  8
3
 10
474.97928531540731
 20
455.82883566126083
 30
0.0
 40
12.77275146354444
  1
J
 50
291.69897757100989
  7
ROMANS
 72
     1
 11
476.55344253552198
 21
451.87294776588919
 31
0.0
  0
LINE
  5
12E9
  8
1
 10
521.66780832841232
 20
199.9419820769175
 30
0.0
 11
221.86536021771471
 21
199.9419820769175
 31
0.0
  0
LINE
  5
12EA
  8
1
 10
245.4364086477307
 20
223.5130305069334
 30
0.0
 11
245.4364086477307
 21
176.37093364690151
 31
0.0
  0
LINE
  5
12EC
  8
1
 10
521.66780832841232
 20
418.21589224261868
 30
0.0
 11
138.10804249552189
 21
418.21589224261868
 31
0.0
  0
LINE
  5
12ED
  8
1
 10
396.71304515651212
 20
504.85240102388519
 30
0.0
 11
396.71304515651212
 21
331.57938346135211
 31
0.0
  0
TEXT
  5
13FC
  8
0
 62
     3
 10
0.0
 20
0.0
 30
0.0
 40
10.0
  1
HR48SP
  7
STANDARD1
  0
ENDSEC
  0
EOF
