  0
SECTION
  2
HEADER
  9
$ACADVER
  1
AC1009
  9
$INSBASE
 10
0.0
 20
0.0
 30
0.0
  9
$EXTMIN
 10
0.0
 20
-2.960436562073669
 30
0.0
  9
$EXTMAX
 10
237.04600065136279
 20
201.33120018889599
 30
0.0
  9
$LIMMIN
 10
0.0
 20
0.0
  9
$LIMMAX
 10
375.0
 20
270.0
  9
$ORTHOMODE
 70
     0
  9
$REGENMODE
 70
     1
  9
$FILLMODE
 70
     1
  9
$QTEXTMODE
 70
     0
  9
$MIRRTEXT
 70
     0
  9
$DRAGMODE
 70
     2
  9
$LTSCALE
 40
10.0
  9
$OSMODE
 70
    55
  9
$ATTMODE
 70
     1
  9
$TEXTSIZE
 40
0.2
  9
$TRACEWID
 40
0.05
  9
$TEXTSTYLE
  7
STANDARD
  9
$CLAYER
  8
0
  9
$CELTYPE
  6
BYLAYER
  9
$CECOLOR
 62
   256
  9
$DIMSCALE
 40
1.0
  9
$DIMASZ
 40
3.0
  9
$DIMEXO
 40
2.0
  9
$DIMDLI
 40
10.0
  9
$DIMRND
 40
0.0
  9
$DIMDLE
 40
0.0
  9
$DIMEXE
 40
2.0
  9
$DIMTP
 40
0.0
  9
$DIMTM
 40
0.0
  9
$DIMTXT
 40
3.2000000000000002
  9
$DIMCEN
 40
0.09
  9
$DIMTSZ
 40
0.0
  9
$DIMTOL
 70
     0
  9
$DIMLIM
 70
     0
  9
$DIMTIH
 70
     0
  9
$DIMTOH
 70
     0
  9
$DIMSE1
 70
     0
  9
$DIMSE2
 70
     0
  9
$DIMTAD
 70
     1
  9
$DIMZIN
 70
     0
  9
$DIMBLK
  1

  9
$DIMASO
 70
     0
  9
$DIMSHO
 70
     0
  9
$DIMPOST
  1

  9
$DIMAPOST
  1

  9
$DIMALT
 70
     0
  9
$DIMALTD
 70
     2
  9
$DIMALTF
 40
25.399999999999999
  9
$DIMLFAC
 40
1.0
  9
$DIMTOFL
 70
     1
  9
$DIMTVP
 40
1.6000000000000001
  9
$DIMTIX
 70
     0
  9
$DIMSOXD
 70
     0
  9
$DIMSAH
 70
     0
  9
$DIMBLK1
  1

  9
$DIMBLK2
  1

  9
$DIMSTYLE
  2
STANDARD
  9
$DIMCLRD
 70
     0
  9
$DIMCLRE
 70
     0
  9
$DIMCLRT
 70
     0
  9
$DIMTFAC
 40
1.0
  9
$DIMGAP
 40
0.09
  9
$LUNITS
 70
     2
  9
$LUPREC
 70
     4
  9
$SKETCHINC
 40
0.1
  9
$FILLETRAD
 40
0.0
  9
$AUNITS
 70
     0
  9
$AUPREC
 70
     0
  9
$MENU
  1
E:\r13\win\SUPPORT\ACAD
  9
$ELEVATION
 40
0.0
  9
$PELEVATION
 40
0.0
  9
$THICKNESS
 40
0.0
  9
$LIMCHECK
 70
     0
  9
$BLIPMODE
 70
     0
  9
$CHAMFERA
 40
0.0
  9
$CHAMFERB
 40
0.0
  9
$SKPOLY
 70
     0
  9
$TDCREATE
 40
2449840.6171180559
  9
$TDUPDATE
 40
2456598.688420278
  9
$TDINDWG
 40
0.0353398032
  9
$TDUSRTIMER
 40
0.0353398032
  9
$USRTIMER
 70
     1
  9
$ANGBASE
 50
0.0
  9
$ANGDIR
 70
     0
  9
$PDMODE
 70
     0
  9
$PDSIZE
 40
0.0
  9
$PLINEWID
 40
0.0
  9
$COORDS
 70
     1
  9
$SPLFRAME
 70
     0
  9
$SPLINETYPE
 70
     6
  9
$SPLINESEGS
 70
     8
  9
$ATTDIA
 70
     0
  9
$ATTREQ
 70
     1
  9
$HANDLING
 70
     1
  9
$HANDSEED
  5
CC9
  9
$SURFTAB1
 70
     6
  9
$SURFTAB2
 70
     6
  9
$SURFTYPE
 70
     6
  9
$SURFU
 70
     6
  9
$SURFV
 70
     6
  9
$UCSNAME
  2

  9
$UCSORG
 10
0.0
 20
0.0
 30
0.0
  9
$UCSXDIR
 10
1.0
 20
0.0
 30
0.0
  9
$UCSYDIR
 10
0.0
 20
1.0
 30
0.0
  9
$PUCSNAME
  2

  9
$PUCSORG
 10
0.0
 20
0.0
 30
0.0
  9
$PUCSXDIR
 10
1.0
 20
0.0
 30
0.0
  9
$PUCSYDIR
 10
0.0
 20
1.0
 30
0.0
  9
$USERI1
 70
     0
  9
$USERI2
 70
     1
  9
$USERI3
 70
     0
  9
$USERI4
 70
     0
  9
$USERI5
 70
     0
  9
$USERR1
 40
0.0
  9
$USERR2
 40
0.0
  9
$USERR3
 40
0.0
  9
$USERR4
 40
0.0
  9
$USERR5
 40
0.0
  9
$WORLDVIEW
 70
     1
  9
$SHADEDGE
 70
     3
  9
$SHADEDIF
 70
    70
  9
$TILEMODE
 70
     1
  9
$MAXACTVP
 70
    16
  9
$PLIMCHECK
 70
     0
  9
$PEXTMIN
 10
1.0000000000000000E+020
 20
1.0000000000000000E+020
 30
1.0000000000000000E+020
  9
$PEXTMAX
 10
-1.0000000000000000E+020
 20
-1.0000000000000000E+020
 30
-1.0000000000000000E+020
  9
$PLIMMIN
 10
0.0
 20
0.0
  9
$PLIMMAX
 10
12.0
 20
9.0
  9
$UNITMODE
 70
     0
  9
$VISRETAIN
 70
     0
  9
$PLINEGEN
 70
     0
  9
$PSLTSCALE
 70
     0
  0
ENDSEC
  0
SECTION
  2
TABLES
  0
TABLE
  2
VPORT
 70
     1
  0
VPORT
  2
*ACTIVE
 70
     0
 10
0.0
 20
0.0
 11
1.0
 21
1.0
 12
187.49427839065231
 22
174.91677254346851
 13
0.0
 23
0.0
 14
10.0
 24
10.0
 15
10.0
 25
10.0
 16
0.0
 26
0.0
 36
1.0
 17
0.0
 27
0.0
 37
0.0
 40
358.92027899574339
 41
1.7807262569832401
 42
50.0
 43
0.0
 44
0.0
 50
0.0
 51
0.0
 71
     0
 72
   100
 73
     1
 74
     0
 75
     0
 76
     0
 77
     0
 78
     0
  0
ENDTAB
  0
TABLE
  2
LTYPE
 70
     4
  0
LTYPE
  2
CONTINUOUS
 70
     0
  3
Solid Line
 72
    65
 73
     0
 40
0.0
  0
LTYPE
  2
CENTER
 70
     0
  3
____ _ ____ _ ____ _ ____ _ ____ _ ____ _ ____
 72
    65
 73
     4
 40
2.0
 49
1.25
 49
-0.25
 49
0.25
 49
-0.25
  0
LTYPE
  2
HIDDEN
 70
     0
  3
Hidden __ __ __ __ __ __ __ __ __ __ __ __ __ _
 72
    65
 73
     2
 40
0.375
 49
0.25
 49
-0.125
  0
LTYPE
  2
PHANTOM2
 70
     0
  3
___ _ _ ___ _ _ ___ _ _ ___ _ _
 72
    65
 73
     6
 40
1.25
 49
0.625
 49
-0.125
 49
0.125
 49
-0.125
 49
0.125
 49
-0.125
  0
ENDTAB
  0
TABLE
  2
LAYER
 70
     3
  0
LAYER
  2
0
 70
     0
 62
     7
  6
CONTINUOUS
  0
LAYER
  2
1
 70
     0
 62
     1
  6
CENTER
  0
LAYER
  2
2
 70
     0
 62
     2
  6
HIDDEN
  0
ENDTAB
  0
TABLE
  2
STYLE
 70
     2
  0
STYLE
  2
STANDARD
 70
     0
 40
0.0
 41
1.0
 50
0.0
 71
     0
 42
0.2
  3
TXT
  4
BIGFONT
  0
STYLE
  2
STANDARD1
 70
     0
 40
0.0
 41
1.0
 50
0.0
 71
     0
 42
3.0
  3
txt
  4

  0
ENDTAB
  0
TABLE
  2
VIEW
 70
     1
  0
VIEW
  2
ALL
 70
     0
 40
270.0
 10
220.99159700000001
 20
135.0
 41
0.0
 11
0.0
 21
0.0
 31
1.0
 12
0.0
 22
0.0
 32
0.0
 42
0.0
 43
0.0
 44
0.0
 50
0.0
 71
     0
  0
ENDTAB
  0
TABLE
  2
UCS
 70
     0
  0
ENDTAB
  0
TABLE
  2
APPID
 70
     6
  0
APPID
  2
ACAD
 70
     0
  0
APPID
  2
GENIUS_GENODEF_13
 70
     0
  0
APPID
  2
GENIUS_GENOREF_13
 70
     0
  0
APPID
  2
GENIUS_GENOBJ-N-CEN_13
 70
     0
  0
APPID
  2
ACAD_MLEADERVER
 70
     0
  0
APPID
  2
ACAD_NAV_VCDISPLAY
 70
     0
  0
ENDTAB
  0
TABLE
  2
DIMSTYLE
 70
     1
  0
DIMSTYLE
  2
STANDARD
 70
     0
  3

  4

  5

  6

  7

 40
1.0
 41
0.18
 42
0.0625
 43
0.38
 44
0.18
 45
0.0
 46
0.0
 47
0.0
 48
0.0
140
0.18
141
0.09
142
0.0
143
25.399999999999999
144
1.0
145
0.0
146
1.0
147
0.09
 71
     0
 72
     0
 73
     1
 74
     1
 75
     0
 76
     0
 77
     0
 78
     0
170
     0
171
     2
172
     0
173
     0
174
     0
175
     0
176
     0
177
     0
178
     0
  0
ENDTAB
  0
ENDSEC
  0
SECTION
  2
BLOCKS
  0
BLOCK
  8
0
  2
$MODEL_SPACE
 70
     0
 10
0.0
 20
0.0
 30
0.0
  3
$MODEL_SPACE
  1

  0
ENDBLK
  5
E8
  8
0
  0
BLOCK
 67
     1
  8
0
  2
$PAPER_SPACE
 70
     0
 10
0.0
 20
0.0
 30
0.0
  3
$PAPER_SPACE
  1

  0
ENDBLK
  5
E6
 67
     1
  8
0
  0
ENDSEC
  0
SECTION
  2
ENTITIES
  0
LINE
  5
AEF
  8
2
 10
211.5460006513627
 20
73.331200188896005
 30
0.0
 11
210.59900065136279
 21
74.97145230366371
 31
0.0
  0
LINE
  5
AF0
  8
2
 10
210.59900065136279
 20
76.331200188895963
 30
0.0
 11
205.54600065136239
 21
79.367348896842401
 31
0.0
  0
LINE
  5
AF1
  8
2
 10
199.54600065136259
 20
73.331200188896005
 30
0.0
 11
211.5460006513627
 21
73.331200188896005
 31
0.0
  0
LINE
  5
AF2
  8
2
 10
200.49300065136259
 20
76.33120018889602
 30
0.0
 11
210.59900065136279
 21
76.33120018889602
 31
0.0
  0
LINE
  5
AF3
  8
2
 10
200.49300065136239
 20
76.33120018889602
 30
0.0
 11
205.54600065136239
 21
79.367348896842401
 31
0.0
  0
LINE
  5
AF4
  8
2
 10
199.54600065136231
 20
73.331200188896005
 30
0.0
 11
200.49300065136231
 21
74.97145230366371
 31
0.0
  0
LINE
  5
AF5
  8
2
 10
199.54600065136259
 20
52.384200188896017
 30
0.0
 11
199.54600065136259
 21
73.331200188896005
 31
0.0
  0
LINE
  5
AF6
  8
2
 10
200.49300065136259
 20
53.331200188896013
 30
0.0
 11
200.49300065136259
 21
76.33120018889602
 31
0.0
  0
LINE
  5
AF7
  8
2
 10
198.49300065136251
 20
51.33120018889602
 30
0.0
 11
200.49300065136259
 21
53.331200188896013
 31
0.0
  0
LINE
  5
AF8
  8
2
 10
210.59900065136279
 20
53.331200188896013
 30
0.0
 11
210.59900065136279
 21
76.33120018889602
 31
0.0
  0
LINE
  5
AF9
  8
2
 10
211.5460006513627
 20
52.384200188896017
 30
0.0
 11
211.5460006513627
 21
73.331200188896005
 31
0.0
  0
LINE
  5
AFA
  8
2
 10
212.59900065136279
 20
51.33120018889602
 30
0.0
 11
210.59900065136259
 21
53.331200188896013
 31
0.0
  0
LINE
  5
AFB
  8
2
 10
210.59900065136259
 20
53.331200188896013
 30
0.0
 11
200.49300065136259
 21
53.331200188896013
 31
0.0
  0
LINE
  5
AFC
  8
2
 10
98.49300065136255
 20
51.33120018889602
 30
0.0
 11
100.49300065136261
 21
53.331200188896013
 31
0.0
  0
LINE
  5
AFD
  8
2
 10
110.5990006513626
 20
53.331200188896013
 30
0.0
 11
100.49300065136261
 21
53.331200188896013
 31
0.0
  0
LINE
  5
AFE
  8
2
 10
112.5990006513627
 20
51.33120018889602
 30
0.0
 11
110.5990006513626
 21
53.331200188896013
 31
0.0
  0
LINE
  5
AFF
  8
2
 10
99.546000651362306
 20
73.331200188896005
 30
0.0
 11
100.49300065136229
 21
74.97145230366371
 31
0.0
  0
LINE
  5
B00
  8
2
 10
111.5460006513626
 20
73.331200188896005
 30
0.0
 11
110.5990006513627
 21
74.97145230366371
 31
0.0
  0
LINE
  5
B01
  8
2
 10
110.5990006513627
 20
76.331200188895963
 30
0.0
 11
105.54600065136241
 21
79.367348896842401
 31
0.0
  0
LINE
  5
B02
  8
2
 10
100.49300065136239
 20
76.33120018889602
 30
0.0
 11
105.54600065136241
 21
79.367348896842401
 31
0.0
  0
LINE
  5
B03
  8
2
 10
100.49300065136261
 20
76.33120018889602
 30
0.0
 11
110.5990006513627
 21
76.33120018889602
 31
0.0
  0
LINE
  5
B04
  8
2
 10
99.546000651362647
 20
73.331200188896005
 30
0.0
 11
111.5460006513626
 21
73.331200188896005
 31
0.0
  0
LINE
  5
B05
  8
2
 10
111.5460006513626
 20
52.384200188896017
 30
0.0
 11
111.5460006513626
 21
73.331200188896005
 31
0.0
  0
LINE
  5
B06
  8
2
 10
110.5990006513627
 20
53.331200188896013
 30
0.0
 11
110.5990006513628
 21
76.33120018889602
 31
0.0
  0
LINE
  5
B07
  8
2
 10
100.49300065136261
 20
53.331200188896013
 30
0.0
 11
100.49300065136261
 21
76.33120018889602
 31
0.0
  0
LINE
  5
B08
  8
2
 10
99.546000651362647
 20
52.384200188896017
 30
0.0
 11
99.546000651362647
 21
73.331200188896005
 31
0.0
  0
LINE
  5
B09
  8
1
 10
105.5460006513626
 20
201.33120018889599
 30
0.0
 11
105.5460006513626
 21
128.33120018889599
 31
0.0
1001
GENIUS_GENOREF_13
1005
0
  0
LINE
  5
B0A
  8
1
 10
69.046000651362647
 20
164.83120018889599
 30
0.0
 11
142.04600065136259
 21
164.83120018889599
 31
0.0
1001
GENIUS_GENOREF_13
1005
0
  0
ARC
  5
B0B
  8
0
 10
105.5460006513626
 20
191.33120018889599
 30
0.0
 40
5.0
 50
36.903977762552493
 51
143.0960222374475
  0
ARC
  5
B0C
  8
0
 10
84.827466368431715
 20
181.3536799412519
 30
0.0
 40
5.0
 50
88.332549182549741
 51
194.52459365744849
  0
ARC
  5
B0D
  8
0
 10
79.71041097677994
 20
158.93439544678361
 30
0.0
 40
5.0
 50
139.7611206025521
 51
245.95316507744641
  0
ARC
  5
B0E
  8
0
 10
94.048081554032024
 20
140.95552519464209
 30
0.0
 40
5.0
 50
191.18969202255141
 51
297.38173655971258
  0
ARC
  5
B0F
  8
0
 10
85.554926342518911
 20
206.3430937396206
 30
0.0
 40
20.0
 50
268.33254918255301
 51
323.09602223744878
  0
ARC
  5
B10
  8
0
 10
60.626464418314299
 20
175.08379121732631
 30
0.0
 40
20.0
 50
319.76112060255082
 51
14.52459365744855
  0
ARC
  5
B11
  8
0
 10
69.523329458639409
 20
136.10407853827871
 30
0.0
 40
20.0
 50
11.18969202255146
 51
65.953165077450024
  0
ARC
  5
B12
  8
0
 10
105.5460006513626
 20
118.756474394411
 30
0.0
 40
20.0
 50
62.618263440287393
 51
117.38173655971261
  0
ARC
  5
B13
  8
0
 10
141.5686718440858
 20
136.10407853827871
 30
0.0
 40
20.0
 50
114.04683492255
 51
168.8103079774485
  0
ARC
  5
B14
  8
0
 10
150.46553688441099
 20
175.08379121732631
 30
0.0
 40
20.0
 50
165.47540634255139
 51
220.2388793974491
  0
ARC
  5
B15
  8
0
 10
117.0439197486933
 20
140.95552519464209
 30
0.0
 40
5.0
 50
242.61826344028739
 51
348.81030797744847
  0
ARC
  5
B16
  8
0
 10
131.3815903259453
 20
158.93439544678361
 30
0.0
 40
5.0
 50
294.04683492255361
 51
40.238879397447938
  0
ARC
  5
B17
  8
0
 10
126.26453493429349
 20
181.3536799412519
 30
0.0
 40
5.0
 50
345.47540634255142
 51
91.667450817450245
  0
ARC
  5
B18
  8
0
 10
125.5370749602064
 20
206.3430937396206
 30
0.0
 40
20.0
 50
216.90397776255119
 51
271.66745081744699
  0
LINE
  5
B19
  8
1
  6
CENTER
 62
     1
 10
105.5460006513626
 20
98.331200188896005
 30
0.0
 11
105.5460006513626
 21
46.331200188896013
 31
0.0
  0
LINE
  5
B1A
  8
0
  6
CONTINUOUS
 62
     7
 10
79.71041097677994
 20
72.331200188895991
 30
0.0
 11
131.38159032594541
 21
72.331200188895991
 31
0.0
  0
LINE
  5
B1B
  8
0
  6
CONTINUOUS
 62
     7
 10
95.546000651362647
 20
51.33120018889602
 30
0.0
 11
115.5460006513626
 21
51.33120018889602
 31
0.0
  0
LINE
  5
B1C
  8
0
  6
CONTINUOUS
 62
     7
 10
95.546000651362647
 20
70.231200188896025
 30
0.0
 11
95.546000651362647
 21
51.33120018889602
 31
0.0
  0
LINE
  5
B1D
  8
0
  6
CONTINUOUS
 62
     7
 10
115.5460006513626
 20
51.33120018889602
 30
0.0
 11
115.5460006513626
 21
70.231200188896025
 31
0.0
  0
ARC
  5
B1E
  8
0
  6
CONTINUOUS
 62
     7
 10
117.6460006513627
 20
70.231200188896025
 30
0.0
 40
2.1000000000000032
 50
90.000009199392807
 51
180.0
  0
ARC
  5
B1F
  8
0
  6
CONTINUOUS
 62
     7
 10
93.446000651362624
 20
70.231200188896025
 30
0.0
 40
2.0999999999999961
 50
0.0
 51
90.0
  0
ARC
  5
B20
  8
0
 10
105.5460006513626
 20
-26.66879981110398
 30
0.0
 40
120.0
 50
77.822882633287932
 51
102.177117366712
  0
LINE
  5
B21
  8
0
 10
74.71041097677994
 20
83.788724445349104
 30
0.0
 11
74.71041097677994
 21
77.331200188895991
 31
0.0
  0
LINE
  5
B22
  8
0
 10
136.3815903259453
 20
83.788724445349146
 30
0.0
 11
136.3815903259455
 21
77.331200188895991
 31
0.0
  0
ARC
  5
B23
  8
0
 10
81.71041097677994
 20
83.788724445349104
 30
0.0
 40
7.0
 50
102.177117366712
 51
180.0
  0
ARC
  5
B24
  8
0
 10
129.3815903259453
 20
83.788724445349146
 30
0.0
 40
7.0
 50
0.0
 51
77.822882633287932
  0
ARC
  5
B25
  8
0
 10
79.71041097677994
 20
77.331200188895991
 30
0.0
 40
5.0
 50
180.0
 51
270.0
  0
ARC
  5
B26
  8
0
 10
131.38159032594541
 20
77.331200188895991
 30
0.0
 40
5.0
 50
270.0
 51
0.0
  0
LINE
  5
B27
  8
0
 10
119.21333844385521
 20
88.185553605491208
 30
0.0
 11
119.21333844385509
 21
73.795666282963253
 31
0.0
  0
LINE
  5
B28
  8
0
 10
91.878662858870143
 20
88.185553605491208
 30
0.0
 11
91.878662858870143
 21
73.795666282963282
 31
0.0
  0
ARC
  5
B29
  8
0
 10
105.5460006513626
 20
51.219275255884611
 30
0.0
 40
39.411950692076687
 50
69.709413116242672
 51
110.2905868837573
  0
ARC
  5
B2A
  8
0
 10
105.5460006513627
 20
136.8396186631048
 30
0.0
 40
64.508418474208852
 50
257.76809371228052
 51
282.23190628771948
  0
ARC
  5
B2B
  8
0
 10
127.7347841655213
 20
75.227185419816863
 30
0.0
 40
15.509169649687941
 50
70.733313025879795
 51
123.32899020962989
  0
ARC
  5
B2C
  8
0
 10
127.7347841655213
 20
96.746179746151995
 30
0.0
 40
24.481444103878189
 50
249.63021393852819
 51
265.77708401039882
  0
ARC
  5
B2D
  8
0
 10
127.7347841655213
 20
96.746179746151995
 30
0.0
 40
24.481444103878189
 50
274.22291598960118
 51
284.8852669947758
  0
ARC
  5
B2E
  8
0
 10
83.357217137203975
 20
75.227185419816863
 30
0.0
 40
15.509169649687941
 50
56.6710097903701
 51
109.2666869741202
  0
ARC
  5
B2F
  8
0
 10
83.357217137203975
 20
96.746179746151995
 30
0.0
 40
24.481444103878189
 50
274.22291598960118
 51
290.36978606147193
  0
ARC
  5
B30
  8
0
 10
83.357217137203975
 20
96.746179746151995
 30
0.0
 40
24.481444103878189
 50
255.11473300522411
 51
265.77708401039882
  0
ARC
  5
B31
  8
0
 10
232.04600065136279
 20
77.331200188895991
 30
0.0
 40
5.0
 50
270.0
 51
0.0
  0
ARC
  5
B32
  8
0
 10
181.6703256571088
 20
77.331200188895991
 30
0.0
 40
5.0
 50
180.0
 51
270.0
  0
LINE
  5
B33
  8
0
 10
237.04600065136279
 20
83.643257553447214
 30
0.0
 11
237.04600065136279
 21
77.331200188895991
 31
0.0
  0
LINE
  5
B34
  8
0
 10
176.6703256571088
 20
84.193524012392416
 30
0.0
 11
176.6703256571088
 21
77.331200188895991
 31
0.0
  0
ARC
  5
B35
  8
0
 10
205.5460006513627
 20
-26.66879981110398
 30
0.0
 40
120.0
 50
77.47801816144613
 51
101.16236966045631
  0
ARC
  5
B36
  8
0
  6
CONTINUOUS
 62
     7
 10
193.4460006513626
 20
70.231200188896025
 30
0.0
 40
2.0999999999999961
 50
0.0
 51
90.0
  0
ARC
  5
B37
  8
0
  6
CONTINUOUS
 62
     7
 10
217.6460006513627
 20
70.231200188896025
 30
0.0
 40
2.1000000000000032
 50
90.000009199392807
 51
180.0
  0
LINE
  5
B38
  8
0
  6
CONTINUOUS
 62
     7
 10
215.5460006513627
 20
51.33120018889602
 30
0.0
 11
215.5460006513627
 21
70.231200188896025
 31
0.0
  0
LINE
  5
B39
  8
0
  6
CONTINUOUS
 62
     7
 10
195.54600065136259
 20
70.231200188896025
 30
0.0
 11
195.54600065136259
 21
51.33120018889602
 31
0.0
  0
LINE
  5
B3A
  8
0
  6
CONTINUOUS
 62
     7
 10
195.54600065136259
 20
51.33120018889602
 30
0.0
 11
215.5460006513627
 21
51.33120018889602
 31
0.0
  0
LINE
  5
B3B
  8
0
  6
CONTINUOUS
 62
     7
 10
181.6703256571088
 20
72.33120018889602
 30
0.0
 11
232.04600065136279
 21
72.331200188895991
 31
0.0
  0
LINE
  5
B3C
  8
1
  6
CENTER
 62
     1
 10
205.5460006513627
 20
98.331200188896005
 30
0.0
 11
205.5460006513627
 21
46.331200188896013
 31
0.0
  0
ARC
  5
B3D
  8
0
 10
230.0460006513627
 20
83.643257553447086
 30
0.0
 40
7.0
 50
0.0
 51
77.47801816144613
  0
ARC
  5
B3E
  8
0
 10
183.6703256571088
 20
84.193524012392416
 30
0.0
 40
7.0
 50
101.16236966045631
 51
180.0
  0
LINE
  5
B3F
  8
0
 10
225.18592941359719
 20
88.185553605491123
 30
0.0
 11
225.18592941359719
 21
73.795666282963154
 31
0.0
  0
LINE
  5
B40
  8
0
 10
198.53659124092709
 20
88.185553605491123
 30
0.0
 11
198.53659124092709
 21
73.795666282963154
 31
0.0
  0
ARC
  5
B41
  8
0
 10
231.11596503247969
 20
84.218984477229412
 30
0.0
 40
11.99211760366525
 50
240.3635805661024
 51
262.43660873946692
  0
ARC
  5
B42
  8
0
 10
231.11596503247969
 20
83.101426467056456
 30
0.0
 40
7.811124835834077
 50
98.616051611049514
 51
139.39180244935261
  0
ARC
  5
B43
  8
0
 10
211.8612603272623
 20
53.164052264190502
 30
0.0
 40
37.470686709200471
 50
69.169626557705371
 51
110.8303734422946
  0
ARC
  5
B44
  8
0
 10
211.8612603272623
 20
133.5918225135427
 30
0.0
 40
61.262770964201493
 50
257.43774601432699
 51
282.56225398567301
  0
ARC
  5
B45
  8
0
 10
187.85103627915939
 20
66.487437180140546
 30
0.0
 40
24.186552901334011
 50
63.781384561407073
 51
113.1747085177515
  0
ARC
  5
B46
  8
0
 10
187.85103627915939
 20
111.3416426500244
 30
0.0
 40
39.036923882356319
 50
256.20342205437231
 51
267.88945296529198
  0
ARC
  5
B47
  8
0
 10
187.85103627915939
 20
111.3416426500244
 30
0.0
 40
39.036923882356319
 50
272.11054703470802
 51
285.88631085330491
  0
TEXT
  5
C32
  8
0
 62
     3
 10
0.0
 20
0.0
 30
0.0
 40
10.0
  1
HK63NT-SUS
  7
STANDARD1
  0
ENDSEC
  0
EOF
