  0
SECTION
  2
HEADER
  9
$ACADVER
  1
AC1009
  9
$INSBASE
 10
0.0
 20
0.0
 30
0.0
  9
$EXTMIN
 10
0.0
 20
-2.960436562073669
 30
0.0
  9
$EXTMAX
 10
269.39950013481263
 20
215.64359502274911
 30
0.0
  9
$LIMMIN
 10
0.0
 20
0.0
  9
$LIMMAX
 10
385.0
 20
270.0
  9
$ORTHOMODE
 70
     1
  9
$REGENMODE
 70
     1
  9
$FILLMODE
 70
     1
  9
$QTEXTMODE
 70
     0
  9
$MIRRTEXT
 70
     0
  9
$DRAGMODE
 70
     2
  9
$LTSCALE
 40
10.0
  9
$OSMODE
 70
    55
  9
$ATTMODE
 70
     1
  9
$TEXTSIZE
 40
3.0
  9
$TRACEWID
 40
0.05
  9
$TEXTSTYLE
  7
STANDARD
  9
$CLAYER
  8
0
  9
$CELTYPE
  6
BYLAYER
  9
$CECOLOR
 62
   256
  9
$DIMSCALE
 40
1.0
  9
$DIMASZ
 40
3.0
  9
$DIMEXO
 40
2.0
  9
$DIMDLI
 40
10.0
  9
$DIMRND
 40
0.0
  9
$DIMDLE
 40
0.0
  9
$DIMEXE
 40
2.0
  9
$DIMTP
 40
0.0
  9
$DIMTM
 40
0.0
  9
$DIMTXT
 40
3.0
  9
$DIMCEN
 40
0.0
  9
$DIMTSZ
 40
0.0
  9
$DIMTOL
 70
     0
  9
$DIMLIM
 70
     0
  9
$DIMTIH
 70
     0
  9
$DIMTOH
 70
     0
  9
$DIMSE1
 70
     0
  9
$DIMSE2
 70
     0
  9
$DIMTAD
 70
     1
  9
$DIMZIN
 70
     0
  9
$DIMBLK
  1

  9
$DIMASO
 70
     0
  9
$DIMSHO
 70
     0
  9
$DIMPOST
  1

  9
$DIMAPOST
  1

  9
$DIMALT
 70
     0
  9
$DIMALTD
 70
     2
  9
$DIMALTF
 40
25.399999999999999
  9
$DIMLFAC
 40
1.0
  9
$DIMTOFL
 70
     1
  9
$DIMTVP
 40
1.6000000000000001
  9
$DIMTIX
 70
     1
  9
$DIMSOXD
 70
     0
  9
$DIMSAH
 70
     0
  9
$DIMBLK1
  1

  9
$DIMBLK2
  1

  9
$DIMSTYLE
  2
STANDARD
  9
$DIMCLRD
 70
     0
  9
$DIMCLRE
 70
     0
  9
$DIMCLRT
 70
     0
  9
$DIMTFAC
 40
1.0
  9
$DIMGAP
 40
2.0
  9
$LUNITS
 70
     2
  9
$LUPREC
 70
     2
  9
$SKETCHINC
 40
0.1
  9
$FILLETRAD
 40
0.5
  9
$AUNITS
 70
     0
  9
$AUPREC
 70
     2
  9
$MENU
  1
E:\r13\win\SUPPORT\ACAD
  9
$ELEVATION
 40
0.0
  9
$PELEVATION
 40
0.0
  9
$THICKNESS
 40
0.0
  9
$LIMCHECK
 70
     0
  9
$BLIPMODE
 70
     0
  9
$CHAMFERA
 40
1.0
  9
$CHAMFERB
 40
1.0
  9
$SKPOLY
 70
     0
  9
$TDCREATE
 40
2450281.4795299768
  9
$TDUPDATE
 40
2456598.6876700688
  9
$TDINDWG
 40
0.208082338
  9
$TDUSRTIMER
 40
0.208082338
  9
$USRTIMER
 70
     1
  9
$ANGBASE
 50
0.0
  9
$ANGDIR
 70
     0
  9
$PDMODE
 70
     0
  9
$PDSIZE
 40
0.0
  9
$PLINEWID
 40
0.0
  9
$COORDS
 70
     1
  9
$SPLFRAME
 70
     0
  9
$SPLINETYPE
 70
     6
  9
$SPLINESEGS
 70
     8
  9
$ATTDIA
 70
     0
  9
$ATTREQ
 70
     1
  9
$HANDLING
 70
     1
  9
$HANDSEED
  5
273
  9
$SURFTAB1
 70
     6
  9
$SURFTAB2
 70
     6
  9
$SURFTYPE
 70
     6
  9
$SURFU
 70
     6
  9
$SURFV
 70
     6
  9
$UCSNAME
  2

  9
$UCSORG
 10
0.0
 20
0.0
 30
0.0
  9
$UCSXDIR
 10
1.0
 20
0.0
 30
0.0
  9
$UCSYDIR
 10
0.0
 20
1.0
 30
0.0
  9
$PUCSNAME
  2

  9
$PUCSORG
 10
0.0
 20
0.0
 30
0.0
  9
$PUCSXDIR
 10
1.0
 20
0.0
 30
0.0
  9
$PUCSYDIR
 10
0.0
 20
1.0
 30
0.0
  9
$USERI1
 70
     3
  9
$USERI2
 70
     1
  9
$USERI3
 70
     0
  9
$USERI4
 70
     1
  9
$USERI5
 70
     0
  9
$USERR1
 40
1.0
  9
$USERR2
 40
3.0
  9
$USERR3
 40
3.0
  9
$USERR4
 40
3.0
  9
$USERR5
 40
10.0
  9
$WORLDVIEW
 70
     1
  9
$SHADEDGE
 70
     3
  9
$SHADEDIF
 70
    70
  9
$TILEMODE
 70
     1
  9
$MAXACTVP
 70
    16
  9
$PLIMCHECK
 70
     0
  9
$PEXTMIN
 10
1.0000000000000000E+020
 20
1.0000000000000000E+020
 30
1.0000000000000000E+020
  9
$PEXTMAX
 10
-1.0000000000000000E+020
 20
-1.0000000000000000E+020
 30
-1.0000000000000000E+020
  9
$PLIMMIN
 10
0.0
 20
0.0
  9
$PLIMMAX
 10
12.0
 20
9.0
  9
$UNITMODE
 70
     0
  9
$VISRETAIN
 70
     0
  9
$PLINEGEN
 70
     0
  9
$PSLTSCALE
 70
     0
  0
ENDSEC
  0
SECTION
  2
TABLES
  0
TABLE
  2
VPORT
 70
     1
  0
VPORT
  2
*ACTIVE
 70
     0
 10
0.0
 20
0.0
 11
1.0
 21
1.0
 12
192.49412581440311
 22
174.91677254346851
 13
0.0
 23
0.0
 14
5.0
 24
5.0
 15
10.0
 25
10.0
 16
0.0
 26
0.0
 36
1.0
 17
0.0
 27
0.0
 37
0.0
 40
358.92027899574339
 41
1.7807262569832401
 42
50.0
 43
0.0
 44
0.0
 50
0.0
 51
0.0
 71
     0
 72
  1000
 73
     1
 74
     0
 75
     0
 76
     0
 77
     0
 78
     1
  0
ENDTAB
  0
TABLE
  2
LTYPE
 70
     4
  0
LTYPE
  2
CONTINUOUS
 70
     0
  3
Solid Line
 72
    65
 73
     0
 40
0.0
  0
LTYPE
  2
CENTER
 70
     0
  3
____ _ ____ _ ____ _ ____ _ ____ _ ____ _ ____
 72
    65
 73
     4
 40
2.0
 49
1.25
 49
-0.25
 49
0.25
 49
-0.25
  0
LTYPE
  2
HIDDEN
 70
     0
  3
_ _ _ _ _ _ _ _ _ _ _ _ _ _ _ _ _ _ _ _ _ _ _
 72
    65
 73
     2
 40
0.375
 49
0.25
 49
-0.125
  0
LTYPE
  2
PHANTOM2
 70
     0
  3
___ _ _ ___ _ _ ___ _ _ ___ _ _
 72
    65
 73
     6
 40
1.25
 49
0.625
 49
-0.125
 49
0.125
 49
-0.125
 49
0.125
 49
-0.125
  0
ENDTAB
  0
TABLE
  2
LAYER
 70
     1
  0
LAYER
  2
0
 70
     0
 62
     7
  6
CONTINUOUS
  0
ENDTAB
  0
TABLE
  2
STYLE
 70
     2
  0
STYLE
  2
STANDARD
 70
     0
 40
0.0
 41
1.0
 50
0.0
 71
     0
 42
3.0
  3
simplex
  4
bigfont
  0
STYLE
  2
STANDARD1
 70
     0
 40
0.0
 41
1.0
 50
0.0
 71
     0
 42
3.0
  3
txt
  4

  0
ENDTAB
  0
TABLE
  2
VIEW
 70
     0
  0
ENDTAB
  0
TABLE
  2
UCS
 70
     0
  0
ENDTAB
  0
TABLE
  2
APPID
 70
     3
  0
APPID
  2
ACAD
 70
     0
  0
APPID
  2
ACAD_MLEADERVER
 70
     0
  0
APPID
  2
ACAD_NAV_VCDISPLAY
 70
     0
  0
ENDTAB
  0
TABLE
  2
DIMSTYLE
 70
     1
  0
DIMSTYLE
  2
STANDARD
 70
     0
  3

  4

  5

  6

  7

 40
1.0
 41
0.18
 42
0.0625
 43
0.38
 44
0.18
 45
0.0
 46
0.0
 47
0.0
 48
0.0
140
0.18
141
0.09
142
0.0
143
25.399999999999999
144
1.0
145
0.0
146
1.0
147
0.09
 71
     0
 72
     0
 73
     1
 74
     1
 75
     0
 76
     0
 77
     0
 78
     0
170
     0
171
     2
172
     0
173
     0
174
     0
175
     0
176
     0
177
     0
178
     0
  0
ENDTAB
  0
ENDSEC
  0
SECTION
  2
BLOCKS
  0
BLOCK
  8
0
  2
$MODEL_SPACE
 70
     0
 10
0.0
 20
0.0
 30
0.0
  3
$MODEL_SPACE
  1

  0
ENDBLK
  5
136
  8
0
  0
BLOCK
 67
     1
  8
0
  2
$PAPER_SPACE
 70
     0
 10
0.0
 20
0.0
 30
0.0
  3
$PAPER_SPACE
  1

  0
ENDBLK
  5
134
 67
     1
  8
0
  0
ENDSEC
  0
SECTION
  2
ENTITIES
  0
LINE
  5
1D
  8
0
  6
CONTINUOUS
 62
     7
 10
183.3982746946017
 20
193.143595022749
 30
0.0
 11
193.89827469460181
 21
193.143595022749
 31
0.0
  0
LINE
  5
1E
  8
0
  6
CONTINUOUS
 62
     7
 10
184.3982746946017
 20
206.143595022749
 30
0.0
 11
193.8982746946017
 21
206.143595022749
 31
0.0
  0
LINE
  5
1F
  8
0
  6
CENTER
 62
     1
 10
167.3982746946017
 20
199.643595022749
 30
0.0
 11
199.39827469460181
 21
199.64359502274911
 31
0.0
  0
LINE
  5
22
  8
0
  6
CONTINUOUS
 62
     7
 10
183.3982746946017
 20
86.856404977251003
 30
0.0
 11
193.89827469460181
 21
86.856404977251003
 31
0.0
  0
LINE
  5
23
  8
0
  6
CONTINUOUS
 62
     7
 10
184.3982746946017
 20
73.856404977251003
 30
0.0
 11
193.8982746946017
 21
73.856404977251003
 31
0.0
  0
LINE
  5
24
  8
0
  6
CENTER
 62
     1
 10
167.3982746946017
 20
80.356404977251003
 30
0.0
 11
199.39827469460181
 21
80.356404977250918
 31
0.0
  0
LINE
  5
25
  8
0
  6
CENTER
 62
     1
 10
167.3982746946017
 20
140.00000000000011
 30
0.0
 11
199.39827469460181
 21
140.0
 31
0.0
  0
LINE
  5
26
  8
0
  6
CONTINUOUS
 62
     7
 10
183.3982746946017
 20
146.50000000000011
 30
0.0
 11
193.89827469460181
 21
146.50000000000011
 31
0.0
  0
LINE
  5
27
  8
0
  6
CONTINUOUS
 62
     7
 10
184.3982746946017
 20
133.50000000000011
 30
0.0
 11
193.8982746946017
 21
133.50000000000011
 31
0.0
  0
LINE
  5
28
  8
0
  6
CENTER
 62
     1
 10
118.39704925439079
 20
161.00000000000011
 30
0.0
 11
118.39704925439079
 21
119.0
 31
0.0
  0
LINE
  5
29
  8
0
  6
HIDDEN
 62
     2
 10
173.3982746946017
 20
146.5
 30
0.0
 11
173.3982746946017
 21
133.50000000000011
 31
0.0
  0
LINE
  5
2C
  8
0
  6
CONTINUOUS
 62
     7
 10
172.3982746946017
 20
147.50000000000011
 30
0.0
 11
172.3982746946017
 21
132.5
 31
0.0
  0
CIRCLE
  5
2D
  8
0
  6
CONTINUOUS
 62
     7
 10
118.39704925439079
 20
140.00000000000011
 30
0.0
 40
7.5
  0
ARC
  5
2E
  8
0
  6
CONTINUOUS
 62
     7
 10
178.62039427001989
 20
140.00000000000011
 30
0.0
 40
4.4948347107437501
 50
180.00000000000011
 51
263.67951736675661
  0
ARC
  5
2F
  8
0
  6
CONTINUOUS
 62
     7
 10
118.39704925439079
 20
140.0
 30
0.0
 40
16.000000000000011
 50
316.21363349597482
 51
343.7863665040253
  0
ARC
  5
30
  8
0
  6
CONTINUOUS
 62
     7
 10
118.39704925439079
 20
140.00000000000011
 30
0.0
 40
16.000000000000011
 50
196.2136334959749
 51
223.7863665040253
  0
LINE
  5
31
  8
0
  6
CONTINUOUS
 62
     7
 10
183.3982746946017
 20
125.0
 30
0.0
 11
183.39827469460181
 21
155.00000000000011
 31
0.0
  0
ARC
  5
32
  8
0
  6
CONTINUOUS
 62
     7
 10
118.39704925439079
 20
140.0
 30
0.0
 40
16.000000000000011
 50
256.21363349597488
 51
283.7863665040253
  0
ARC
  5
33
  8
0
  6
CONTINUOUS
 62
     7
 10
107.39704925439079
 20
120.9474411167423
 30
0.0
 40
8.0
 50
26.052073472966921
 51
93.947926527025302
  0
ARC
  5
34
  8
0
  6
CONTINUOUS
 62
     7
 10
129.39704925439091
 20
120.9474411167423
 30
0.0
 40
8.0
 50
86.052073472966924
 51
153.9479265270252
  0
LINE
  5
35
  8
0
  6
CONTINUOUS
 62
     7
 10
183.3982746946017
 20
65.356404977250975
 30
0.0
 11
183.39827469460181
 21
95.356404977251017
 31
0.0
  0
ARC
  5
36
  8
0
  6
CONTINUOUS
 62
     7
 10
178.1255595592761
 20
91.356404977251046
 30
0.0
 40
5.0
 50
89.999999999999844
 51
167.0271218492494
  0
ARC
  5
37
  8
0
  6
CONTINUOUS
 62
     7
 10
177.9385760882023
 20
72.674586795433115
 30
0.0
 40
3.8734959768818449
 50
87.233112169240783
 51
272.76688783075872
  0
ARC
  5
38
  8
0
  6
CONTINUOUS
 62
     7
 10
225.8749051045294
 20
80.356404977251003
 30
0.0
 40
54.0
 50
187.98355614555541
 51
192.9728781507506
  0
ARC
  5
39
  8
0
  6
CONTINUOUS
 62
     7
 10
177.9385760882023
 20
61.123788352039213
 30
0.0
 40
3.8734959768818449
 50
87.233112169240783
 51
113.70422162925141
  0
ARC
  5
3A
  8
0
  6
CONTINUOUS
 62
     7
 10
178.1255595592761
 20
69.356404977250975
 30
0.0
 40
5.0
 50
192.97287815075049
 51
270.00000000000023
  0
LINE
  5
3B
  8
0
  6
CONTINUOUS
 62
     7
 10
177.7515926171146
 20
64.992768613614572
 30
0.0
 11
182.3982746946017
 21
64.992768613614572
 31
0.0
  0
LINE
  5
3C
  8
0
  6
CONTINUOUS
 62
     7
 10
178.1255595592761
 20
64.356404977250918
 30
0.0
 11
182.3982746946017
 21
64.356404977250918
 31
0.0
  0
ARC
  5
3D
  8
0
  6
CONTINUOUS
 62
     7
 10
182.3982746946017
 20
65.356404977250975
 30
0.0
 40
1.0
 50
270.0
 51
0.0
  0
LINE
  5
3E
  8
0
  6
CONTINUOUS
 62
     7
 10
177.7515926171279
 20
68.805606533857102
 30
0.0
 11
182.3982746946017
 21
68.805606533857087
 31
0.0
  0
ARC
  5
3F
  8
0
  6
CONTINUOUS
 62
     7
 10
177.9385760882023
 20
88.038223159068835
 30
0.0
 40
3.8734959768818449
 50
87.233112169241295
 51
272.76688783075917
  0
LINE
  5
40
  8
0
  6
CONTINUOUS
 62
     7
 10
172.3982746946017
 20
87.856404977251003
 30
0.0
 11
172.3982746946017
 21
72.856404977250975
 31
0.0
  0
LINE
  5
41
  8
0
  6
HIDDEN
 62
     2
 10
173.3982746946017
 20
86.856404977250946
 30
0.0
 11
173.3982746946017
 21
73.856404977251032
 31
0.0
  0
LINE
  5
42
  8
0
  6
HIDDEN
 62
     2
 10
172.3982746946017
 20
72.856404977251032
 30
0.0
 11
173.3982746946017
 21
73.856404977251003
 31
0.0
  0
LINE
  5
43
  8
0
  6
HIDDEN
 62
     2
 10
172.3982746946017
 20
87.856404977250918
 30
0.0
 11
173.3982746946017
 21
86.856404977250946
 31
0.0
  0
LINE
  5
44
  8
0
  6
HIDDEN
 62
     2
 10
172.3982746946017
 20
87.856404977251003
 30
0.0
 11
172.3982746946017
 21
87.856404977251003
 31
0.0
  0
LINE
  5
45
  8
0
  6
HIDDEN
 62
     2
 10
172.3982746946017
 20
87.856404977250918
 30
0.0
 11
172.3982746946017
 21
87.856404977250918
 31
0.0
  0
ARC
  5
46
  8
0
  6
CONTINUOUS
 62
     7
 10
225.8749051045294
 20
80.356404977251003
 30
0.0
 40
54.0
 50
167.02712184924931
 51
172.0164438544445
  0
LINE
  5
47
  8
0
  6
CONTINUOUS
 62
     7
 10
177.7515926171146
 20
76.543567057008474
 30
0.0
 11
182.3982746946017
 21
76.543567057008474
 31
0.0
  0
ARC
  5
48
  8
0
  6
CONTINUOUS
 62
     7
 10
184.3982746946017
 20
72.856404977251003
 30
0.0
 40
1.0
 50
90.0
 51
179.9999999999998
  0
LINE
  5
49
  8
0
  6
CONTINUOUS
 62
     7
 10
177.7515926171146
 20
84.169242897493461
 30
0.0
 11
182.3982746946017
 21
84.169242897493476
 31
0.0
  0
LINE
  5
4A
  8
0
  6
CONTINUOUS
 62
     7
 10
177.7515926171279
 20
91.907203420644848
 30
0.0
 11
182.3982746946017
 21
91.907203420644848
 31
0.0
  0
ARC
  5
4B
  8
0
  6
CONTINUOUS
 62
     7
 10
177.9385760882023
 20
99.589021602462751
 30
0.0
 40
3.8734959768818449
 50
246.29577837074859
 51
272.76688783075917
  0
LINE
  5
4C
  8
0
  6
CONTINUOUS
 62
     7
 10
177.7515926171146
 20
95.720041340887377
 30
0.0
 11
182.3982746946017
 21
95.720041340887377
 31
0.0
  0
LINE
  5
4D
  8
0
  6
CONTINUOUS
 62
     7
 10
178.1255595592761
 20
96.356404977251046
 30
0.0
 11
182.3982746946017
 21
96.356404977251046
 31
0.0
  0
ARC
  5
4E
  8
0
  6
CONTINUOUS
 62
     7
 10
182.3982746946017
 20
95.356404977250946
 30
0.0
 40
1.0
 50
0.0
 51
90.0
  0
POLYLINE
  5
4F
  8
0
  6
CONTINUOUS
 62
     7
 66
     1
 10
0.0
 20
0.0
 30
0.0
  0
VERTEX
  5
50
  8
0
  6
CONTINUOUS
 62
     7
 10
174.1255595592761
 20
127.8756443470176
 30
0.0
 42
-0.2566026221465076
  0
VERTEX
  5
51
  8
0
  6
CONTINUOUS
 62
     7
 10
174.293862930736
 20
128.18199634475479
 30
0.0
 42
-0.077327947758884
  0
VERTEX
  5
52
  8
0
  6
CONTINUOUS
 62
     7
 10
175.29713243453
 20
128.6200956032412
 30
0.0
 42
-0.0372103277161598
 70
     2
 50
14.74599401214477
  0
VERTEX
  5
53
  8
0
  6
CONTINUOUS
 62
     7
 10
176.48027627107601
 20
128.83903600272211
 30
0.0
 42
-0.0271550404132894
  0
VERTEX
  5
54
  8
0
  6
CONTINUOUS
 62
     7
 10
178.12555955927621
 20
128.92845741009461
 30
0.0
 42
-0.0271550404132877
  0
SEQEND
  5
55
  8
0
  6
CONTINUOUS
 62
     7
  0
POLYLINE
  5
56
  8
0
  6
CONTINUOUS
 62
     7
 66
     1
 10
0.0
 20
0.0
 30
0.0
  0
VERTEX
  5
57
  8
0
  6
CONTINUOUS
 62
     7
 10
178.1255595592761
 20
124.4609438190745
 30
0.0
 42
-0.0851755202688022
  0
VERTEX
  5
58
  8
0
  6
CONTINUOUS
 62
     7
 10
176.56731452366131
 20
124.728332351144
 30
0.0
 42
-0.0919432941291221
  0
VERTEX
  5
59
  8
0
  6
CONTINUOUS
 62
     7
 10
175.29713243452991
 20
125.4610864479878
 30
0.0
 42
-0.1034731843290223
 70
     2
 50
139.51343843745491
  0
VERTEX
  5
5A
  8
0
  6
CONTINUOUS
 62
     7
 10
174.41944255006379
 20
126.596752782614
 30
0.0
 42
-0.1134195005404173
  0
VERTEX
  5
5B
  8
0
  6
CONTINUOUS
 62
     7
 10
174.1255595592761
 20
127.8756443470176
 30
0.0
 42
-0.1134195005404329
  0
SEQEND
  5
5C
  8
0
  6
CONTINUOUS
 62
     7
  0
ARC
  5
5D
  8
0
  6
CONTINUOUS
 62
     7
 10
178.1255595592761
 20
129.0
 30
0.0
 40
5.0
 50
192.97287815075049
 51
270.00000000000023
  0
ARC
  5
5E
  8
0
  6
CONTINUOUS
 62
     7
 10
225.8749051045294
 20
140.00000000000011
 30
0.0
 40
54.0
 50
187.98355614555541
 51
192.9728781507506
  0
LINE
  5
5F
  8
0
  6
HIDDEN
 62
     2
 10
172.3982746946017
 20
132.50000000000011
 30
0.0
 11
173.3982746946017
 21
133.50000000000011
 31
0.0
  0
ARC
  5
60
  8
0
  6
CONTINUOUS
 62
     7
 10
182.3982746946017
 20
125.0
 30
0.0
 40
1.0
 50
270.0
 51
0.0
  0
LINE
  5
61
  8
0
  6
CONTINUOUS
 62
     7
 10
178.1255595592761
 20
124.0
 30
0.0
 11
182.3982746946017
 21
124.0
 31
0.0
  0
LINE
  5
62
  8
0
  6
CONTINUOUS
 62
     7
 10
178.1255595592761
 20
124.4609438190745
 30
0.0
 11
182.3982746946017
 21
124.4609438190745
 31
0.0
  0
LINE
  5
63
  8
0
  6
CONTINUOUS
 62
     7
 10
178.12555955927621
 20
128.92845741009461
 30
0.0
 11
182.3982746946017
 21
128.92845741009461
 31
0.0
  0
ARC
  5
64
  8
0
  6
CONTINUOUS
 62
     7
 10
184.3982746946017
 20
132.50000000000011
 30
0.0
 40
1.0
 50
90.0
 51
179.9999999999998
  0
LINE
  5
65
  8
0
  6
CENTER
 62
     1
 10
139.39704925439091
 20
140.0
 30
0.0
 11
97.397049254390865
 21
140.0
 31
0.0
  0
ARC
  5
66
  8
0
  6
CONTINUOUS
 62
     7
 10
118.39704925439079
 20
140.0
 30
0.0
 40
16.000000000000011
 50
16.213633495974879
 51
43.786366504025317
  0
ARC
  5
67
  8
0
  6
CONTINUOUS
 62
     7
 10
118.39704925439079
 20
140.0
 30
0.0
 40
16.000000000000011
 50
76.213633495974875
 51
103.7863665040253
  0
ARC
  5
68
  8
0
  6
CONTINUOUS
 62
     7
 10
118.39704925439079
 20
140.0
 30
0.0
 40
16.000000000000011
 50
136.2136334959749
 51
163.7863665040253
  0
ARC
  5
69
  8
0
  6
CONTINUOUS
 62
     7
 10
96.397049254390794
 20
140.0
 30
0.0
 40
8.0
 50
326.05207347296698
 51
33.947926527025267
  0
ARC
  5
6A
  8
0
  6
CONTINUOUS
 62
     7
 10
107.39704925439079
 20
159.0525588832578
 30
0.0
 40
8.0
 50
266.05207347296692
 51
333.94792652702529
  0
ARC
  5
6B
  8
0
  6
CONTINUOUS
 62
     7
 10
129.39704925439091
 20
159.0525588832578
 30
0.0
 40
8.0
 50
206.0520734729669
 51
273.94792652703308
  0
ARC
  5
6C
  8
0
  6
CONTINUOUS
 62
     7
 10
140.39704925439091
 20
140.0
 30
0.0
 40
8.0
 50
146.0520734729669
 51
213.94792652702529
  0
ARC
  5
6D
  8
0
  6
CONTINUOUS
 62
     7
 10
182.3982746946017
 20
155.00000000000011
 30
0.0
 40
1.0
 50
0.0
 51
90.0
  0
ARC
  5
6E
  8
0
  6
CONTINUOUS
 62
     7
 10
178.1255595592761
 20
151.00000000000011
 30
0.0
 40
5.0
 50
89.999999999999844
 51
167.0271218492494
  0
POLYLINE
  5
6F
  8
0
  6
CONTINUOUS
 62
     7
 66
     1
 10
0.0
 20
0.0
 30
0.0
  0
VERTEX
  5
70
  8
0
  6
CONTINUOUS
 62
     7
 10
178.1255595592761
 20
155.5390561809256
 30
0.0
 42
0.0851755202688022
  0
VERTEX
  5
71
  8
0
  6
CONTINUOUS
 62
     7
 10
176.56731452366131
 20
155.27166764885601
 30
0.0
 42
0.0919432941291221
  0
VERTEX
  5
72
  8
0
  6
CONTINUOUS
 62
     7
 10
175.29713243452991
 20
154.53891355201219
 30
0.0
 42
0.1034731843290223
 70
     2
 50
220.48656156254509
  0
VERTEX
  5
73
  8
0
  6
CONTINUOUS
 62
     7
 10
174.41944255006379
 20
153.403247217386
 30
0.0
 42
0.1134195005404173
  0
VERTEX
  5
74
  8
0
  6
CONTINUOUS
 62
     7
 10
174.1255595592761
 20
152.12435565298239
 30
0.0
 42
0.1134195005404329
  0
SEQEND
  5
75
  8
0
  6
CONTINUOUS
 62
     7
  0
POLYLINE
  5
76
  8
0
  6
CONTINUOUS
 62
     7
 66
     1
 10
0.0
 20
0.0
 30
0.0
  0
VERTEX
  5
77
  8
0
  6
CONTINUOUS
 62
     7
 10
174.1255595592761
 20
152.12435565298239
 30
0.0
 42
0.2566026221465076
  0
VERTEX
  5
78
  8
0
  6
CONTINUOUS
 62
     7
 10
174.293862930736
 20
151.81800365524521
 30
0.0
 42
0.077327947758884
  0
VERTEX
  5
79
  8
0
  6
CONTINUOUS
 62
     7
 10
175.29713243453
 20
151.3799043967588
 30
0.0
 42
0.0372103277161598
 70
     2
 50
345.25400598785518
  0
VERTEX
  5
7A
  8
0
  6
CONTINUOUS
 62
     7
 10
176.48027627107601
 20
151.16096399727789
 30
0.0
 42
0.0271550404132894
  0
VERTEX
  5
7B
  8
0
  6
CONTINUOUS
 62
     7
 10
178.12555955927621
 20
151.07154258990539
 30
0.0
 42
0.0271550404132877
  0
SEQEND
  5
7C
  8
0
  6
CONTINUOUS
 62
     7
  0
ARC
  5
7D
  8
0
  6
CONTINUOUS
 62
     7
 10
178.62039427001989
 20
139.99999999999989
 30
0.0
 40
4.4948347107437501
 50
96.320482633243387
 51
179.9999999999998
  0
ARC
  5
7E
  8
0
  6
CONTINUOUS
 62
     7
 10
225.8749051045294
 20
140.00000000000011
 30
0.0
 40
54.0
 50
167.02712184924931
 51
172.0164438544445
  0
LINE
  5
7F
  8
0
  6
HIDDEN
 62
     2
 10
172.3982746946017
 20
147.5
 30
0.0
 11
173.3982746946017
 21
146.5
 31
0.0
  0
LINE
  5
80
  8
0
  6
HIDDEN
 62
     2
 10
172.3982746946017
 20
147.5
 30
0.0
 11
172.3982746946017
 21
147.5
 31
0.0
  0
LINE
  5
81
  8
0
  6
HIDDEN
 62
     2
 10
172.3982746946017
 20
147.50000000000011
 30
0.0
 11
172.3982746946017
 21
147.50000000000011
 31
0.0
  0
LINE
  5
82
  8
0
  6
CONTINUOUS
 62
     7
 10
178.12555955927621
 20
135.53248640897991
 30
0.0
 11
182.3982746946017
 21
135.53248640897991
 31
0.0
  0
LINE
  5
83
  8
0
  6
CONTINUOUS
 62
     7
 10
178.12555955927621
 20
144.46751359102009
 30
0.0
 11
182.3982746946017
 21
144.46751359102009
 31
0.0
  0
LINE
  5
84
  8
0
  6
CONTINUOUS
 62
     7
 10
178.1255595592761
 20
155.5390561809256
 30
0.0
 11
182.3982746946017
 21
155.5390561809256
 31
0.0
  0
LINE
  5
85
  8
0
  6
CONTINUOUS
 62
     7
 10
178.12555955927621
 20
151.07154258990539
 30
0.0
 11
182.3982746946017
 21
151.07154258990539
 31
0.0
  0
LINE
  5
86
  8
0
  6
CONTINUOUS
 62
     7
 10
178.1255595592761
 20
156.00000000000011
 30
0.0
 11
182.3982746946017
 21
156.00000000000011
 31
0.0
  0
LINE
  5
87
  8
0
  6
CONTINUOUS
 62
     7
 10
183.3982746946017
 20
214.643595022749
 30
0.0
 11
183.39827469460181
 21
184.64359502274891
 31
0.0
  0
LINE
  5
88
  8
0
  6
CONTINUOUS
 62
     7
 10
172.3982746946017
 20
192.143595022749
 30
0.0
 11
172.3982746946017
 21
207.143595022749
 31
0.0
  0
LINE
  5
89
  8
0
  6
HIDDEN
 62
     2
 10
173.3982746946017
 20
193.143595022749
 30
0.0
 11
173.3982746946017
 21
206.143595022749
 31
0.0
  0
ARC
  5
8A
  8
0
  6
CONTINUOUS
 62
     7
 10
177.9385760882023
 20
180.41097839753721
 30
0.0
 40
3.8734959768818449
 50
87.233112169240783
 51
113.70422162925141
  0
ARC
  5
8B
  8
0
  6
CONTINUOUS
 62
     7
 10
177.9385760882023
 20
191.96177684093109
 30
0.0
 40
3.8734959768818449
 50
87.233112169240783
 51
272.76688783075872
  0
ARC
  5
8C
  8
0
  6
CONTINUOUS
 62
     7
 10
178.1255595592761
 20
188.64359502274891
 30
0.0
 40
5.0
 50
192.97287815075049
 51
270.00000000000023
  0
ARC
  5
8D
  8
0
  6
CONTINUOUS
 62
     7
 10
225.8749051045294
 20
199.643595022749
 30
0.0
 40
54.0
 50
187.98355614555541
 51
192.9728781507506
  0
LINE
  5
8E
  8
0
  6
HIDDEN
 62
     2
 10
172.3982746946017
 20
192.14359502274911
 30
0.0
 11
173.3982746946017
 21
193.143595022749
 31
0.0
  0
LINE
  5
8F
  8
0
  6
HIDDEN
 62
     2
 10
172.3982746946017
 20
192.143595022749
 30
0.0
 11
172.3982746946017
 21
192.143595022749
 31
0.0
  0
LINE
  5
90
  8
0
  6
HIDDEN
 62
     2
 10
172.3982746946017
 20
192.14359502274911
 30
0.0
 11
172.3982746946017
 21
192.14359502274911
 31
0.0
  0
LINE
  5
91
  8
0
  6
CONTINUOUS
 62
     7
 10
177.7515926171146
 20
184.27995865911259
 30
0.0
 11
182.3982746946017
 21
184.27995865911259
 31
0.0
  0
LINE
  5
92
  8
0
  6
CONTINUOUS
 62
     7
 10
178.1255595592761
 20
183.64359502274891
 30
0.0
 11
182.3982746946017
 21
183.64359502274891
 31
0.0
  0
ARC
  5
93
  8
0
  6
CONTINUOUS
 62
     7
 10
182.3982746946017
 20
184.643595022749
 30
0.0
 40
1.0
 50
270.0
 51
0.0
  0
LINE
  5
94
  8
0
  6
CONTINUOUS
 62
     7
 10
177.7515926171279
 20
188.09279657935511
 30
0.0
 11
182.3982746946017
 21
188.09279657935511
 31
0.0
  0
LINE
  5
95
  8
0
  6
CONTINUOUS
 62
     7
 10
177.7515926171146
 20
195.83075710250651
 30
0.0
 11
182.3982746946017
 21
195.83075710250651
 31
0.0
  0
ARC
  5
96
  8
0
  6
CONTINUOUS
 62
     7
 10
177.9385760882023
 20
218.87621164796079
 30
0.0
 40
3.8734959768818449
 50
246.29577837074859
 51
272.76688783075917
  0
ARC
  5
97
  8
0
  6
CONTINUOUS
 62
     7
 10
178.1255595592761
 20
210.643595022749
 30
0.0
 40
5.0
 50
89.999999999999844
 51
167.02712184924951
  0
ARC
  5
98
  8
0
  6
CONTINUOUS
 62
     7
 10
177.9385760882023
 20
207.3254132045669
 30
0.0
 40
3.8734959768818449
 50
87.233112169241295
 51
272.76688783075917
  0
ARC
  5
99
  8
0
  6
CONTINUOUS
 62
     7
 10
225.8749051045294
 20
199.643595022749
 30
0.0
 40
54.0
 50
167.02712184924931
 51
172.01644385444459
  0
LINE
  5
9A
  8
0
  6
HIDDEN
 62
     2
 10
172.3982746946017
 20
207.143595022749
 30
0.0
 11
173.3982746946017
 21
206.143595022749
 31
0.0
  0
LINE
  5
9B
  8
0
  6
CONTINUOUS
 62
     7
 10
177.7515926171146
 20
203.45643294299151
 30
0.0
 11
182.3982746946017
 21
203.45643294299151
 31
0.0
  0
ARC
  5
9C
  8
0
  6
CONTINUOUS
 62
     7
 10
184.3982746946017
 20
207.143595022749
 30
0.0
 40
1.0
 50
180.00000000000011
 51
270.0
  0
LINE
  5
9D
  8
0
  6
CONTINUOUS
 62
     7
 10
177.7515926171279
 20
211.19439346614291
 30
0.0
 11
182.3982746946017
 21
211.19439346614291
 31
0.0
  0
LINE
  5
9E
  8
0
  6
CONTINUOUS
 62
     7
 10
177.7515926171146
 20
215.0072313863854
 30
0.0
 11
182.3982746946017
 21
215.0072313863854
 31
0.0
  0
LINE
  5
9F
  8
0
  6
CONTINUOUS
 62
     7
 10
178.1255595592761
 20
215.64359502274911
 30
0.0
 11
182.3982746946017
 21
215.64359502274911
 31
0.0
  0
ARC
  5
A0
  8
0
  6
CONTINUOUS
 62
     7
 10
182.3982746946017
 20
214.643595022749
 30
0.0
 40
1.0
 50
0.0
 51
90.0
  0
CIRCLE
  5
A1
  8
0
  6
CONTINUOUS
 62
     7
 10
248.3995001348126
 20
140.0
 30
0.0
 40
6.5
  0
ARC
  5
A2
  8
0
  6
CONTINUOUS
 62
     7
 10
248.3995001348126
 20
140.0
 30
0.0
 40
16.000000000000011
 50
196.2136334959747
 51
223.78636650402521
  0
ARC
  5
A3
  8
0
  6
CONTINUOUS
 62
     7
 10
248.3995001348126
 20
140.00000000000011
 30
0.0
 40
16.000000000000011
 50
316.2136334959747
 51
343.78636650402501
  0
LINE
  5
A4
  8
0
  6
CENTER
 62
     1
 10
248.3995001348126
 20
161.00000000000011
 30
0.0
 11
248.3995001348126
 21
119.0
 31
0.0
  0
LINE
  5
A7
  8
0
  6
CONTINUOUS
 62
     7
 10
193.8982746946017
 20
133.50000000000011
 30
0.0
 11
193.8982746946017
 21
146.50000000000011
 31
0.0
  0
LINE
  5
A8
  8
0
  6
CONTINUOUS
 62
     7
 10
194.3982746946017
 20
134.00000000000011
 30
0.0
 11
194.39827469460181
 21
146.00000000000011
 31
0.0
  0
ARC
  5
B4
  8
0
  6
CONTINUOUS
 62
     7
 10
259.39950013481268
 20
120.9474411167423
 30
0.0
 40
8.0
 50
86.052073472974698
 51
153.94792652704089
  0
LINE
  5
B5
  8
0
  6
HIDDEN
 62
     2
 10
192.95489902162771
 20
80.356404977250875
 30
0.0
 11
194.3982746946017
 21
82.856404977250875
 31
0.0
  0
LINE
  5
B6
  8
0
  6
CONTINUOUS
 62
     7
 10
194.3982746946017
 20
74.356404977251003
 30
0.0
 11
194.39827469460181
 21
86.356404977251003
 31
0.0
  0
LINE
  5
B7
  8
0
  6
CONTINUOUS
 62
     7
 10
193.8982746946017
 20
73.856404977251003
 30
0.0
 11
193.8982746946017
 21
86.856404977251032
 31
0.0
  0
LINE
  5
B8
  8
0
  6
CONTINUOUS
 62
     7
 10
194.3982746946017
 20
74.356404977251003
 30
0.0
 11
193.8982746946017
 21
73.856404977251003
 31
0.0
  0
LINE
  5
B9
  8
0
  6
HIDDEN
 62
     2
 10
192.95489902162771
 20
80.356404977251003
 30
0.0
 11
194.3982746946017
 21
77.856404977251003
 31
0.0
  0
LINE
  5
BA
  8
0
  6
CONTINUOUS
 62
     7
 10
193.89827469460181
 20
86.856404977251003
 30
0.0
 11
194.39827469460181
 21
86.356404977251003
 31
0.0
  0
LINE
  5
BB
  8
0
  6
CONTINUOUS
 62
     7
 10
194.3982746946017
 20
134.00000000000011
 30
0.0
 11
193.8982746946017
 21
133.50000000000011
 31
0.0
  0
ARC
  5
BC
  8
0
  6
CONTINUOUS
 62
     7
 10
237.3995001348126
 20
120.9474411167423
 30
0.0
 40
8.0
 50
26.05207347296686
 51
93.947926527033076
  0
ARC
  5
BD
  8
0
  6
CONTINUOUS
 62
     7
 10
248.39950013481271
 20
140.0
 30
0.0
 40
16.000000000000011
 50
256.2136334959747
 51
283.78636650402512
  0
ARC
  5
BE
  8
0
  6
CONTINUOUS
 62
     7
 10
259.39950013481268
 20
159.0525588832578
 30
0.0
 40
8.0
 50
206.0520734729669
 51
273.94792652703308
  0
LINE
  5
BF
  8
0
  6
CENTER
 62
     1
 10
227.3995001348126
 20
140.0
 30
0.0
 11
269.39950013481263
 21
140.0
 31
0.0
  0
LINE
  5
C0
  8
0
  6
HIDDEN
 62
     2
 10
192.95489902162771
 20
139.99999999999989
 30
0.0
 11
194.3982746946017
 21
142.5
 31
0.0
  0
LINE
  5
C1
  8
0
  6
HIDDEN
 62
     2
 10
192.95489902162771
 20
140.00000000000011
 30
0.0
 11
194.3982746946017
 21
137.50000000000011
 31
0.0
  0
LINE
  5
C2
  8
0
  6
CONTINUOUS
 62
     7
 10
193.89827469460181
 20
146.50000000000011
 30
0.0
 11
194.39827469460181
 21
146.00000000000011
 31
0.0
  0
ARC
  5
C3
  8
0
  6
CONTINUOUS
 62
     7
 10
237.3995001348126
 20
159.0525588832578
 30
0.0
 40
8.0
 50
266.05207347296692
 51
333.94792652704098
  0
ARC
  5
C4
  8
0
  6
CONTINUOUS
 62
     7
 10
248.3995001348126
 20
140.0
 30
0.0
 40
16.000000000000011
 50
136.2136334959747
 51
163.7863665040251
  0
ARC
  5
C5
  8
0
  6
CONTINUOUS
 62
     7
 10
226.3995001348126
 20
140.0
 30
0.0
 40
8.0
 50
326.05207347297471
 51
33.94792652703309
  0
CIRCLE
  5
C6
  8
0
  6
CONTINUOUS
 62
     7
 10
248.3995001348126
 20
140.0
 30
0.0
 40
2.4999999999999432
  0
ARC
  5
C7
  8
0
  6
CONTINUOUS
 62
     7
 10
248.3995001348126
 20
140.0
 30
0.0
 40
16.000000000000011
 50
76.21363349597469
 51
103.7863665040251
  0
LINE
  5
C8
  8
0
  6
HIDDEN
 62
     2
 10
192.95489902162771
 20
199.64359502274911
 30
0.0
 11
194.3982746946017
 21
197.14359502274911
 31
0.0
  0
LINE
  5
C9
  8
0
  6
CONTINUOUS
 62
     7
 10
194.3982746946017
 20
205.643595022749
 30
0.0
 11
194.39827469460181
 21
193.643595022749
 31
0.0
  0
LINE
  5
CA
  8
0
  6
CONTINUOUS
 62
     7
 10
193.8982746946017
 20
206.143595022749
 30
0.0
 11
193.8982746946017
 21
193.143595022749
 31
0.0
  0
LINE
  5
CB
  8
0
  6
CONTINUOUS
 62
     7
 10
193.89827469460181
 20
193.143595022749
 30
0.0
 11
194.39827469460181
 21
193.643595022749
 31
0.0
  0
LINE
  5
CC
  8
0
  6
HIDDEN
 62
     2
 10
192.95489902162771
 20
199.643595022749
 30
0.0
 11
194.3982746946017
 21
202.143595022749
 31
0.0
  0
LINE
  5
CD
  8
0
  6
CONTINUOUS
 62
     7
 10
194.3982746946017
 20
205.643595022749
 30
0.0
 11
193.8982746946017
 21
206.143595022749
 31
0.0
  0
ARC
  5
CE
  8
0
  6
CONTINUOUS
 62
     7
 10
248.3995001348126
 20
140.0
 30
0.0
 40
16.000000000000011
 50
16.213633495974669
 51
43.786366504025118
  0
ARC
  5
CF
  8
0
  6
CONTINUOUS
 62
     7
 10
270.39950013481268
 20
140.0
 30
0.0
 40
8.0
 50
146.05207347297471
 51
213.94792652703299
  0
TEXT
  5
1E3
  8
0
 62
     3
 10
0.0
 20
0.0
 30
0.0
 40
10.0
  1
HK32-SUS
  7
STANDARD1
  0
ENDSEC
  0
EOF
