  0
SECTION
  2
HEADER
  9
$ACADVER
  1
AC1009
  9
$INSBASE
 10
0.0
 20
0.0
 30
0.0
  9
$EXTMIN
 10
0.0
 20
-2.960436562073669
 30
0.0
  9
$EXTMAX
 10
184.0000001396379
 20
109.9999999837618
 30
0.0
  9
$LIMMIN
 10
0.0
 20
0.0
  9
$LIMMAX
 10
750.0
 20
540.0
  9
$ORTHOMODE
 70
     1
  9
$REGENMODE
 70
     1
  9
$FILLMODE
 70
     1
  9
$QTEXTMODE
 70
     0
  9
$MIRRTEXT
 70
     0
  9
$DRAGMODE
 70
     2
  9
$LTSCALE
 40
10.0
  9
$OSMODE
 70
  3071
  9
$ATTMODE
 70
     1
  9
$TEXTSIZE
 40
0.2
  9
$TRACEWID
 40
0.05
  9
$TEXTSTYLE
  7
STANDARD
  9
$CLAYER
  8
0
  9
$CELTYPE
  6
BYLAYER
  9
$CECOLOR
 62
   256
  9
$DIMSCALE
 40
1.0
  9
$DIMASZ
 40
3.0
  9
$DIMEXO
 40
2.0
  9
$DIMDLI
 40
0.38
  9
$DIMRND
 40
0.0
  9
$DIMDLE
 40
0.0
  9
$DIMEXE
 40
2.0
  9
$DIMTP
 40
0.0
  9
$DIMTM
 40
0.0
  9
$DIMTXT
 40
3.2000000000000002
  9
$DIMCEN
 40
0.0
  9
$DIMTSZ
 40
0.0
  9
$DIMTOL
 70
     0
  9
$DIMLIM
 70
     0
  9
$DIMTIH
 70
     0
  9
$DIMTOH
 70
     0
  9
$DIMSE1
 70
     0
  9
$DIMSE2
 70
     0
  9
$DIMTAD
 70
     1
  9
$DIMZIN
 70
     0
  9
$DIMBLK
  1

  9
$DIMASO
 70
     0
  9
$DIMSHO
 70
     0
  9
$DIMPOST
  1

  9
$DIMAPOST
  1

  9
$DIMALT
 70
     0
  9
$DIMALTD
 70
     2
  9
$DIMALTF
 40
25.399999999999999
  9
$DIMLFAC
 40
1.0
  9
$DIMTOFL
 70
     0
  9
$DIMTVP
 40
1.6000000000000001
  9
$DIMTIX
 70
     1
  9
$DIMSOXD
 70
     0
  9
$DIMSAH
 70
     0
  9
$DIMBLK1
  1

  9
$DIMBLK2
  1

  9
$DIMSTYLE
  2
STANDARD
  9
$DIMCLRD
 70
     0
  9
$DIMCLRE
 70
     0
  9
$DIMCLRT
 70
     0
  9
$DIMTFAC
 40
1.0
  9
$DIMGAP
 40
0.09
  9
$LUNITS
 70
     2
  9
$LUPREC
 70
     4
  9
$SKETCHINC
 40
0.1
  9
$FILLETRAD
 40
0.0
  9
$AUNITS
 70
     0
  9
$AUPREC
 70
     4
  9
$MENU
  1
E:\r13\win\SUPPORT\ACAD
  9
$ELEVATION
 40
0.0
  9
$PELEVATION
 40
0.0
  9
$THICKNESS
 40
0.0
  9
$LIMCHECK
 70
     0
  9
$BLIPMODE
 70
     0
  9
$CHAMFERA
 40
0.0
  9
$CHAMFERB
 40
0.0
  9
$SKPOLY
 70
     0
  9
$TDCREATE
 40
2449840.6227546302
  9
$TDUPDATE
 40
2456602.6142718061
  9
$TDINDWG
 40
0.0156551157
  9
$TDUSRTIMER
 40
2456598.4334209841
  9
$USRTIMER
 70
     1
  9
$ANGBASE
 50
0.0
  9
$ANGDIR
 70
     0
  9
$PDMODE
 70
     0
  9
$PDSIZE
 40
0.0
  9
$PLINEWID
 40
0.0
  9
$COORDS
 70
     1
  9
$SPLFRAME
 70
     0
  9
$SPLINETYPE
 70
     6
  9
$SPLINESEGS
 70
     8
  9
$ATTDIA
 70
     0
  9
$ATTREQ
 70
     1
  9
$HANDLING
 70
     1
  9
$HANDSEED
  5
5EC
  9
$SURFTAB1
 70
     6
  9
$SURFTAB2
 70
     6
  9
$SURFTYPE
 70
     6
  9
$SURFU
 70
     6
  9
$SURFV
 70
     6
  9
$UCSNAME
  2

  9
$UCSORG
 10
0.0
 20
0.0
 30
0.0
  9
$UCSXDIR
 10
1.0
 20
0.0
 30
0.0
  9
$UCSYDIR
 10
0.0
 20
1.0
 30
0.0
  9
$PUCSNAME
  2

  9
$PUCSORG
 10
0.0
 20
0.0
 30
0.0
  9
$PUCSXDIR
 10
1.0
 20
0.0
 30
0.0
  9
$PUCSYDIR
 10
0.0
 20
1.0
 30
0.0
  9
$USERI1
 70
     0
  9
$USERI2
 70
     1
  9
$USERI3
 70
     0
  9
$USERI4
 70
     0
  9
$USERI5
 70
     0
  9
$USERR1
 40
0.0
  9
$USERR2
 40
0.0
  9
$USERR3
 40
0.0
  9
$USERR4
 40
0.0
  9
$USERR5
 40
0.0
  9
$WORLDVIEW
 70
     1
  9
$SHADEDGE
 70
     3
  9
$SHADEDIF
 70
    70
  9
$TILEMODE
 70
     1
  9
$MAXACTVP
 70
    16
  9
$PLIMCHECK
 70
     0
  9
$PEXTMIN
 10
1.0000000000000000E+020
 20
1.0000000000000000E+020
 30
1.0000000000000000E+020
  9
$PEXTMAX
 10
-1.0000000000000000E+020
 20
-1.0000000000000000E+020
 30
-1.0000000000000000E+020
  9
$PLIMMIN
 10
0.0
 20
0.0
  9
$PLIMMAX
 10
12.0
 20
9.0
  9
$UNITMODE
 70
     0
  9
$VISRETAIN
 70
     0
  9
$PLINEGEN
 70
     0
  9
$PSLTSCALE
 70
     0
  0
ENDSEC
  0
SECTION
  2
TABLES
  0
TABLE
  2
VPORT
 70
     1
  0
VPORT
  2
*ACTIVE
 70
     0
 10
0.0
 20
0.0
 11
1.0
 21
1.0
 12
263.06226215813803
 22
45.256091523774359
 13
0.0
 23
0.0
 14
20.0
 24
20.0
 15
20.0
 25
20.0
 16
0.0
 26
0.0
 36
1.0
 17
0.0
 27
0.0
 37
0.0
 40
352.42611955723652
 41
1.831871345029239
 42
50.0
 43
0.0
 44
0.0
 50
0.0
 51
0.0
 71
    16
 72
   100
 73
     1
 74
     0
 75
     0
 76
     0
 77
     0
 78
     2
  0
ENDTAB
  0
TABLE
  2
LTYPE
 70
     7
  0
LTYPE
  2
CONTINUOUS
 70
     0
  3
Solid Line
 72
    65
 73
     0
 40
0.0
  0
LTYPE
  2
CENTER
 70
     0
  3
____ _ ____ _ ____ _ ____ _ ____ _ ____ _ ____
 72
    65
 73
     4
 40
2.0
 49
1.25
 49
-0.25
 49
0.25
 49
-0.25
  0
LTYPE
  2
HIDDEN
 70
     0
  3
_ _ _ _ _ _ _ _ _ _ _ _ _ _ _ _ _ _ _ _ _ _ _
 72
    65
 73
     2
 40
0.375
 49
0.25
 49
-0.125
  0
LTYPE
  2
PHANTOM2
 70
     0
  3
___ _ _ ___ _ _ ___ _ _ ___ _ _
 72
    65
 73
     6
 40
1.25
 49
0.625
 49
-0.125
 49
0.125
 49
-0.125
 49
0.125
 49
-0.125
  0
LTYPE
  2
CNS_SOLID
 70
     0
  3

 72
    65
 73
     0
 40
0.0
  0
LTYPE
  2
CNS_DASHED
 70
     0
  3

 72
    65
 73
     2
 40
2.0
 49
1.0
 49
-1.0
  0
LTYPE
  2
CNS_CENTER
 70
     0
  3

 72
    65
 73
     4
 40
2.0
 49
0.45
 49
-0.5
 49
0.05
 49
-0.5
  0
ENDTAB
  0
TABLE
  2
LAYER
 70
     4
  0
LAYER
  2
0
 70
     0
 62
     7
  6
CONTINUOUS
  0
LAYER
  2
1
 70
     0
 62
     1
  6
CENTER
  0
LAYER
  2
2
 70
     0
 62
     2
  6
HIDDEN
  0
LAYER
  2
3
 70
     0
 62
     3
  6
CONTINUOUS
  0
ENDTAB
  0
TABLE
  2
STYLE
 70
     2
  0
STYLE
  2
STANDARD
 70
     0
 40
0.0
 41
1.0
 50
0.0
 71
     0
 42
0.2
  3
TXT
  4
BIGFONT
  0
STYLE
  2
STANDARD1
 70
     0
 40
0.0
 41
1.0
 50
0.0
 71
     0
 42
3.0
  3
txt
  4

  0
ENDTAB
  0
TABLE
  2
VIEW
 70
     1
  0
VIEW
  2
ALL
 70
     0
 40
540.0
 10
441.98319299999991
 20
270.0
 41
0.0
 11
0.0
 21
0.0
 31
1.0
 12
0.0
 22
0.0
 32
0.0
 42
0.0
 43
0.0
 44
0.0
 50
0.0
 71
     0
  0
ENDTAB
  0
TABLE
  2
UCS
 70
     0
  0
ENDTAB
  0
TABLE
  2
APPID
 70
     7
  0
APPID
  2
ACAD
 70
     0
  0
APPID
  2
ACAD_NAV_VCDISPLAY
 70
     0
  0
APPID
  2
ACAD_EXEMPT_FROM_CAD_STANDARDS
 70
     0
  0
APPID
  2
ACAD_DSTYLE_DIMJAG
 70
     0
  0
APPID
  2
ACAD_DSTYLE_DIMTALN
 70
     0
  0
APPID
  2
ACAD_MLEADERVER
 70
     0
  0
APPID
  2
ACAD_DSTYLE_DIMRADIAL_EXTENSION
 70
     0
  0
ENDTAB
  0
TABLE
  2
DIMSTYLE
 70
     2
  0
DIMSTYLE
  2
STANDARD
 70
     0
  3

  4

  5

  6

  7

 40
1.0
 41
0.18
 42
0.0625
 43
0.38
 44
0.18
 45
0.0
 46
0.0
 47
0.0
 48
0.0
140
0.18
141
0.09
142
0.0
143
25.399999999999999
144
1.0
145
0.0
146
1.0
147
0.09
 71
     0
 72
     0
 73
     1
 74
     1
 75
     0
 76
     0
 77
     0
 78
     0
170
     0
171
     2
172
     0
173
     0
174
     0
175
     0
176
     0
177
     0
178
     0
  0
DIMSTYLE
  2
ISO-25
 70
     0
  3

  4

  5

  6

  7

 40
1.0
 41
2.5
 42
0.625
 43
3.75
 44
1.25
 45
0.0
 46
0.0
 47
0.0
 48
0.0
140
2.5
141
2.5
142
0.0
143
0.03937007874016
144
1.0
145
0.0
146
1.0
147
0.625
 71
     0
 72
     0
 73
     0
 74
     0
 75
     0
 76
     0
 77
     1
 78
     8
170
     0
171
     3
172
     1
173
     0
174
     0
175
     0
176
     0
177
     0
178
     0
  0
ENDTAB
  0
ENDSEC
  0
SECTION
  2
BLOCKS
  0
BLOCK
  8
0
  2
$MODEL_SPACE
 70
     0
 10
0.0
 20
0.0
 30
0.0
  3
$MODEL_SPACE
  1

  0
ENDBLK
  5
11D
  8
0
  0
BLOCK
 67
     1
  8
0
  2
$PAPER_SPACE
 70
     0
 10
0.0
 20
0.0
 30
0.0
  3
$PAPER_SPACE
  1

  0
ENDBLK
  5
11B
 67
     1
  8
0
  0
ENDSEC
  0
SECTION
  2
ENTITIES
  0
CIRCLE
  5
390
  8
0
 10
83.769804059810085
 20
62.049999983762007
 30
0.0
 40
1.249999999999801
  0
ARC
  5
391
  8
0
 10
83.769804059810127
 20
77.949999983761813
 30
0.0
 40
2.599999999999993
 50
152.2955306789496
 51
290.58861406984221
  0
ARC
  5
392
  8
0
 10
79.165945881228595
 20
59.632462006498827
 30
0.0
 40
2.6000000000003332
 50
308.649412148115
 51
27.704471948042229
  0
LINE
  5
393
  8
0
 10
84.794103546716684
 20
64.442617112242203
 30
0.0
 11
84.684108687056707
 21
64.483936517156906
 31
0.0
  0
CIRCLE
  5
394
  8
0
 10
83.769804059810127
 20
77.949999983761813
 30
0.0
 40
1.2499999999999709
  0
LINE
  5
395
  8
0
 10
84.684108687056707
 20
75.516063450366687
 30
0.0
 11
84.794103546716684
 21
75.557382855281389
 31
0.0
  0
ARC
  5
396
  8
0
 10
83.914964482055197
 20
62.102293522438544
 30
0.0
 40
2.5000000000010831
 50
27.055073615756019
 51
69.411385930135012
  0
ARC
  5
397
  8
0
 10
83.769804059810085
 20
62.049999983762007
 30
0.0
 40
2.5999999999997998
 50
69.411385930155333
 51
207.70447194805519
  0
ARC
  5
398
  8
0
 10
79.165945881229106
 20
80.367537961025064
 30
0.0
 40
2.599999999999786
 50
332.29552542494889
 51
51.350587851890431
  0
ARC
  5
399
  8
0
 10
70.875000139637777
 20
69.999999983761796
 30
0.0
 40
15.875000000000069
 50
51.350587851885173
 51
308.64941214811518
  0
ARC
  5
39A
  8
0
 10
83.914964482055197
 20
77.897706445085063
 30
0.0
 40
2.5000000000010938
 50
290.58861406986489
 51
333.5476547696174
  0
CIRCLE
  5
39B
  8
0
 10
70.000000139637905
 20
69.999999983761796
 30
0.0
 40
7.5
  0
CIRCLE
  5
39C
  8
0
 10
70.000000139637905
 20
69.999999983761796
 30
0.0
 40
35.000000000000021
  0
ARC
  5
39D
  8
2
 10
83.914964482055197
 20
62.102293522438544
 30
0.0
 40
2.5000000000010831
 50
330.42208658502801
 51
27.055073615756019
  0
ARC
  5
39E
  8
2
 10
83.914964482055197
 20
77.897706445085063
 30
0.0
 40
2.5000000000010938
 50
333.5476547696174
 51
29.577913414972411
  0
CIRCLE
  5
39F
  8
2
 10
70.000000139637905
 20
69.999999983761796
 30
0.0
 40
18.499999999999989
  0
CIRCLE
  5
3A1
  8
2
 10
70.000000139637905
 20
69.999999983761796
 30
0.0
 40
25.500000000000021
  0
LINE
  5
3A2
  8
2
 10
147.0000001396379
 20
85.850867467909239
 30
0.0
 11
148.5000001396379
 21
85.850867467909239
 31
0.0
  0
LINE
  5
3A3
  8
2
 10
148.5000001396379
 20
54.149132499614382
 30
0.0
 11
147.0000001396379
 21
54.149132499614382
 31
0.0
  0
LINE
  5
3A4
  8
2
 10
156.59807635099119
 20
83.999999983761796
 30
0.0
 11
162.40192392828459
 21
83.999999983761768
 31
0.0
  0
LINE
  5
3A5
  8
2
 10
148.5000001396379
 20
83.999999983761796
 30
0.0
 11
151.40192392828459
 21
83.999999983761796
 31
0.0
  0
LINE
  5
3A6
  8
2
 10
170.5000001396379
 20
87.499999983761768
 30
0.0
 11
148.5000001396379
 21
87.499999983761796
 31
0.0
  0
LINE
  5
3A7
  8
2
 10
162.40192392828459
 20
55.999999983761761
 30
0.0
 11
156.59807635099119
 21
55.999999983761832
 31
0.0
  0
LINE
  5
3A8
  8
2
 10
148.5000001396379
 20
52.499999983761789
 30
0.0
 11
170.5000001396379
 21
52.499999983761789
 31
0.0
  0
LINE
  5
3A9
  8
2
 10
151.40192392828459
 20
55.999999983761832
 30
0.0
 11
148.5000001396379
 21
55.999999983761803
 31
0.0
  0
LINE
  5
3AA
  8
2
 10
159.5000001396379
 20
52.499999983761789
 30
0.0
 11
159.5000001396379
 21
87.499999983761796
 31
0.0
  0
LINE
  5
3AB
  8
2
 10
151.40192392828459
 20
80.999999983761825
 30
0.0
 11
148.5000001396379
 21
80.999999983761796
 31
0.0
  0
LINE
  5
3AC
  8
2
 10
162.4019239282847
 20
80.999999983761754
 30
0.0
 11
156.59807635099131
 21
80.999999983761825
 31
0.0
  0
LINE
  5
3AD
  8
2
 10
148.5000001396379
 20
77.499999983761825
 30
0.0
 11
170.5000001396379
 21
77.499999983761796
 31
0.0
  0
LINE
  5
3AE
  8
2
 10
156.59807635099119
 20
58.999999983761803
 30
0.0
 11
162.40192392828459
 21
58.999999983761803
 31
0.0
  0
LINE
  5
3AF
  8
2
 10
148.5000001396379
 20
58.999999983761803
 30
0.0
 11
151.40192392828459
 21
58.999999983761803
 31
0.0
  0
LINE
  5
3B0
  8
2
 10
170.5000001396379
 20
62.499999983761768
 30
0.0
 11
148.5000001396379
 21
62.499999983761789
 31
0.0
  0
CIRCLE
  5
3B1
  8
2
 10
154.0000001396379
 20
57.499999983761789
 30
0.0
 40
3.000000000000028
  0
CIRCLE
  5
3B2
  8
2
 10
154.0000001396379
 20
82.499999983761796
 30
0.0
 40
3.000000000000028
  0
LINE
  5
3B3
  8
2
 10
170.5000001396379
 20
55.999999983761803
 30
0.0
 11
167.59807635099131
 21
55.999999983761832
 31
0.0
  0
LINE
  5
3B4
  8
2
 10
167.59807635099131
 20
83.999999983761825
 30
0.0
 11
170.5000001396379
 21
83.999999983761796
 31
0.0
  0
LINE
  5
3B5
  8
2
 10
170.5000001396379
 20
52.499999983761789
 30
0.0
 11
170.5000001396379
 21
87.499999983761796
 31
0.0
  0
LINE
  5
3B6
  8
2
 10
167.59807635099131
 20
58.999999983761818
 30
0.0
 11
170.5000001396379
 21
58.999999983761803
 31
0.0
  0
LINE
  5
3B7
  8
2
 10
170.5000001396379
 20
80.999999983761796
 30
0.0
 11
167.59807635099131
 21
80.999999983761825
 31
0.0
  0
CIRCLE
  5
3B8
  8
2
 10
165.0000001396379
 20
82.499999983761796
 30
0.0
 40
3.0
  0
CIRCLE
  5
3B9
  8
2
 10
165.0000001396379
 20
57.499999983761789
 30
0.0
 40
3.0
  0
LINE
  5
3BA
  8
0
 10
173.35640660018899
 20
34.999999983761768
 30
0.0
 11
179.0000001396379
 21
34.999999983761803
 31
0.0
  0
LINE
  5
3BB
  8
0
 10
172.05736849451219
 20
37.249999983761882
 30
0.0
 11
173.35640660018899
 21
34.999999983761768
 31
0.0
  0
ARC
  5
3BC
  8
0
 10
159.5000001396379
 20
29.9999999837618
 30
0.0
 40
14.499999999999989
 50
30.000000000000139
 51
149.99999999999989
  0
LINE
  5
3BD
  8
0
 10
145.64359367908691
 20
34.999999983761803
 30
0.0
 11
146.94263178476351
 21
37.249999983761711
 31
0.0
  0
LINE
  5
3BE
  8
0
 10
140.0000001396379
 20
34.999999983761803
 30
0.0
 11
145.64359367908691
 21
34.999999983761803
 31
0.0
  0
LINE
  5
3BF
  8
0
 10
140.0000001396379
 20
34.999999983761803
 30
0.0
 11
140.00000013963779
 21
104.9999999837618
 31
0.0
  0
LINE
  5
3C0
  8
2
 10
141.0000001396379
 20
52.499999983761789
 30
0.0
 11
140.0000001396379
 21
51.922649714572167
 31
0.0
  0
LINE
  5
3C1
  8
2
 10
146.7500001396379
 20
52.499999983761789
 30
0.0
 11
141.0000001396379
 21
52.499999983761789
 31
0.0
  0
LINE
  5
3C2
  8
2
 10
146.7500001396379
 20
51.499999983761818
 30
0.0
 11
146.7500001396379
 21
88.499999983761754
 31
0.0
  0
LINE
  5
3C3
  8
2
 10
148.5000001396379
 20
51.499999983761818
 30
0.0
 11
146.7500001396379
 21
51.499999983761818
 31
0.0
  0
LINE
  5
3C4
  8
2
 10
148.5000001396379
 20
88.499999983761754
 30
0.0
 11
148.5000001396379
 21
51.499999983761818
 31
0.0
  0
LINE
  5
3C5
  8
2
 10
179.0000001396379
 20
55.499999983761789
 30
0.0
 11
170.5000001396379
 21
55.499999983761789
 31
0.0
  0
LINE
  5
3C6
  8
0
 10
179.0000001396379
 20
34.999999983761803
 30
0.0
 11
179.0000001396379
 21
104.9999999837617
 31
0.0
  0
LINE
  5
3C7
  8
0
 10
179.0000001396379
 20
104.9999999837618
 30
0.0
 11
173.35640660018899
 21
104.9999999837618
 31
0.0
  0
LINE
  5
3C8
  8
2
 10
170.5000001396379
 20
84.499999983761796
 30
0.0
 11
179.0000001396379
 21
84.499999983761796
 31
0.0
  0
LINE
  5
3C9
  8
2
 10
146.7500001396379
 20
88.499999983761754
 30
0.0
 11
148.5000001396379
 21
88.499999983761754
 31
0.0
  0
LINE
  5
3CA
  8
2
 10
141.0000001396379
 20
87.499999983761796
 30
0.0
 11
146.7500001396379
 21
87.499999983761796
 31
0.0
  0
LINE
  5
3CB
  8
2
 10
140.0000001396379
 20
88.077350252951419
 30
0.0
 11
141.0000001396379
 21
87.499999983761796
 31
0.0
  0
LINE
  5
3CC
  8
0
 10
145.64359367908691
 20
104.9999999837618
 30
0.0
 11
140.0000001396379
 21
104.9999999837618
 31
0.0
  0
LINE
  5
3CD
  8
0
 10
146.94263178476351
 20
102.7499999837619
 30
0.0
 11
145.64359367908691
 21
104.9999999837618
 31
0.0
  0
ARC
  5
3CE
  8
0
 10
159.5000001396379
 20
109.9999999837618
 30
0.0
 40
14.499999999999989
 50
210.0
 51
329.99999999999989
  0
LINE
  5
3CF
  8
0
 10
173.35640660018899
 20
104.9999999837618
 30
0.0
 11
172.05736849451219
 21
102.7499999837617
 31
0.0
  0
LINE
  5
3D0
  8
2
 10
141.0000001396379
 20
52.499999983761789
 30
0.0
 11
141.0000001396379
 21
87.499999983761796
 31
0.0
  0
LINE
  5
3D1
  8
1
 10
184.0000001396379
 20
69.999999983761796
 30
0.0
 11
135.0000001396379
 21
69.999999983761825
 31
0.0
  0
LINE
  5
3D2
  8
1
 10
30.00000013963788
 20
69.999999983761796
 30
0.0
 11
110.0000001396379
 21
69.999999983761796
 31
0.0
  0
LINE
  5
3D3
  8
1
 10
70.000000139637905
 20
109.9999999837618
 30
0.0
 11
70.000000139637905
 21
29.999999983761771
 31
0.0
  0
LINE
  5
3D4
  8
2
 10
147.0000001396379
 20
51.499999983761853
 30
0.0
 11
147.0000001396379
 21
88.499999983761754
 31
0.0
  0
LINE
  5
3D5
  8
0
 10
145.64359367908691
 20
104.9999999837618
 30
0.0
 11
145.64359367908691
 21
34.999999983761803
 31
0.0
  0
LINE
  5
3D6
  8
0
 10
173.35640660018899
 20
104.9999999837618
 30
0.0
 11
173.35640660018899
 21
34.999999983761768
 31
0.0
  0
CIRCLE
  5
4CD
  8
0
 10
70.000000139637905
 20
69.999999983761796
 30
0.0
 40
17.5
  0
TEXT
  5
582
  8
0
 62
     3
 10
0.0
 20
0.0
 30
0.0
 40
10.0
  1
GRL70S2-R
  7
STANDARD1
  0
ENDSEC
  0
EOF
