  0
SECTION
  2
HEADER
  9
$ACADVER
  1
AC1009
  9
$INSBASE
 10
130.2918500927434
 20
45.801037984372719
 30
0.0
  9
$EXTMIN
 10
0.0
 20
-2.960436562073669
 30
0.0
  9
$EXTMAX
 10
199.6198057089241
 20
136.88679227326969
 30
0.0
  9
$LIMMIN
 10
0.0
 20
0.0
  9
$LIMMAX
 10
187.5
 20
135.0
  9
$ORTHOMODE
 70
     0
  9
$REGENMODE
 70
     1
  9
$FILLMODE
 70
     1
  9
$QTEXTMODE
 70
     0
  9
$MIRRTEXT
 70
     0
  9
$DRAGMODE
 70
     2
  9
$LTSCALE
 40
5.0
  9
$OSMODE
 70
  3071
  9
$ATTMODE
 70
     1
  9
$TEXTSIZE
 40
0.2
  9
$TRACEWID
 40
0.05
  9
$TEXTSTYLE
  7
STANDARD
  9
$CLAYER
  8
0
  9
$CELTYPE
  6
BYLAYER
  9
$CECOLOR
 62
   256
  9
$DIMSCALE
 40
0.5
  9
$DIMASZ
 40
3.0
  9
$DIMEXO
 40
2.0
  9
$DIMDLI
 40
0.3799999999999999
  9
$DIMRND
 40
0.0
  9
$DIMDLE
 40
0.0
  9
$DIMEXE
 40
2.0
  9
$DIMTP
 40
0.0
  9
$DIMTM
 40
0.0
  9
$DIMTXT
 40
3.2000000000000002
  9
$DIMCEN
 40
0.09
  9
$DIMTSZ
 40
0.0
  9
$DIMTOL
 70
     0
  9
$DIMLIM
 70
     0
  9
$DIMTIH
 70
     0
  9
$DIMTOH
 70
     0
  9
$DIMSE1
 70
     0
  9
$DIMSE2
 70
     0
  9
$DIMTAD
 70
     1
  9
$DIMZIN
 70
     0
  9
$DIMBLK
  1

  9
$DIMASO
 70
     0
  9
$DIMSHO
 70
     0
  9
$DIMPOST
  1

  9
$DIMAPOST
  1

  9
$DIMALT
 70
     0
  9
$DIMALTD
 70
     2
  9
$DIMALTF
 40
25.399999999999999
  9
$DIMLFAC
 40
1.0
  9
$DIMTOFL
 70
     0
  9
$DIMTVP
 40
1.6000000000000001
  9
$DIMTIX
 70
     1
  9
$DIMSOXD
 70
     0
  9
$DIMSAH
 70
     0
  9
$DIMBLK1
  1

  9
$DIMBLK2
  1

  9
$DIMSTYLE
  2
STANDARD
  9
$DIMCLRD
 70
     0
  9
$DIMCLRE
 70
     0
  9
$DIMCLRT
 70
     0
  9
$DIMTFAC
 40
1.0
  9
$DIMGAP
 40
0.09
  9
$LUNITS
 70
     2
  9
$LUPREC
 70
     4
  9
$SKETCHINC
 40
0.1
  9
$FILLETRAD
 40
0.4
  9
$AUNITS
 70
     0
  9
$AUPREC
 70
     0
  9
$MENU
  1
E:\r13\win\SUPPORT\ACAD
  9
$ELEVATION
 40
0.0
  9
$PELEVATION
 40
0.0
  9
$THICKNESS
 40
0.0
  9
$LIMCHECK
 70
     0
  9
$BLIPMODE
 70
     0
  9
$CHAMFERA
 40
0.0
  9
$CHAMFERB
 40
0.0
  9
$SKPOLY
 70
     0
  9
$TDCREATE
 40
2451824.6906229062
  9
$TDUPDATE
 40
2456598.690174167
  9
$TDINDWG
 40
0.0089580903
  9
$TDUSRTIMER
 40
0.0089580903
  9
$USRTIMER
 70
     1
  9
$ANGBASE
 50
0.0
  9
$ANGDIR
 70
     0
  9
$PDMODE
 70
     0
  9
$PDSIZE
 40
0.0
  9
$PLINEWID
 40
0.0
  9
$COORDS
 70
     1
  9
$SPLFRAME
 70
     0
  9
$SPLINETYPE
 70
     6
  9
$SPLINESEGS
 70
     8
  9
$ATTDIA
 70
     0
  9
$ATTREQ
 70
     1
  9
$HANDLING
 70
     1
  9
$HANDSEED
  5
1D3
  9
$SURFTAB1
 70
     6
  9
$SURFTAB2
 70
     6
  9
$SURFTYPE
 70
     6
  9
$SURFU
 70
     6
  9
$SURFV
 70
     6
  9
$UCSNAME
  2

  9
$UCSORG
 10
0.0
 20
0.0
 30
0.0
  9
$UCSXDIR
 10
1.0
 20
0.0
 30
0.0
  9
$UCSYDIR
 10
0.0
 20
1.0
 30
0.0
  9
$PUCSNAME
  2

  9
$PUCSORG
 10
0.0
 20
0.0
 30
0.0
  9
$PUCSXDIR
 10
1.0
 20
0.0
 30
0.0
  9
$PUCSYDIR
 10
0.0
 20
1.0
 30
0.0
  9
$USERI1
 70
     0
  9
$USERI2
 70
     1
  9
$USERI3
 70
     0
  9
$USERI4
 70
     0
  9
$USERI5
 70
     0
  9
$USERR1
 40
0.0
  9
$USERR2
 40
0.0
  9
$USERR3
 40
0.0
  9
$USERR4
 40
0.0
  9
$USERR5
 40
0.0
  9
$WORLDVIEW
 70
     1
  9
$SHADEDGE
 70
     3
  9
$SHADEDIF
 70
    70
  9
$TILEMODE
 70
     1
  9
$MAXACTVP
 70
    16
  9
$PLIMCHECK
 70
     0
  9
$PEXTMIN
 10
1.0000000000000000E+020
 20
1.0000000000000000E+020
 30
1.0000000000000000E+020
  9
$PEXTMAX
 10
-1.0000000000000000E+020
 20
-1.0000000000000000E+020
 30
-1.0000000000000000E+020
  9
$PLIMMIN
 10
0.0
 20
0.0
  9
$PLIMMAX
 10
12.0
 20
9.0
  9
$UNITMODE
 70
     0
  9
$VISRETAIN
 70
     0
  9
$PLINEGEN
 70
     0
  9
$PSLTSCALE
 70
     0
  0
ENDSEC
  0
SECTION
  2
TABLES
  0
TABLE
  2
VPORT
 70
     1
  0
VPORT
  2
*ACTIVE
 70
     0
 10
0.0
 20
0.0
 11
1.0
 21
1.0
 12
99.809903319238202
 22
67.263172664752034
 13
0.0
 23
0.0
 14
5.0
 24
5.0
 15
5.0
 25
5.0
 16
0.0
 26
0.0
 36
1.0
 17
0.0
 27
0.0
 37
0.0
 40
142.07428270155481
 41
2.304913294797688
 42
50.0
 43
0.0
 44
0.0
 50
0.0
 51
0.0
 71
     0
 72
   500
 73
     1
 74
     0
 75
     0
 76
     0
 77
     0
 78
     2
  0
ENDTAB
  0
TABLE
  2
LTYPE
 70
     4
  0
LTYPE
  2
CONTINUOUS
 70
     0
  3
Solid Line
 72
    65
 73
     0
 40
0.0
  0
LTYPE
  2
CENTER
 70
     0
  3
____ _ ____ _ ____ _ ____ _ ____ _ ____ _ ____
 72
    65
 73
     4
 40
2.0
 49
1.25
 49
-0.25
 49
0.25
 49
-0.25
  0
LTYPE
  2
HIDDEN
 70
     0
  3
__ __ __ __ __ __ __ __ __ __ __ __ __ __ __ __
 72
    65
 73
     2
 40
0.375
 49
0.25
 49
-0.125
  0
LTYPE
  2
PHANTOM2
 70
     0
  3
___ _ _ ___ _ _ ___ _ _ ___ _ _
 72
    65
 73
     6
 40
1.25
 49
0.625
 49
-0.125
 49
0.125
 49
-0.125
 49
0.125
 49
-0.125
  0
ENDTAB
  0
TABLE
  2
LAYER
 70
     3
  0
LAYER
  2
0
 70
     0
 62
     7
  6
CONTINUOUS
  0
LAYER
  2
1
 70
     0
 62
     1
  6
CENTER
  0
LAYER
  2
2
 70
     0
 62
     2
  6
HIDDEN
  0
ENDTAB
  0
TABLE
  2
STYLE
 70
     2
  0
STYLE
  2
STANDARD
 70
     0
 40
0.0
 41
1.0
 50
0.0
 71
     0
 42
0.2
  3
TXT
  4
BIGFONT
  0
STYLE
  2
STANDARD1
 70
     0
 40
0.0
 41
1.0
 50
0.0
 71
     0
 42
3.0
  3
txt
  4

  0
ENDTAB
  0
TABLE
  2
VIEW
 70
     0
  0
ENDTAB
  0
TABLE
  2
UCS
 70
     0
  0
ENDTAB
  0
TABLE
  2
APPID
 70
     3
  0
APPID
  2
ACAD
 70
     0
  0
APPID
  2
ACAD_MLEADERVER
 70
     0
  0
APPID
  2
ACAD_NAV_VCDISPLAY
 70
     0
  0
ENDTAB
  0
TABLE
  2
DIMSTYLE
 70
     1
  0
DIMSTYLE
  2
STANDARD
 70
     0
  3

  4

  5

  6

  7

 40
1.0
 41
0.18
 42
0.0625
 43
0.38
 44
0.18
 45
0.0
 46
0.0
 47
0.0
 48
0.0
140
0.18
141
0.09
142
0.0
143
25.399999999999999
144
1.0
145
0.0
146
1.0
147
0.09
 71
     0
 72
     0
 73
     1
 74
     1
 75
     0
 76
     0
 77
     0
 78
     0
170
     0
171
     2
172
     0
173
     0
174
     0
175
     0
176
     0
177
     0
178
     0
  0
ENDTAB
  0
ENDSEC
  0
SECTION
  2
BLOCKS
  0
BLOCK
  8
0
  2
$MODEL_SPACE
 70
     0
 10
0.0
 20
0.0
 30
0.0
  3
$MODEL_SPACE
  1

  0
ENDBLK
  5
9
  8
0
  0
BLOCK
 67
     1
  8
0
  2
$PAPER_SPACE
 70
     0
 10
0.0
 20
0.0
 30
0.0
  3
$PAPER_SPACE
  1

  0
ENDBLK
  5
E
 67
     1
  8
0
  0
ENDSEC
  0
SECTION
  2
ENTITIES
  0
LINE
  5
26
  8
0
 10
166.6198057089241
 20
61.886792273269691
 30
0.0
 11
166.6198057089241
 21
131.88679227326969
 31
0.0
  0
LINE
  5
27
  8
0
 10
194.6198057089241
 20
61.886792273269691
 30
0.0
 11
194.6198057089241
 21
131.88679227326969
 31
0.0
  0
LINE
  5
28
  8
0
 10
172.1198057089241
 20
61.886792273269691
 30
0.0
 11
172.1198057089241
 21
131.88679227326969
 31
0.0
  0
LINE
  5
29
  8
0
 10
189.1198057089241
 20
61.886792273269691
 30
0.0
 11
189.1198057089241
 21
131.88679227326969
 31
0.0
  0
LINE
  5
2A
  8
0
 10
166.6198057089241
 20
61.886792273269691
 30
0.0
 11
172.1198057089241
 21
61.886792273269691
 31
0.0
  0
LINE
  5
2B
  8
0
 10
189.1198057089241
 20
61.886792273269691
 30
0.0
 11
194.6198057089241
 21
61.886792273269691
 31
0.0
  0
LINE
  5
2C
  8
2
 10
167.61980570892501
 20
79.386792273269691
 30
0.0
 11
167.61980570892501
 21
114.38679227326971
 31
0.0
  0
LINE
  5
2F
  8
2
 10
173.5198057089255
 20
115.38679227326971
 30
0.0
 11
173.5198057089255
 21
78.386792273269691
 31
0.0
  0
LINE
  5
30
  8
2
 10
175.1198057089241
 20
115.38679227326971
 30
0.0
 11
175.1198057089241
 21
78.386792273269691
 31
0.0
  0
LINE
  5
31
  8
2
 10
173.3698057089259
 20
115.38679227326971
 30
0.0
 11
173.3698057089241
 21
78.386792273269691
 31
0.0
  0
LINE
  5
32
  8
2
 10
186.1198057089241
 20
113.98679227327
 30
0.0
 11
186.1198057089241
 21
79.786792273270237
 31
0.0
  0
LINE
  5
33
  8
0
 10
172.51980570892459
 20
73.886792273269691
 30
0.0
 11
188.7198057089245
 21
73.886792273269691
 31
0.0
  0
CIRCLE
  5
34
  8
2
 10
180.6198057089241
 20
84.386792273269705
 30
0.0
 40
3.0
  0
LINE
  5
35
  8
2
 10
175.71980570892441
 20
89.386792273269705
 30
0.0
 11
185.5198057089255
 21
89.386792273269705
 31
0.0
  0
LINE
  5
36
  8
2
 10
175.1198057089241
 20
79.386792273269691
 30
0.0
 11
185.71980570892441
 21
79.386792273269691
 31
0.0
  0
ARC
  5
37
  8
0
 10
172.51980570892459
 20
73.486792273270055
 30
0.0
 40
0.4
 50
90.0
 51
180.0
  0
LINE
  5
38
  8
2
 10
167.61980570892501
 20
79.386792273269691
 30
0.0
 11
173.3698057089241
 21
79.386792273269691
 31
0.0
  0
LINE
  5
39
  8
2
 10
167.61980570892501
 20
79.386792273269691
 30
0.0
 11
166.61980570892501
 21
78.809442004080609
 31
0.0
  0
LINE
  5
3A
  8
2
 10
175.1198057089241
 20
82.886792273269691
 30
0.0
 11
178.02172949757181
 21
82.886792273269691
 31
0.0
  0
ARC
  5
3B
  8
2
 10
175.71980570892441
 20
88.786792273270237
 30
0.0
 40
0.6
 50
90.0
 51
180.0
  0
LINE
  5
3C
  8
2
 10
175.1198057089241
 20
85.886792273269677
 30
0.0
 11
178.02172949757181
 21
85.886792273269677
 31
0.0
  0
LINE
  5
3D
  8
2
 10
173.5198057089255
 20
80.91807285059889
 30
0.0
 11
175.1198057089241
 21
80.91807285059889
 31
0.0
  0
LINE
  5
3E
  8
2
 10
175.1198057089241
 20
78.386792273269691
 30
0.0
 11
173.3698057089241
 21
78.386792273269691
 31
0.0
  0
ARC
  5
3F
  8
2
 10
175.71980570892441
 20
79.986792273270055
 30
0.0
 40
0.6
 50
180.0
 51
270.0
  0
ARC
  5
40
  8
0
 10
188.7198057089245
 20
73.486792273270055
 30
0.0
 40
0.4
 50
0.0
 51
90.0
  0
LINE
  5
41
  8
2
 10
183.2178819202781
 20
82.886792273269691
 30
0.0
 11
186.1198057089241
 21
82.886792273269691
 31
0.0
  0
ARC
  5
42
  8
2
 10
185.5198057089255
 20
88.786792273270237
 30
0.0
 40
0.6
 50
0.0
 51
90.0
  0
LINE
  5
43
  8
2
 10
183.2178819202781
 20
85.886792273269677
 30
0.0
 11
186.1198057089241
 21
85.886792273269677
 31
0.0
  0
ARC
  5
44
  8
2
 10
185.71980570892441
 20
79.786792273270237
 30
0.0
 40
0.4
 50
270.0
 51
0.0
  0
ARC
  5
45
  8
2
 10
185.5198057089255
 20
79.986792273270055
 30
0.0
 40
0.6
 50
270.0
 51
0.0
  0
LINE
  5
46
  8
2
 10
194.6198057089241
 20
82.386792273269691
 30
0.0
 11
186.1198057089259
 21
82.386792273269691
 31
0.0
  0
CIRCLE
  5
47
  8
2
 10
180.6198057089241
 20
109.38679227326971
 30
0.0
 40
3.0
  0
LINE
  5
48
  8
2
 10
175.71980570892441
 20
104.38679227326971
 30
0.0
 11
185.5198057089255
 21
104.38679227326971
 31
0.0
  0
LINE
  5
49
  8
0
 10
172.51980570892459
 20
119.88679227326971
 30
0.0
 11
188.7198057089245
 21
119.88679227326971
 31
0.0
  0
LINE
  5
4A
  8
2
 10
175.1198057089241
 20
114.38679227326971
 30
0.0
 11
185.71980570892441
 21
114.38679227326971
 31
0.0
  0
LINE
  5
4B
  8
2
 10
175.1198057089241
 20
107.88679227326971
 30
0.0
 11
178.02172949757181
 21
107.88679227326971
 31
0.0
  0
ARC
  5
4C
  8
2
 10
175.71980570892441
 20
104.98679227327
 30
0.0
 40
0.6
 50
180.0
 51
270.0
  0
ARC
  5
4D
  8
0
 10
172.51980570892459
 20
120.2867922732698
 30
0.0
 40
0.4
 50
180.0
 51
270.0
  0
LINE
  5
4E
  8
2
 10
167.61980570892501
 20
114.38679227326971
 30
0.0
 11
173.3698057089241
 21
114.38679227326971
 31
0.0
  0
LINE
  5
4F
  8
0
 10
166.6198057089241
 20
131.88679227326969
 30
0.0
 11
172.1198057089241
 21
131.88679227326969
 31
0.0
  0
LINE
  5
50
  8
2
 10
167.61980570892501
 20
114.38679227326971
 30
0.0
 11
166.61980570892501
 21
114.9641425424597
 31
0.0
  0
LINE
  5
52
  8
2
 10
175.1198057089241
 20
110.88679227326971
 30
0.0
 11
178.02172949757181
 21
110.88679227326971
 31
0.0
  0
ARC
  5
53
  8
2
 10
175.71980570892441
 20
113.7867922732697
 30
0.0
 40
0.6
 50
90.0
 51
180.0
  0
LINE
  5
54
  8
2
 10
173.5198057089255
 20
112.8555116959414
 30
0.0
 11
175.1198057089241
 21
112.8555116959414
 31
0.0
  0
LINE
  5
55
  8
2
 10
175.1198057089241
 20
115.38679227326971
 30
0.0
 11
173.3698057089241
 21
115.38679227326971
 31
0.0
  0
LINE
  5
56
  8
2
 10
183.2178819202781
 20
107.88679227326971
 30
0.0
 11
186.1198057089241
 21
107.88679227326971
 31
0.0
  0
ARC
  5
57
  8
2
 10
185.5198057089255
 20
104.98679227327
 30
0.0
 40
0.6
 50
270.0
 51
0.0
  0
ARC
  5
58
  8
0
 10
188.7198057089245
 20
120.2867922732698
 30
0.0
 40
0.4
 50
270.0
 51
0.0
  0
LINE
  5
5A
  8
2
 10
183.2178819202781
 20
110.88679227326971
 30
0.0
 11
186.1198057089241
 21
110.88679227326971
 31
0.0
  0
ARC
  5
5B
  8
2
 10
185.5198057089255
 20
113.78679227327019
 30
0.0
 40
0.6
 50
0.0
 51
90.0
  0
ARC
  5
5C
  8
2
 10
185.71980570892441
 20
113.98679227327
 30
0.0
 40
0.4
 50
0.0
 51
90.0
  0
LINE
  5
5D
  8
0
 10
189.1198057089241
 20
131.88679227326969
 30
0.0
 11
194.6198057089241
 21
131.88679227326969
 31
0.0
  0
LINE
  5
5E
  8
2
 10
194.6198057089241
 20
111.38679227326971
 30
0.0
 11
186.1198057089259
 21
111.38679227326971
 31
0.0
  0
LINE
  5
5F
  8
1
 10
161.6198057089241
 20
96.886792273269705
 30
0.0
 11
199.6198057089241
 21
96.886792273269705
 31
0.0
  0
CIRCLE
  5
62
  8
0
 10
71.619805708924105
 20
96.886792273269705
 30
0.0
 40
35.0
  0
CIRCLE
  5
63
  8
2
 10
71.619805708924105
 20
96.886792273269705
 30
0.0
 40
23.0
  0
LINE
  5
64
  8
1
 10
71.619805708924105
 20
136.88679227326969
 30
0.0
 11
71.619805708924105
 21
56.886792273269691
 31
0.0
  0
LINE
  5
66
  8
1
 10
31.619805708924101
 20
96.886792273269705
 30
0.0
 11
111.6198057089241
 21
96.886792273269705
 31
0.0
  0
CIRCLE
  5
67
  8
0
 10
71.619805708924105
 20
96.886792273269705
 30
0.0
 40
7.5
  0
CIRCLE
  5
68
  8
0
 10
71.619805708924105
 20
96.886792273269705
 30
0.0
 40
17.5
  0
CIRCLE
  5
69
  8
2
 10
71.619805708924105
 20
96.886792273269705
 30
0.0
 40
18.5
  0
CIRCLE
  5
6A
  8
0
 10
85.939468744103195
 20
103.5641608087727
 30
0.0
 40
1.25
  0
ARC
  5
6B
  8
0
 10
85.939468744103195
 20
103.5641608087727
 30
0.0
 40
2.4999999999999818
 50
124.1040491338254
 51
285.89595086617629
  0
LINE
  5
6C
  8
0
 10
86.624196871754066
 20
101.1597591386677
 30
0.0
 11
88.450617399659038
 21
101.679889166826
 31
0.0
  0
LINE
  5
6D
  8
0
 10
84.537724962151117
 20
105.63421258826
 30
0.0
 11
85.545618067777454
 21
106.31671140673591
 31
0.0
  0
ARC
  5
6E
  8
0
 10
72.619805708924105
 20
96.886792273269705
 30
0.0
 40
16.0
 50
36.112310385599713
 51
323.88768961440019
  0
LINE
  5
6F
  8
0
 10
84.537724962151117
 20
88.139371958279298
 30
0.0
 11
85.545618067777454
 21
87.456873139803406
 31
0.0
  0
LINE
  5
70
  8
0
 10
86.624196871754066
 20
92.613825407871616
 30
0.0
 11
88.450617399659038
 21
92.093695379713324
 31
0.0
  0
ARC
  5
71
  8
0
 10
85.939468744103195
 20
90.209423737766642
 30
0.0
 40
2.4999999999999818
 50
74.104049133823665
 51
235.8959508661745
  0
CIRCLE
  5
72
  8
0
 10
85.939468744103195
 20
90.209423737766642
 30
0.0
 40
1.25
  0
LINE
  5
73
  8
2
 10
88.450617399659038
 20
92.093695379713324
 30
0.0
 11
89.41237806770107
 21
91.819804128652947
 31
0.0
  0
LINE
  5
74
  8
2
 10
88.450617399659038
 20
101.679889166826
 30
0.0
 11
89.41237806770107
 21
101.95378041788641
 31
0.0
  0
TEXT
  5
13E
  8
0
 62
     3
 10
0.0
 20
0.0
 30
0.0
 40
10.0
  1
GRL70S-H
  7
STANDARD1
  0
ENDSEC
  0
EOF
