  0
SECTION
  2
HEADER
  9
$ACADVER
  1
AC1009
  9
$INSBASE
 10
0.0
 20
0.0
 30
0.0
  9
$EXTMIN
 10
0.0
 20
-2.960436562073669
 30
0.0
  9
$EXTMAX
 10
179.4905061115885
 20
114.4932919187243
 30
0.0
  9
$LIMMIN
 10
0.0
 20
0.0
  9
$LIMMAX
 10
187.5
 20
135.0
  9
$ORTHOMODE
 70
     1
  9
$REGENMODE
 70
     1
  9
$FILLMODE
 70
     1
  9
$QTEXTMODE
 70
     0
  9
$MIRRTEXT
 70
     0
  9
$DRAGMODE
 70
     2
  9
$LTSCALE
 40
10.0
  9
$OSMODE
 70
  3071
  9
$ATTMODE
 70
     1
  9
$TEXTSIZE
 40
0.2
  9
$TRACEWID
 40
0.05
  9
$TEXTSTYLE
  7
STANDARD
  9
$CLAYER
  8
0
  9
$CELTYPE
  6
BYLAYER
  9
$CECOLOR
 62
   256
  9
$DIMSCALE
 40
0.5
  9
$DIMASZ
 40
3.0
  9
$DIMEXO
 40
2.0
  9
$DIMDLI
 40
0.3799999999999999
  9
$DIMRND
 40
0.0
  9
$DIMDLE
 40
0.0
  9
$DIMEXE
 40
2.0
  9
$DIMTP
 40
0.0
  9
$DIMTM
 40
0.0
  9
$DIMTXT
 40
3.2000000000000002
  9
$DIMCEN
 40
0.09
  9
$DIMTSZ
 40
0.0
  9
$DIMTOL
 70
     0
  9
$DIMLIM
 70
     0
  9
$DIMTIH
 70
     0
  9
$DIMTOH
 70
     0
  9
$DIMSE1
 70
     0
  9
$DIMSE2
 70
     0
  9
$DIMTAD
 70
     1
  9
$DIMZIN
 70
     0
  9
$DIMBLK
  1

  9
$DIMASO
 70
     0
  9
$DIMSHO
 70
     0
  9
$DIMPOST
  1

  9
$DIMAPOST
  1

  9
$DIMALT
 70
     0
  9
$DIMALTD
 70
     2
  9
$DIMALTF
 40
25.399999999999999
  9
$DIMLFAC
 40
1.0
  9
$DIMTOFL
 70
     0
  9
$DIMTVP
 40
1.6000000000000001
  9
$DIMTIX
 70
     1
  9
$DIMSOXD
 70
     0
  9
$DIMSAH
 70
     0
  9
$DIMBLK1
  1

  9
$DIMBLK2
  1

  9
$DIMSTYLE
  2
STANDARD
  9
$DIMCLRD
 70
     0
  9
$DIMCLRE
 70
     0
  9
$DIMCLRT
 70
     0
  9
$DIMTFAC
 40
1.0
  9
$DIMGAP
 40
0.09
  9
$LUNITS
 70
     2
  9
$LUPREC
 70
     4
  9
$SKETCHINC
 40
0.1
  9
$FILLETRAD
 40
0.4
  9
$AUNITS
 70
     0
  9
$AUPREC
 70
     0
  9
$MENU
  1
E:\r13\win\SUPPORT\ACAD
  9
$ELEVATION
 40
0.0
  9
$PELEVATION
 40
0.0
  9
$THICKNESS
 40
0.0
  9
$LIMCHECK
 70
     0
  9
$BLIPMODE
 70
     0
  9
$CHAMFERA
 40
0.0
  9
$CHAMFERB
 40
0.0
  9
$SKPOLY
 70
     0
  9
$TDCREATE
 40
2451824.6906229062
  9
$TDUPDATE
 40
2456598.6900737151
  9
$TDINDWG
 40
0.0224348611
  9
$TDUSRTIMER
 40
0.0224348611
  9
$USRTIMER
 70
     1
  9
$ANGBASE
 50
0.0
  9
$ANGDIR
 70
     0
  9
$PDMODE
 70
     0
  9
$PDSIZE
 40
0.0
  9
$PLINEWID
 40
0.0
  9
$COORDS
 70
     1
  9
$SPLFRAME
 70
     0
  9
$SPLINETYPE
 70
     6
  9
$SPLINESEGS
 70
     8
  9
$ATTDIA
 70
     0
  9
$ATTREQ
 70
     1
  9
$HANDLING
 70
     1
  9
$HANDSEED
  5
673
  9
$SURFTAB1
 70
     6
  9
$SURFTAB2
 70
     6
  9
$SURFTYPE
 70
     6
  9
$SURFU
 70
     6
  9
$SURFV
 70
     6
  9
$UCSNAME
  2

  9
$UCSORG
 10
0.0
 20
0.0
 30
0.0
  9
$UCSXDIR
 10
1.0
 20
0.0
 30
0.0
  9
$UCSYDIR
 10
0.0
 20
1.0
 30
0.0
  9
$PUCSNAME
  2

  9
$PUCSORG
 10
0.0
 20
0.0
 30
0.0
  9
$PUCSXDIR
 10
1.0
 20
0.0
 30
0.0
  9
$PUCSYDIR
 10
0.0
 20
1.0
 30
0.0
  9
$USERI1
 70
     0
  9
$USERI2
 70
     1
  9
$USERI3
 70
     0
  9
$USERI4
 70
     0
  9
$USERI5
 70
     0
  9
$USERR1
 40
0.0
  9
$USERR2
 40
0.0
  9
$USERR3
 40
0.0
  9
$USERR4
 40
0.0
  9
$USERR5
 40
0.0
  9
$WORLDVIEW
 70
     1
  9
$SHADEDGE
 70
     3
  9
$SHADEDIF
 70
    70
  9
$TILEMODE
 70
     1
  9
$MAXACTVP
 70
    16
  9
$PLIMCHECK
 70
     0
  9
$PEXTMIN
 10
1.0000000000000000E+020
 20
1.0000000000000000E+020
 30
1.0000000000000000E+020
  9
$PEXTMAX
 10
-1.0000000000000000E+020
 20
-1.0000000000000000E+020
 30
-1.0000000000000000E+020
  9
$PLIMMIN
 10
0.0
 20
0.0
  9
$PLIMMAX
 10
12.0
 20
9.0
  9
$UNITMODE
 70
     0
  9
$VISRETAIN
 70
     0
  9
$PLINEGEN
 70
     0
  9
$PSLTSCALE
 70
     0
  0
ENDSEC
  0
SECTION
  2
TABLES
  0
TABLE
  2
VPORT
 70
     1
  0
VPORT
  2
*ACTIVE
 70
     0
 10
0.0
 20
0.0
 11
1.0
 21
1.0
 12
93.74713919532617
 22
66.313465060797697
 13
0.0
 23
0.0
 14
5.0
 24
5.0
 15
5.0
 25
5.0
 16
0.0
 26
0.0
 36
1.0
 17
0.0
 27
0.0
 37
0.0
 40
140.15365342376049
 41
2.304913294797688
 42
50.0
 43
0.0
 44
0.0
 50
0.0
 51
0.0
 71
     0
 72
   500
 73
     1
 74
     0
 75
     0
 76
     0
 77
     0
 78
     2
  0
ENDTAB
  0
TABLE
  2
LTYPE
 70
     4
  0
LTYPE
  2
CONTINUOUS
 70
     0
  3
Solid Line
 72
    65
 73
     0
 40
0.0
  0
LTYPE
  2
CENTER
 70
     0
  3
____ _ ____ _ ____ _ ____ _ ____ _ ____ _ ____
 72
    65
 73
     4
 40
2.0
 49
1.25
 49
-0.25
 49
0.25
 49
-0.25
  0
LTYPE
  2
HIDDEN
 70
     0
  3
__ __ __ __ __ __ __ __ __ __ __ __ __ __ __ __
 72
    65
 73
     2
 40
0.375
 49
0.25
 49
-0.125
  0
LTYPE
  2
PHANTOM2
 70
     0
  3
___ _ _ ___ _ _ ___ _ _ ___ _ _
 72
    65
 73
     6
 40
1.25
 49
0.625
 49
-0.125
 49
0.125
 49
-0.125
 49
0.125
 49
-0.125
  0
ENDTAB
  0
TABLE
  2
LAYER
 70
     3
  0
LAYER
  2
0
 70
     0
 62
     7
  6
CONTINUOUS
  0
LAYER
  2
1
 70
     0
 62
     1
  6
CENTER
  0
LAYER
  2
2
 70
     0
 62
     2
  6
HIDDEN
  0
ENDTAB
  0
TABLE
  2
STYLE
 70
     2
  0
STYLE
  2
STANDARD
 70
     0
 40
0.0
 41
1.0
 50
0.0
 71
     0
 42
0.2
  3
TXT
  4
BIGFONT
  0
STYLE
  2
STANDARD1
 70
     0
 40
0.0
 41
1.0
 50
0.0
 71
     0
 42
3.0
  3
txt
  4

  0
ENDTAB
  0
TABLE
  2
VIEW
 70
     0
  0
ENDTAB
  0
TABLE
  2
UCS
 70
     0
  0
ENDTAB
  0
TABLE
  2
APPID
 70
     3
  0
APPID
  2
ACAD
 70
     0
  0
APPID
  2
ACAD_MLEADERVER
 70
     0
  0
APPID
  2
ACAD_NAV_VCDISPLAY
 70
     0
  0
ENDTAB
  0
TABLE
  2
DIMSTYLE
 70
     1
  0
DIMSTYLE
  2
STANDARD
 70
     0
  3

  4

  5

  6

  7

 40
1.0
 41
0.18
 42
0.0625
 43
0.38
 44
0.18
 45
0.0
 46
0.0
 47
0.0
 48
0.0
140
0.18
141
0.09
142
0.0
143
25.399999999999999
144
1.0
145
0.0
146
1.0
147
0.09
 71
     0
 72
     0
 73
     1
 74
     1
 75
     0
 76
     0
 77
     0
 78
     0
170
     0
171
     2
172
     0
173
     0
174
     0
175
     0
176
     0
177
     0
178
     0
  0
ENDTAB
  0
ENDSEC
  0
SECTION
  2
BLOCKS
  0
BLOCK
  8
0
  2
$MODEL_SPACE
 70
     0
 10
0.0
 20
0.0
 30
0.0
  3
$MODEL_SPACE
  1

  0
ENDBLK
  5
9
  8
0
  0
BLOCK
 67
     1
  8
0
  2
$PAPER_SPACE
 70
     0
 10
0.0
 20
0.0
 30
0.0
  3
$PAPER_SPACE
  1

  0
ENDBLK
  5
E
 67
     1
  8
0
  0
ENDSEC
  0
SECTION
  2
ENTITIES
  0
CIRCLE
  5
41D
  8
2
 10
51.490506111588672
 20
79.49329191872431
 30
0.0
 40
16.849999999999959
  0
CIRCLE
  5
41E
  8
2
 10
51.490506111588672
 20
79.49329191872431
 30
0.0
 40
19.0
  0
LINE
  5
41F
  8
0
 10
146.7361125998263
 20
109.4932919187243
 30
0.0
 11
146.73611259982761
 21
49.493291918724431
 31
0.0
  0
LINE
  5
420
  8
0
 10
169.24489962335059
 20
109.4932919187243
 30
0.0
 11
169.24489962335059
 21
49.49329191872431
 31
0.0
  0
LINE
  5
421
  8
1
 10
157.9905061115887
 20
114.4932919187243
 30
0.0
 11
157.99050611158859
 21
44.49329191872431
 31
0.0
  0
LINE
  5
422
  8
0
 10
160.4905061115887
 20
101.4713682342808
 30
0.0
 11
169.24489962335059
 21
109.4932919187243
 31
0.0
  0
LINE
  5
423
  8
0
 10
155.4905061115887
 20
101.4713682342804
 30
0.0
 11
146.7361125998263
 21
109.4932919187243
 31
0.0
  0
LINE
  5
424
  8
0
 10
169.24489962335059
 20
109.4932919187243
 30
0.0
 11
174.49050611158839
 21
109.4932919187243
 31
0.0
1001
ACAD
1000
ASC_BOUNDS
1002
{
1070
    19
1002
}
  0
LINE
  5
425
  8
0
 10
141.49050611158859
 20
109.4932919187243
 30
0.0
 11
146.7361125998261
 21
109.4932919187243
 31
0.0
1001
ACAD
1000
ASC_BOUNDS
1002
{
1070
    19
1002
}
  0
ARC
  5
426
  8
2
 10
167.59050611158889
 20
95.093291918724219
 30
0.0
 40
0.4000000000000001
 50
0.0
 51
90.0
  0
LINE
  5
427
  8
2
 10
147.9905061115887
 20
96.343291918724276
 30
0.0
 11
146.64050611158879
 21
96.343291918724276
 31
0.0
  0
LINE
  5
428
  8
2
 10
142.4905061115889
 20
95.493291918724253
 30
0.0
 11
146.64050611158879
 21
95.493291918724367
 31
0.0
  0
LINE
  5
429
  8
0
 10
155.4905061115887
 20
98.49329191872431
 30
0.0
 11
160.4905061115887
 21
98.493291918724537
 31
0.0
1001
ACAD
1000
ASC_BOUNDS
1002
{
1070
    19
1002
}
  0
LINE
  5
42A
  8
2
 10
147.9905061115887
 20
95.493291918724196
 30
0.0
 11
167.59050611158889
 21
95.493291918724196
 31
0.0
  0
ARC
  5
42B
  8
2
 10
167.59050611158889
 20
63.893291918724287
 30
0.0
 40
0.4000000000000001
 50
270.0
 51
0.0
  0
LINE
  5
42C
  8
0
 10
160.49050611158549
 20
101.471368234278
 30
0.0
 11
160.4905061115889
 21
57.515215603167633
 31
0.0
  0
LINE
  5
42D
  8
0
 10
155.4905061115887
 20
101.4713682342804
 30
0.0
 11
155.4905061115887
 21
57.515215603167739
 31
0.0
  0
LINE
  5
42E
  8
2
 10
147.9905061115887
 20
62.643291918724231
 30
0.0
 11
146.64050611158879
 21
62.643291918724231
 31
0.0
  0
LINE
  5
42F
  8
2
 10
142.4905061115889
 20
63.493291918724253
 30
0.0
 11
146.64050611158879
 21
63.493291918724132
 31
0.0
  0
LINE
  5
430
  8
0
 10
155.4905061115887
 20
60.49329191872431
 30
0.0
 11
160.4905061115887
 21
60.493291918724204
 31
0.0
1001
ACAD
1000
ASC_BOUNDS
1002
{
1070
    19
1002
}
  0
LINE
  5
431
  8
2
 10
147.9905061115887
 20
63.493291918724204
 30
0.0
 11
167.59050611158889
 21
63.493291918724204
 31
0.0
  0
LINE
  5
432
  8
2
 10
167.9905061115889
 20
95.093291918724219
 30
0.0
 11
167.99050611158879
 21
63.893291918724287
 31
0.0
  0
LINE
  5
433
  8
2
 10
147.9905061115887
 20
96.343291918724276
 30
0.0
 11
147.9905061115887
 21
62.643291918724231
 31
0.0
  0
LINE
  5
434
  8
2
 10
146.64050611158879
 20
96.343291918724276
 30
0.0
 11
146.64050611158879
 21
62.643291918724231
 31
0.0
  0
LINE
  5
435
  8
2
 10
142.4905061115889
 20
63.493291918724253
 30
0.0
 11
142.49050611158799
 21
95.493291918724253
 31
0.0
  0
LINE
  5
436
  8
2
 10
174.4905061115889
 20
66.493291918724196
 30
0.0
 11
167.9905061115891
 21
66.493291918724196
 31
0.0
  0
LINE
  5
437
  8
2
 10
174.4905061115889
 20
92.493291918724196
 30
0.0
 11
167.99050611158879
 21
92.493291918724196
 31
0.0
  0
LINE
  5
438
  8
0
 10
169.24489962335079
 20
49.49329191872431
 30
0.0
 11
174.4905061115889
 21
49.49329191872431
 31
0.0
1001
ACAD
1000
ASC_BOUNDS
1002
{
1070
    19
1002
}
  0
LINE
  5
439
  8
0
 10
155.4905061115887
 20
57.515215603168087
 30
0.0
 11
146.7361125998263
 21
49.49329191872431
 31
0.0
  0
LINE
  5
43A
  8
0
 10
160.4905061115887
 20
57.515215603167633
 30
0.0
 11
169.24489962335059
 21
49.49329191872431
 31
0.0
  0
LINE
  5
43B
  8
1
 10
136.4905061115887
 20
79.49329191872431
 30
0.0
 11
179.4905061115885
 21
79.49329191872431
 31
0.0
  0
LINE
  5
43C
  8
0
 10
141.49050611158859
 20
49.49329191872431
 30
0.0
 11
146.7361125998263
 21
49.493291918724417
 31
0.0
1001
ACAD
1000
ASC_BOUNDS
1002
{
1070
    19
1002
}
  0
LINE
  5
43D
  8
2
 10
142.4905061115889
 20
95.493291918724253
 30
0.0
 11
141.49050611158859
 21
96.070642187914018
 31
0.0
  0
LINE
  5
43E
  8
2
 10
142.4905061115889
 20
63.493291918724253
 30
0.0
 11
141.49050611158859
 21
62.915941649534723
 31
0.0
  0
LINE
  5
43F
  8
0
 10
174.49050611158839
 20
109.4932919187243
 30
0.0
 11
174.49050611158859
 21
49.49329191872431
 31
0.0
1001
ACAD
1000
ASC_BOUNDS
1002
{
1070
    19
1002
}
  0
LINE
  5
440
  8
0
 10
141.49050611158859
 20
109.4932919187243
 30
0.0
 11
141.49050611158859
 21
49.49329191872431
 31
0.0
1001
ACAD
1000
ASC_BOUNDS
1002
{
1070
    19
1002
}
  0
LINE
  5
441
  8
2
 10
164.99050611158839
 20
91.99329191872431
 30
0.0
 11
167.99050611158839
 21
91.99329191872431
 31
0.0
  0
ARC
  5
442
  8
2
 10
167.390506111588
 20
94.893291918724174
 30
0.0
 40
0.6
 50
0.0
 51
90.0
1001
ACAD
1000
ASC_BOUNDS
1002
{
1070
    19
1002
}
  0
ARC
  5
443
  8
2
 10
158.59050611158881
 20
94.893291918724174
 30
0.0
 40
0.6
 50
90.0
 51
180.0
  0
ARC
  5
444
  8
2
 10
157.39050611158811
 20
94.893291918724174
 30
0.0
 40
0.6
 50
0.0
 51
90.0
1001
ACAD
1000
ASC_BOUNDS
1002
{
1070
    19
1002
}
  0
LINE
  5
445
  8
2
 10
157.99050611158839
 20
91.99329191872431
 30
0.0
 11
160.99050611158839
 21
91.99329191872431
 31
0.0
  0
LINE
  5
446
  8
2
 10
164.99050611158839
 20
88.993291918724296
 30
0.0
 11
167.99050611158839
 21
88.993291918724296
 31
0.0
  0
ARC
  5
447
  8
2
 10
167.390506111588
 20
86.093291918724219
 30
0.0
 40
0.6
 50
270.0
 51
0.0
  0
ARC
  5
448
  8
2
 10
158.59050611158881
 20
86.093291918724219
 30
0.0
 40
0.6
 50
180.0
 51
270.0
  0
ARC
  5
449
  8
2
 10
157.39050611158811
 20
86.093291918724219
 30
0.0
 40
0.6
 50
270.0
 51
0.0
  0
LINE
  5
44A
  8
2
 10
157.99050611158839
 20
88.993291918724296
 30
0.0
 11
160.99050611158839
 21
88.993291918724296
 31
0.0
  0
LINE
  5
44B
  8
2
 10
158.59050611158881
 20
85.49329191872431
 30
0.0
 11
167.390506111588
 21
85.49329191872431
 31
0.0
  0
CIRCLE
  5
44C
  8
2
 10
162.99050611158839
 20
90.49329191872431
 30
0.0
 40
2.5
  0
LINE
  5
44D
  8
2
 10
164.99050611158839
 20
69.99329191872431
 30
0.0
 11
167.99050611158839
 21
69.99329191872431
 31
0.0
  0
ARC
  5
44E
  8
2
 10
167.390506111588
 20
72.893291918724401
 30
0.0
 40
0.6
 50
0.0
 51
90.0
  0
ARC
  5
44F
  8
2
 10
158.59050611158881
 20
72.893291918724401
 30
0.0
 40
0.6
 50
90.0
 51
180.0
  0
ARC
  5
450
  8
2
 10
157.39050611158811
 20
72.893291918724401
 30
0.0
 40
0.6
 50
0.0
 51
90.0
  0
LINE
  5
451
  8
2
 10
157.99050611158839
 20
69.99329191872431
 30
0.0
 11
160.99050611158839
 21
69.99329191872431
 31
0.0
  0
LINE
  5
452
  8
2
 10
158.59050611158881
 20
73.49329191872431
 30
0.0
 11
167.390506111588
 21
73.49329191872431
 31
0.0
  0
LINE
  5
453
  8
2
 10
164.99050611158839
 20
66.99329191872431
 30
0.0
 11
167.99050611158839
 21
66.99329191872431
 31
0.0
  0
ARC
  5
454
  8
2
 10
167.390506111588
 20
64.093291918724447
 30
0.0
 40
0.6
 50
270.0
 51
0.0
  0
LINE
  5
455
  8
2
 10
157.99050611158839
 20
66.99329191872431
 30
0.0
 11
160.99050611158839
 21
66.99329191872431
 31
0.0
  0
ARC
  5
456
  8
2
 10
158.59050611158881
 20
64.093291918724447
 30
0.0
 40
0.6
 50
180.0
 51
270.0
  0
ARC
  5
457
  8
2
 10
157.39050611158811
 20
64.093291918724447
 30
0.0
 40
0.6
 50
270.0
 51
0.0
  0
CIRCLE
  5
458
  8
2
 10
162.99050611158839
 20
68.49329191872431
 30
0.0
 40
2.5
  0
LINE
  5
459
  8
2
 10
157.99050611158839
 20
94.893291918724174
 30
0.0
 11
157.99050611158879
 21
64.093291918724447
 31
0.0
1001
ACAD
1000
ASC_BOUNDS
1002
{
1070
    19
1002
}
  0
ARC
  5
45A
  8
2
 10
148.59050611158881
 20
94.893291918724174
 30
0.0
 40
0.6
 50
90.0
 51
180.0
  0
LINE
  5
45B
  8
2
 10
146.7905061115888
 20
93.993722946800574
 30
0.0
 11
147.9905061115887
 21
93.993722946800574
 31
0.0
  0
LINE
  5
45C
  8
2
 10
147.99050611158839
 20
91.99329191872431
 30
0.0
 11
150.99050611158839
 21
91.99329191872431
 31
0.0
  0
ARC
  5
45D
  8
2
 10
148.59050611158881
 20
86.093291918724219
 30
0.0
 40
0.6
 50
180.0
 51
270.0
  0
LINE
  5
45E
  8
2
 10
147.99050611158839
 20
88.993291918724296
 30
0.0
 11
150.99050611158839
 21
88.993291918724296
 31
0.0
  0
CIRCLE
  5
45F
  8
2
 10
152.99050611158839
 20
90.49329191872431
 30
0.0
 40
2.5
  0
ARC
  5
460
  8
2
 10
148.59050611158881
 20
72.893291918724401
 30
0.0
 40
0.6
 50
90.0
 51
180.0
  0
LINE
  5
461
  8
2
 10
147.99050611158839
 20
69.99329191872431
 30
0.0
 11
150.99050611158839
 21
69.99329191872431
 31
0.0
  0
LINE
  5
462
  8
2
 10
146.7905061115888
 20
64.992860890648046
 30
0.0
 11
147.9905061115887
 21
64.992860890648046
 31
0.0
  0
ARC
  5
463
  8
2
 10
148.59050611158881
 20
64.093291918724447
 30
0.0
 40
0.6
 50
180.0
 51
270.0
  0
LINE
  5
464
  8
2
 10
147.99050611158839
 20
66.99329191872431
 30
0.0
 11
150.99050611158839
 21
66.99329191872431
 31
0.0
  0
CIRCLE
  5
465
  8
2
 10
152.99050611158839
 20
68.49329191872431
 30
0.0
 40
2.5
  0
LINE
  5
466
  8
2
 10
146.7905061115888
 20
96.343291918724461
 30
0.0
 11
146.7905061115888
 21
62.643291918724167
 31
0.0
  0
LINE
  5
467
  8
2
 10
148.59050611158881
 20
73.49329191872431
 30
0.0
 11
157.39050611158811
 21
73.49329191872431
 31
0.0
  0
LINE
  5
468
  8
2
 10
154.99050611158839
 20
69.99329191872431
 30
0.0
 11
157.99050611158839
 21
69.99329191872431
 31
0.0
  0
LINE
  5
469
  8
2
 10
154.99050611158839
 20
66.99329191872431
 30
0.0
 11
157.99050611158839
 21
66.99329191872431
 31
0.0
  0
LINE
  5
46A
  8
2
 10
148.59050611158881
 20
85.49329191872431
 30
0.0
 11
157.39050611158811
 21
85.49329191872431
 31
0.0
  0
LINE
  5
46B
  8
2
 10
154.99050611158839
 20
91.99329191872431
 30
0.0
 11
157.99050611158839
 21
91.99329191872431
 31
0.0
  0
LINE
  5
46C
  8
2
 10
154.99050611158839
 20
88.993291918724296
 30
0.0
 11
157.99050611158839
 21
88.993291918724296
 31
0.0
  0
LINE
  5
46D
  8
1
 10
86.490506111588687
 20
79.49329191872431
 30
0.0
 11
16.490506111588669
 21
79.49329191872431
 31
0.0
  0
LINE
  5
46E
  8
1
 10
51.490506111588672
 20
114.4932919187243
 30
0.0
 11
51.490506111588672
 21
44.49329191872431
 31
0.0
  0
CIRCLE
  5
46F
  8
0
 10
51.490506111588672
 20
79.49329191872431
 30
0.0
 40
30.0
  0
CIRCLE
  5
470
  8
0
 10
51.490506111588672
 20
79.49329191872431
 30
0.0
 40
6.0
  0
CIRCLE
  5
471
  8
0
 10
51.490506111588552
 20
79.49329191872431
 30
0.0
 40
16.0
  0
ARC
  5
472
  8
0
 10
52.690506111588597
 20
79.49329191872431
 30
0.0
 40
14.550000000000001
 50
37.711404397750307
 51
322.2885956022497
  0
LINE
  5
473
  8
0
 10
62.84442302617861
 20
87.443390130527007
 30
0.0
 11
64.201037248178054
 21
88.393301635213618
 31
0.0
  0
LINE
  5
474
  8
0
 10
64.878791783099132
 20
83.080672252442625
 30
0.0
 11
66.945319332213728
 21
83.634396640364514
 31
0.0
  0
ARC
  5
475
  8
0
 10
64.267857803960055
 20
85.451468863816856
 30
0.0
 40
2.448247720180674
 50
125.54974902690699
 51
284.45025097309468
  0
ARC
  5
476
  8
0
 10
64.267857803960055
 20
73.535114973631778
 30
0.0
 40
2.448247720180674
 50
75.549749026905246
 51
234.45025097309301
  0
LINE
  5
477
  8
0
 10
62.84442302617861
 20
71.543193706921613
 30
0.0
 11
64.201037248178054
 21
70.593282202235116
 31
0.0
  0
LINE
  5
478
  8
0
 10
64.878791783099132
 20
75.905911585005981
 30
0.0
 11
66.945319332213728
 21
75.352187197084106
 31
0.0
  0
CIRCLE
  5
479
  8
0
 10
63.861607404638903
 20
85.262031191484809
 30
0.0
 40
1.25
  0
CIRCLE
  5
47A
  8
0
 10
63.861607404638903
 20
73.724552645963783
 30
0.0
 40
1.25
  0
TEXT
  5
5DE
  8
0
 62
     3
 10
0.0
 20
0.0
 30
0.0
 40
10.0
  1
GRL60S2-Y
  7
STANDARD1
  0
ENDSEC
  0
EOF
