  0
SECTION
  2
HEADER
  9
$ACADVER
  1
AC1009
  9
$INSBASE
 10
0.0
 20
0.0
 30
0.0
  9
$EXTMIN
 10
0.0
 20
-2.960436562073669
 30
0.0
  9
$EXTMAX
 10
155.34173996341349
 20
104.41176477066401
 30
0.0
  9
$LIMMIN
 10
0.0
 20
0.0
  9
$LIMMAX
 10
187.5
 20
135.0
  9
$ORTHOMODE
 70
     0
  9
$REGENMODE
 70
     1
  9
$FILLMODE
 70
     1
  9
$QTEXTMODE
 70
     0
  9
$MIRRTEXT
 70
     0
  9
$DRAGMODE
 70
     2
  9
$LTSCALE
 40
5.0
  9
$OSMODE
 70
  3071
  9
$ATTMODE
 70
     1
  9
$TEXTSIZE
 40
0.2
  9
$TRACEWID
 40
0.05
  9
$TEXTSTYLE
  7
STANDARD
  9
$CLAYER
  8
0
  9
$CELTYPE
  6
BYLAYER
  9
$CECOLOR
 62
   256
  9
$DIMSCALE
 40
0.5
  9
$DIMASZ
 40
3.0
  9
$DIMEXO
 40
2.0
  9
$DIMDLI
 40
0.3799999999999999
  9
$DIMRND
 40
0.0
  9
$DIMDLE
 40
0.0
  9
$DIMEXE
 40
2.0
  9
$DIMTP
 40
0.0
  9
$DIMTM
 40
0.0
  9
$DIMTXT
 40
3.2000000000000002
  9
$DIMCEN
 40
0.09
  9
$DIMTSZ
 40
0.0
  9
$DIMTOL
 70
     0
  9
$DIMLIM
 70
     0
  9
$DIMTIH
 70
     0
  9
$DIMTOH
 70
     0
  9
$DIMSE1
 70
     0
  9
$DIMSE2
 70
     0
  9
$DIMTAD
 70
     1
  9
$DIMZIN
 70
     0
  9
$DIMBLK
  1

  9
$DIMASO
 70
     0
  9
$DIMSHO
 70
     0
  9
$DIMPOST
  1

  9
$DIMAPOST
  1

  9
$DIMALT
 70
     0
  9
$DIMALTD
 70
     2
  9
$DIMALTF
 40
25.399999999999999
  9
$DIMLFAC
 40
1.0
  9
$DIMTOFL
 70
     0
  9
$DIMTVP
 40
1.6000000000000001
  9
$DIMTIX
 70
     1
  9
$DIMSOXD
 70
     0
  9
$DIMSAH
 70
     0
  9
$DIMBLK1
  1

  9
$DIMBLK2
  1

  9
$DIMSTYLE
  2
STANDARD
  9
$DIMCLRD
 70
     0
  9
$DIMCLRE
 70
     0
  9
$DIMCLRT
 70
     0
  9
$DIMTFAC
 40
1.0
  9
$DIMGAP
 40
0.09
  9
$LUNITS
 70
     2
  9
$LUPREC
 70
     4
  9
$SKETCHINC
 40
0.1
  9
$FILLETRAD
 40
0.4
  9
$AUNITS
 70
     0
  9
$AUPREC
 70
     0
  9
$MENU
  1
E:\r13\win\SUPPORT\ACAD
  9
$ELEVATION
 40
0.0
  9
$PELEVATION
 40
0.0
  9
$THICKNESS
 40
0.0
  9
$LIMCHECK
 70
     0
  9
$BLIPMODE
 70
     0
  9
$CHAMFERA
 40
0.0
  9
$CHAMFERB
 40
0.0
  9
$SKPOLY
 70
     0
  9
$TDCREATE
 40
2451824.6909225229
  9
$TDUPDATE
 40
2456598.6897943751
  9
$TDINDWG
 40
0.0009869097
  9
$TDUSRTIMER
 40
0.0009869097
  9
$USRTIMER
 70
     1
  9
$ANGBASE
 50
0.0
  9
$ANGDIR
 70
     0
  9
$PDMODE
 70
     0
  9
$PDSIZE
 40
0.0
  9
$PLINEWID
 40
0.0
  9
$COORDS
 70
     1
  9
$SPLFRAME
 70
     0
  9
$SPLINETYPE
 70
     6
  9
$SPLINESEGS
 70
     8
  9
$ATTDIA
 70
     0
  9
$ATTREQ
 70
     1
  9
$HANDLING
 70
     1
  9
$HANDSEED
  5
1C0
  9
$SURFTAB1
 70
     6
  9
$SURFTAB2
 70
     6
  9
$SURFTYPE
 70
     6
  9
$SURFU
 70
     6
  9
$SURFV
 70
     6
  9
$UCSNAME
  2

  9
$UCSORG
 10
0.0
 20
0.0
 30
0.0
  9
$UCSXDIR
 10
1.0
 20
0.0
 30
0.0
  9
$UCSYDIR
 10
0.0
 20
1.0
 30
0.0
  9
$PUCSNAME
  2

  9
$PUCSORG
 10
0.0
 20
0.0
 30
0.0
  9
$PUCSXDIR
 10
1.0
 20
0.0
 30
0.0
  9
$PUCSYDIR
 10
0.0
 20
1.0
 30
0.0
  9
$USERI1
 70
     0
  9
$USERI2
 70
     1
  9
$USERI3
 70
     0
  9
$USERI4
 70
     0
  9
$USERI5
 70
     0
  9
$USERR1
 40
0.0
  9
$USERR2
 40
0.0
  9
$USERR3
 40
0.0
  9
$USERR4
 40
0.0
  9
$USERR5
 40
0.0
  9
$WORLDVIEW
 70
     1
  9
$SHADEDGE
 70
     3
  9
$SHADEDIF
 70
    70
  9
$TILEMODE
 70
     1
  9
$MAXACTVP
 70
    16
  9
$PLIMCHECK
 70
     0
  9
$PEXTMIN
 10
1.0000000000000000E+020
 20
1.0000000000000000E+020
 30
1.0000000000000000E+020
  9
$PEXTMAX
 10
-1.0000000000000000E+020
 20
-1.0000000000000000E+020
 30
-1.0000000000000000E+020
  9
$PLIMMIN
 10
0.0
 20
0.0
  9
$PLIMMAX
 10
12.0
 20
9.0
  9
$UNITMODE
 70
     0
  9
$VISRETAIN
 70
     0
  9
$PLINEGEN
 70
     0
  9
$PSLTSCALE
 70
     0
  0
ENDSEC
  0
SECTION
  2
TABLES
  0
TABLE
  2
VPORT
 70
     1
  0
VPORT
  2
*ACTIVE
 70
     0
 10
0.0
 20
0.0
 11
1.0
 21
1.0
 12
93.74713919532617
 22
66.313465060797697
 13
0.0
 23
0.0
 14
5.0
 24
5.0
 15
5.0
 25
5.0
 16
0.0
 26
0.0
 36
1.0
 17
0.0
 27
0.0
 37
0.0
 40
140.15365342376049
 41
2.304913294797688
 42
50.0
 43
0.0
 44
0.0
 50
0.0
 51
0.0
 71
     0
 72
   500
 73
     1
 74
     0
 75
     0
 76
     0
 77
     0
 78
     2
  0
ENDTAB
  0
TABLE
  2
LTYPE
 70
     4
  0
LTYPE
  2
CONTINUOUS
 70
     0
  3
Solid Line
 72
    65
 73
     0
 40
0.0
  0
LTYPE
  2
CENTER
 70
     0
  3
____ _ ____ _ ____ _ ____ _ ____ _ ____ _ ____
 72
    65
 73
     4
 40
2.0
 49
1.25
 49
-0.25
 49
0.25
 49
-0.25
  0
LTYPE
  2
HIDDEN
 70
     0
  3
__ __ __ __ __ __ __ __ __ __ __ __ __ __ __ __
 72
    65
 73
     2
 40
0.375
 49
0.25
 49
-0.125
  0
LTYPE
  2
PHANTOM2
 70
     0
  3
___ _ _ ___ _ _ ___ _ _ ___ _ _
 72
    65
 73
     6
 40
1.25
 49
0.625
 49
-0.125
 49
0.125
 49
-0.125
 49
0.125
 49
-0.125
  0
ENDTAB
  0
TABLE
  2
LAYER
 70
     3
  0
LAYER
  2
0
 70
     0
 62
     7
  6
CONTINUOUS
  0
LAYER
  2
1
 70
     0
 62
     1
  6
CENTER
  0
LAYER
  2
2
 70
     0
 62
     2
  6
HIDDEN
  0
ENDTAB
  0
TABLE
  2
STYLE
 70
     2
  0
STYLE
  2
STANDARD
 70
     0
 40
0.0
 41
1.0
 50
0.0
 71
     0
 42
0.2
  3
TXT
  4
BIGFONT
  0
STYLE
  2
STANDARD1
 70
     0
 40
0.0
 41
1.0
 50
0.0
 71
     0
 42
3.0
  3
txt
  4

  0
ENDTAB
  0
TABLE
  2
VIEW
 70
     0
  0
ENDTAB
  0
TABLE
  2
UCS
 70
     0
  0
ENDTAB
  0
TABLE
  2
APPID
 70
     3
  0
APPID
  2
ACAD
 70
     0
  0
APPID
  2
ACAD_MLEADERVER
 70
     0
  0
APPID
  2
ACAD_NAV_VCDISPLAY
 70
     0
  0
ENDTAB
  0
TABLE
  2
DIMSTYLE
 70
     1
  0
DIMSTYLE
  2
STANDARD
 70
     0
  3

  4

  5

  6

  7

 40
1.0
 41
0.18
 42
0.0625
 43
0.38
 44
0.18
 45
0.0
 46
0.0
 47
0.0
 48
0.0
140
0.18
141
0.09
142
0.0
143
25.399999999999999
144
1.0
145
0.0
146
1.0
147
0.09
 71
     0
 72
     0
 73
     1
 74
     1
 75
     0
 76
     0
 77
     0
 78
     0
170
     0
171
     2
172
     0
173
     0
174
     0
175
     0
176
     0
177
     0
178
     0
  0
ENDTAB
  0
ENDSEC
  0
SECTION
  2
BLOCKS
  0
BLOCK
  8
0
  2
$MODEL_SPACE
 70
     0
 10
0.0
 20
0.0
 30
0.0
  3
$MODEL_SPACE
  1

  0
ENDBLK
  5
9
  8
0
  0
BLOCK
 67
     1
  8
0
  2
$PAPER_SPACE
 70
     0
 10
0.0
 20
0.0
 30
0.0
  3
$PAPER_SPACE
  1

  0
ENDBLK
  5
E
 67
     1
  8
0
  0
ENDSEC
  0
SECTION
  2
ENTITIES
  0
LINE
  5
26
  8
1
 10
78.837326891326825
 20
74.411764770663979
 30
0.0
 11
18.837326891326821
 21
74.411764770663979
 31
0.0
  0
LINE
  5
29
  8
1
 10
48.837326891326818
 20
104.41176477066401
 30
0.0
 11
48.837326891326818
 21
44.411764770663979
 31
0.0
  0
CIRCLE
  5
2A
  8
2
 10
48.837326891326818
 20
74.411764770663979
 30
0.0
 40
18.0
  0
CIRCLE
  5
2D
  8
0
 10
48.837326891326818
 20
74.411764770663979
 30
0.0
 40
25.0
  0
CIRCLE
  5
2E
  8
0
 10
48.837326891326818
 20
74.411764770663979
 30
0.0
 40
5.0
  0
CIRCLE
  5
2F
  8
2
 10
48.837326891325922
 20
74.411764770663979
 30
0.0
 40
13.6
  0
ARC
  5
30
  8
0
 10
49.637326891325898
 20
74.411764770663979
 30
0.0
 40
11.4
 50
37.306834345821507
 51
322.69316565417881
  0
LINE
  5
31
  8
0
 10
57.737466890308554
 20
80.643709889073463
 30
0.0
 11
58.70490047769249
 21
81.321114179676968
 31
0.0
  0
LINE
  5
32
  8
0
 10
59.332173534927563
 20
77.223850453505548
 30
0.0
 11
61.394362633083801
 21
77.776412356996815
 31
0.0
  0
CIRCLE
  5
33
  8
0
 10
58.53482021261803
 20
78.933780171289584
 30
0.0
 40
1.25
  0
ARC
  5
34
  8
0
 10
58.713318053830328
 20
79.017015081610879
 30
0.0
 40
1.8969505765761081
 50
120.95946438502941
 51
289.04053561497182
  0
ARC
  5
35
  8
0
 10
58.713318053830328
 20
69.806514459717221
 30
0.0
 40
1.8969505765761081
 50
70.959464385028241
 51
239.04053561497051
  0
CIRCLE
  5
36
  8
0
 10
58.53482021261803
 20
69.889749370038516
 30
0.0
 40
1.25
  0
LINE
  5
37
  8
0
 10
59.332173534927563
 20
71.599679087822551
 30
0.0
 11
61.394362633083801
 21
71.047117184331285
 31
0.0
  0
LINE
  5
38
  8
0
 10
57.737466890308554
 20
68.179819652254622
 30
0.0
 11
58.70490047769249
 21
67.502415361651117
 31
0.0
  0
CIRCLE
  5
39
  8
0
 10
48.837326891325922
 20
74.411764770663979
 30
0.0
 40
13.0
  0
LINE
  5
3A
  8
2
 10
61.394362633083801
 20
71.047117184331285
 30
0.0
 11
61.973918128857228
 21
70.891825757269856
 31
0.0
  0
LINE
  5
3B
  8
2
 10
61.394362633083801
 20
77.776412356996815
 30
0.0
 11
61.973918128857321
 21
77.931703784058385
 31
0.0
  0
LINE
  5
3C
  8
2
 10
143.46388731130469
 20
87.111764770663925
 30
0.0
 11
143.46388731130469
 21
61.611764770663967
 31
0.0
1001
ACAD
1000
ASC_BOUNDS
1002
{
1070
    19
1002
}
  0
LINE
  5
3D
  8
2
 10
135.4638873113046
 20
88.011764770663959
 30
0.0
 11
135.4638873113046
 21
60.811764770663977
 31
0.0
1001
ACAD
1000
ASC_BOUNDS
1002
{
1070
    19
1002
}
  0
LINE
  5
3E
  8
2
 10
134.26388731130459
 20
88.01176477066393
 30
0.0
 11
134.26388731130459
 21
60.811764770663977
 31
0.0
  0
LINE
  5
3F
  8
2
 10
134.11388731130469
 20
88.01176477066393
 30
0.0
 11
134.11388731130469
 21
60.811764770663977
 31
0.0
1001
ACAD
1000
ASC_BOUNDS
1002
{
1070
    19
1002
}
  0
ARC
  5
40
  8
0
 10
144.0638873113042
 20
92.811764770663743
 30
0.0
 40
0.4000000000000001
 50
270.0
 51
0.0
1001
ACAD
1000
ASC_BOUNDS
1002
{
1070
    19
1002
}
  0
ARC
  5
42
  8
0
 10
134.86388731130489
 20
92.811764770663743
 30
0.0
 40
0.4000000000000001
 50
179.99999999999639
 51
270.0
1001
ACAD
1000
ASC_BOUNDS
1002
{
1070
    19
1002
}
  0
ARC
  5
43
  8
0
 10
144.06388731130451
 20
56.011764770663937
 30
0.0
 40
0.4000000000000001
 50
0.0
 51
90.000000000000099
1001
ACAD
1000
ASC_BOUNDS
1002
{
1070
    19
1002
}
  0
ARC
  5
44
  8
0
 10
134.86388731130489
 20
56.011764770663937
 30
0.0
 40
0.4000000000000001
 50
90.0
 51
180.00000000000361
1001
ACAD
1000
ASC_BOUNDS
1002
{
1070
    19
1002
}
  0
LINE
  5
45
  8
2
 10
135.76388731130459
 20
79.411764770663979
 30
0.0
 11
143.16388731130471
 21
79.411764770663979
 31
0.0
  0
LINE
  5
46
  8
2
 10
135.4638873113046
 20
82.411764770663936
 30
0.0
 11
137.73183650373571
 21
82.411764770663936
 31
0.0
  0
LINE
  5
47
  8
2
 10
135.4638873113046
 20
84.411764770663964
 30
0.0
 11
137.73183650373571
 21
84.411764770663964
 31
0.0
  0
CIRCLE
  5
48
  8
2
 10
139.46388731130469
 20
83.411764770664035
 30
0.0
 40
2.0
  0
LINE
  5
49
  8
2
 10
141.1959381188737
 20
84.411764770663964
 30
0.0
 11
143.46388731130469
 21
84.411764770663964
 31
0.0
  0
LINE
  5
4A
  8
2
 10
141.1959381188737
 20
82.411764770663936
 30
0.0
 11
143.46388731130469
 21
82.411764770663936
 31
0.0
  0
ARC
  5
4B
  8
2
 10
135.76388731130459
 20
87.111764770663925
 30
0.0
 40
0.3
 50
89.999999999999801
 51
180.0
  0
ARC
  5
4C
  8
2
 10
143.16388731130471
 20
87.111764770663925
 30
0.0
 40
0.3
 50
0.0
 51
89.999999999999801
1001
ACAD
1000
ASC_BOUNDS
1002
{
1070
    19
1002
}
  0
ARC
  5
4D
  8
2
 10
135.76388731130459
 20
79.71176477066399
 30
0.0
 40
0.3
 50
180.0
 51
270.0
  0
ARC
  5
4E
  8
2
 10
143.16388731130471
 20
79.71176477066399
 30
0.0
 40
0.3
 50
270.0
 51
0.0
  0
ARC
  5
4F
  8
2
 10
143.16388731130471
 20
69.111764770663967
 30
0.0
 40
0.3
 50
0.0
 51
90.0
  0
ARC
  5
50
  8
2
 10
135.76388731130459
 20
69.111764770663967
 30
0.0
 40
0.3
 50
90.0
 51
180.0
  0
LINE
  5
51
  8
2
 10
135.76388731130459
 20
69.411764770663979
 30
0.0
 11
143.16388731130471
 21
69.411764770663979
 31
0.0
  0
LINE
  5
52
  8
2
 10
141.1959381188737
 20
66.411764770664007
 30
0.0
 11
143.46388731130469
 21
66.411764770664007
 31
0.0
  0
LINE
  5
53
  8
2
 10
141.1959381188737
 20
64.411764770663979
 30
0.0
 11
143.46388731130469
 21
64.411764770663979
 31
0.0
  0
CIRCLE
  5
54
  8
2
 10
139.46388731130469
 20
65.411764770663922
 30
0.0
 40
2.0
  0
LINE
  5
55
  8
2
 10
135.4638873113046
 20
64.411764770663979
 30
0.0
 11
137.73183650373571
 21
64.411764770663979
 31
0.0
  0
LINE
  5
56
  8
2
 10
135.4638873113046
 20
66.411764770664007
 30
0.0
 11
137.73183650373571
 21
66.411764770664007
 31
0.0
  0
ARC
  5
57
  8
2
 10
135.76388731130459
 20
61.711764770664018
 30
0.0
 40
0.3
 50
180.0
 51
270.00000000000023
  0
ARC
  5
58
  8
2
 10
143.16388731130471
 20
61.711764770664018
 30
0.0
 40
0.3
 50
270.00000000000023
 51
0.0
  0
LINE
  5
59
  8
2
 10
134.26388731130459
 20
85.783659951327465
 30
0.0
 11
135.4638873113046
 21
85.783659951327465
 31
0.0
  0
LINE
  5
5A
  8
2
 10
134.26388731130459
 20
63.039869590000478
 30
0.0
 11
135.4638873113046
 21
63.039869590000478
 31
0.0
  0
ARC
  5
5B
  8
2
 10
143.26388731130459
 20
61.611764770663967
 30
0.0
 40
0.2
 50
270.0
 51
360.0
1001
ACAD
1000
ASC_BOUNDS
1002
{
1070
    19
1002
}
  0
ARC
  5
5C
  8
2
 10
143.26388731130459
 20
87.211764770664004
 30
0.0
 40
0.2
 50
360.0
 51
90.0
1001
ACAD
1000
ASC_BOUNDS
1002
{
1070
    19
1002
}
  0
LINE
  5
5D
  8
2
 10
130.963887311305
 20
87.411764770663936
 30
0.0
 11
134.11388731130469
 21
87.411764770663936
 31
0.0
1001
ACAD
1000
ASC_BOUNDS
1002
{
1070
    19
1002
}
  0
LINE
  5
5E
  8
2
 10
135.4638873113046
 20
88.011764770663959
 30
0.0
 11
134.11388731130469
 21
88.011764770663959
 31
0.0
1001
ACAD
1000
ASC_BOUNDS
1002
{
1070
    19
1002
}
  0
LINE
  5
5F
  8
2
 10
135.4638873113046
 20
87.411764770663936
 30
0.0
 11
143.26388731130459
 21
87.411764770663936
 31
0.0
1001
ACAD
1000
ASC_BOUNDS
1002
{
1070
    19
1002
}
  0
LINE
  5
60
  8
2
 10
130.963887311305
 20
87.411764770663936
 30
0.0
 11
129.9638873113048
 21
87.789115039853485
 31
0.0
1001
ACAD
1000
ASC_BOUNDS
1002
{
1070
    19
1002
}
  0
LINE
  5
61
  8
2
 10
148.9638873113048
 20
85.411764770663908
 30
0.0
 11
143.46388731130469
 21
85.411764770663908
 31
0.0
1001
ACAD
1000
ASC_BOUNDS
1002
{
1070
    19
1002
}
  0
LINE
  5
62
  8
2
 10
148.9638873113048
 20
63.411764770664043
 30
0.0
 11
143.46388731130469
 21
63.411764770664043
 31
0.0
1001
ACAD
1000
ASC_BOUNDS
1002
{
1070
    19
1002
}
  0
LINE
  5
63
  8
2
 10
130.963887311305
 20
61.411764770664007
 30
0.0
 11
130.963887311305
 21
87.411764770663936
 31
0.0
  0
LINE
  5
64
  8
2
 10
130.963887311305
 20
61.411764770664007
 30
0.0
 11
129.9638873113048
 21
60.834414501474377
 31
0.0
1001
ACAD
1000
ASC_BOUNDS
1002
{
1070
    19
1002
}
  0
LINE
  5
65
  8
2
 10
135.4638873113046
 20
61.411764770664007
 30
0.0
 11
143.26388731130459
 21
61.411764770664007
 31
0.0
1001
ACAD
1000
ASC_BOUNDS
1002
{
1070
    19
1002
}
  0
LINE
  5
66
  8
2
 10
135.4638873113046
 20
60.811764770663977
 30
0.0
 11
134.11388731130469
 21
60.811764770663977
 31
0.0
1001
ACAD
1000
ASC_BOUNDS
1002
{
1070
    19
1002
}
  0
LINE
  5
67
  8
2
 10
130.963887311305
 20
61.411764770664007
 30
0.0
 11
134.11388731130469
 21
61.411764770664007
 31
0.0
1001
ACAD
1000
ASC_BOUNDS
1002
{
1070
    19
1002
}
  0
LINE
  5
68
  8
1
 10
125.9638873113047
 20
74.411764770663979
 30
0.0
 11
155.34173996341349
 21
74.411764770663979
 31
0.0
  0
LINE
  5
69
  8
0
 10
134.4638873113054
 20
49.411764770663837
 30
0.0
 11
129.9638873113048
 21
49.411764770663837
 31
0.0
1001
ACAD
1000
ASC_BOUNDS
1002
{
1070
    19
1002
}
  0
LINE
  5
6A
  8
0
 10
134.4638873113054
 20
99.411764770663808
 30
0.0
 11
129.9638873113048
 21
99.411764770663808
 31
0.0
1001
ACAD
1000
ASC_BOUNDS
1002
{
1070
    19
1002
}
  0
LINE
  5
6B
  8
0
 10
144.0638873113042
 20
92.411764770663822
 30
0.0
 11
134.86388731130489
 21
92.411764770663822
 31
0.0
1001
ACAD
1000
ASC_BOUNDS
1002
{
1070
    19
1002
}
  0
LINE
  5
6C
  8
0
 10
144.06388731130451
 20
56.411764770663872
 30
0.0
 11
134.86388731130489
 21
56.411764770663872
 31
0.0
1001
ACAD
1000
ASC_BOUNDS
1002
{
1070
    19
1002
}
  0
LINE
  5
6D
  8
0
 10
134.4638873113054
 20
49.411764770663837
 30
0.0
 11
134.46388731130111
 21
99.411764770663808
 31
0.0
1001
ACAD
1000
ASC_BOUNDS
1002
{
1070
    19
1002
}
  0
LINE
  5
6E
  8
0
 10
144.46388731130449
 20
49.411764770663837
 30
0.0
 11
144.46388731130449
 21
99.411764770663808
 31
0.0
1001
ACAD
1000
ASC_BOUNDS
1002
{
1070
    19
1002
}
  0
LINE
  5
6F
  8
0
 10
148.9638873113048
 20
99.411764770663808
 30
0.0
 11
144.46388731130409
 21
99.411764770663808
 31
0.0
1001
ACAD
1000
ASC_BOUNDS
1002
{
1070
    19
1002
}
  0
LINE
  5
70
  8
0
 10
148.9638873113048
 20
49.411764770663837
 30
0.0
 11
148.9638873113048
 21
99.411764770663808
 31
0.0
1001
ACAD
1000
ASC_BOUNDS
1002
{
1070
    19
1002
}
  0
LINE
  5
71
  8
0
 10
129.9638873113048
 20
49.411764770664263
 30
0.0
 11
129.9638873113048
 21
99.411764770663808
 31
0.0
1001
ACAD
1000
ASC_BOUNDS
1002
{
1070
    19
1002
}
  0
LINE
  5
72
  8
0
 10
148.9638873113048
 20
49.411764770663837
 30
0.0
 11
144.46388731130449
 21
49.411764770663837
 31
0.0
1001
ACAD
1000
ASC_BOUNDS
1002
{
1070
    19
1002
}
  0
TEXT
  5
12B
  8
0
 62
     3
 10
0.0
 20
0.0
 30
0.0
 40
10.0
  1
GRL50S-H
  7
STANDARD1
  0
ENDSEC
  0
EOF
