  0
SECTION
  2
HEADER
  9
$ACADVER
  1
AC1009
  9
$INSBASE
 10
0.0
 20
0.0
 30
0.0
  9
$EXTMIN
 10
0.0
 20
-2.960436562073669
 30
0.0
  9
$EXTMAX
 10
148.55024451987049
 20
98.573529625845595
 30
0.0
  9
$LIMMIN
 10
0.0
 20
0.0
  9
$LIMMAX
 10
187.5
 20
135.0
  9
$ORTHOMODE
 70
     0
  9
$REGENMODE
 70
     1
  9
$FILLMODE
 70
     1
  9
$QTEXTMODE
 70
     0
  9
$MIRRTEXT
 70
     0
  9
$DRAGMODE
 70
     2
  9
$LTSCALE
 40
5.0
  9
$OSMODE
 70
  3071
  9
$ATTMODE
 70
     1
  9
$TEXTSIZE
 40
0.2
  9
$TRACEWID
 40
0.05
  9
$TEXTSTYLE
  7
STANDARD
  9
$CLAYER
  8
0
  9
$CELTYPE
  6
BYLAYER
  9
$CECOLOR
 62
   256
  9
$DIMSCALE
 40
0.5
  9
$DIMASZ
 40
3.0
  9
$DIMEXO
 40
2.0
  9
$DIMDLI
 40
0.3799999999999999
  9
$DIMRND
 40
0.0
  9
$DIMDLE
 40
0.0
  9
$DIMEXE
 40
2.0
  9
$DIMTP
 40
0.0
  9
$DIMTM
 40
0.0
  9
$DIMTXT
 40
3.2000000000000002
  9
$DIMCEN
 40
0.09
  9
$DIMTSZ
 40
0.0
  9
$DIMTOL
 70
     0
  9
$DIMLIM
 70
     0
  9
$DIMTIH
 70
     0
  9
$DIMTOH
 70
     0
  9
$DIMSE1
 70
     0
  9
$DIMSE2
 70
     0
  9
$DIMTAD
 70
     1
  9
$DIMZIN
 70
     0
  9
$DIMBLK
  1

  9
$DIMASO
 70
     0
  9
$DIMSHO
 70
     0
  9
$DIMPOST
  1

  9
$DIMAPOST
  1

  9
$DIMALT
 70
     0
  9
$DIMALTD
 70
     2
  9
$DIMALTF
 40
25.399999999999999
  9
$DIMLFAC
 40
1.0
  9
$DIMTOFL
 70
     0
  9
$DIMTVP
 40
1.6000000000000001
  9
$DIMTIX
 70
     1
  9
$DIMSOXD
 70
     0
  9
$DIMSAH
 70
     0
  9
$DIMBLK1
  1

  9
$DIMBLK2
  1

  9
$DIMSTYLE
  2
STANDARD
  9
$DIMCLRD
 70
     0
  9
$DIMCLRE
 70
     0
  9
$DIMCLRT
 70
     0
  9
$DIMTFAC
 40
1.0
  9
$DIMGAP
 40
0.09
  9
$LUNITS
 70
     2
  9
$LUPREC
 70
     4
  9
$SKETCHINC
 40
0.1
  9
$FILLETRAD
 40
0.4
  9
$AUNITS
 70
     0
  9
$AUPREC
 70
     0
  9
$MENU
  1
E:\r13\win\SUPPORT\ACAD
  9
$ELEVATION
 40
0.0
  9
$PELEVATION
 40
0.0
  9
$THICKNESS
 40
0.0
  9
$LIMCHECK
 70
     0
  9
$BLIPMODE
 70
     0
  9
$CHAMFERA
 40
0.0
  9
$CHAMFERB
 40
0.0
  9
$SKPOLY
 70
     0
  9
$TDCREATE
 40
2451824.6906229062
  9
$TDUPDATE
 40
2456598.6896684952
  9
$TDINDWG
 40
0.0013333333
  9
$TDUSRTIMER
 40
0.0013333333
  9
$USRTIMER
 70
     1
  9
$ANGBASE
 50
0.0
  9
$ANGDIR
 70
     0
  9
$PDMODE
 70
     0
  9
$PDSIZE
 40
0.0
  9
$PLINEWID
 40
0.0
  9
$COORDS
 70
     1
  9
$SPLFRAME
 70
     0
  9
$SPLINETYPE
 70
     6
  9
$SPLINESEGS
 70
     8
  9
$ATTDIA
 70
     0
  9
$ATTREQ
 70
     1
  9
$HANDLING
 70
     1
  9
$HANDSEED
  5
1BD
  9
$SURFTAB1
 70
     6
  9
$SURFTAB2
 70
     6
  9
$SURFTYPE
 70
     6
  9
$SURFU
 70
     6
  9
$SURFV
 70
     6
  9
$UCSNAME
  2

  9
$UCSORG
 10
0.0
 20
0.0
 30
0.0
  9
$UCSXDIR
 10
1.0
 20
0.0
 30
0.0
  9
$UCSYDIR
 10
0.0
 20
1.0
 30
0.0
  9
$PUCSNAME
  2

  9
$PUCSORG
 10
0.0
 20
0.0
 30
0.0
  9
$PUCSXDIR
 10
1.0
 20
0.0
 30
0.0
  9
$PUCSYDIR
 10
0.0
 20
1.0
 30
0.0
  9
$USERI1
 70
     0
  9
$USERI2
 70
     1
  9
$USERI3
 70
     0
  9
$USERI4
 70
     0
  9
$USERI5
 70
     0
  9
$USERR1
 40
0.0
  9
$USERR2
 40
0.0
  9
$USERR3
 40
0.0
  9
$USERR4
 40
0.0
  9
$USERR5
 40
0.0
  9
$WORLDVIEW
 70
     1
  9
$SHADEDGE
 70
     3
  9
$SHADEDIF
 70
    70
  9
$TILEMODE
 70
     1
  9
$MAXACTVP
 70
    16
  9
$PLIMCHECK
 70
     0
  9
$PEXTMIN
 10
1.0000000000000000E+020
 20
1.0000000000000000E+020
 30
1.0000000000000000E+020
  9
$PEXTMAX
 10
-1.0000000000000000E+020
 20
-1.0000000000000000E+020
 30
-1.0000000000000000E+020
  9
$PLIMMIN
 10
0.0
 20
0.0
  9
$PLIMMAX
 10
12.0
 20
9.0
  9
$UNITMODE
 70
     0
  9
$VISRETAIN
 70
     0
  9
$PLINEGEN
 70
     0
  9
$PSLTSCALE
 70
     0
  0
ENDSEC
  0
SECTION
  2
TABLES
  0
TABLE
  2
VPORT
 70
     1
  0
VPORT
  2
*ACTIVE
 70
     0
 10
0.0
 20
0.0
 11
1.0
 21
1.0
 12
93.74713919532617
 22
66.313465060797697
 13
0.0
 23
0.0
 14
5.0
 24
5.0
 15
5.0
 25
5.0
 16
0.0
 26
0.0
 36
1.0
 17
0.0
 27
0.0
 37
0.0
 40
140.15365342376049
 41
2.304913294797688
 42
50.0
 43
0.0
 44
0.0
 50
0.0
 51
0.0
 71
     0
 72
   500
 73
     1
 74
     0
 75
     0
 76
     0
 77
     0
 78
     2
  0
ENDTAB
  0
TABLE
  2
LTYPE
 70
     4
  0
LTYPE
  2
CONTINUOUS
 70
     0
  3
Solid Line
 72
    65
 73
     0
 40
0.0
  0
LTYPE
  2
CENTER
 70
     0
  3
____ _ ____ _ ____ _ ____ _ ____ _ ____ _ ____
 72
    65
 73
     4
 40
2.0
 49
1.25
 49
-0.25
 49
0.25
 49
-0.25
  0
LTYPE
  2
HIDDEN
 70
     0
  3
__ __ __ __ __ __ __ __ __ __ __ __ __ __ __ __
 72
    65
 73
     2
 40
0.375
 49
0.25
 49
-0.125
  0
LTYPE
  2
PHANTOM2
 70
     0
  3
___ _ _ ___ _ _ ___ _ _ ___ _ _
 72
    65
 73
     6
 40
1.25
 49
0.625
 49
-0.125
 49
0.125
 49
-0.125
 49
0.125
 49
-0.125
  0
ENDTAB
  0
TABLE
  2
LAYER
 70
     3
  0
LAYER
  2
0
 70
     0
 62
     7
  6
CONTINUOUS
  0
LAYER
  2
1
 70
     0
 62
     1
  6
CENTER
  0
LAYER
  2
2
 70
     0
 62
     2
  6
HIDDEN
  0
ENDTAB
  0
TABLE
  2
STYLE
 70
     2
  0
STYLE
  2
STANDARD
 70
     0
 40
0.0
 41
1.0
 50
0.0
 71
     0
 42
0.2
  3
TXT
  4
BIGFONT
  0
STYLE
  2
STANDARD1
 70
     0
 40
0.0
 41
1.0
 50
0.0
 71
     0
 42
3.0
  3
txt
  4

  0
ENDTAB
  0
TABLE
  2
VIEW
 70
     0
  0
ENDTAB
  0
TABLE
  2
UCS
 70
     0
  0
ENDTAB
  0
TABLE
  2
APPID
 70
     3
  0
APPID
  2
ACAD
 70
     0
  0
APPID
  2
ACAD_MLEADERVER
 70
     0
  0
APPID
  2
ACAD_NAV_VCDISPLAY
 70
     0
  0
ENDTAB
  0
TABLE
  2
DIMSTYLE
 70
     1
  0
DIMSTYLE
  2
STANDARD
 70
     0
  3

  4

  5

  6

  7

 40
1.0
 41
0.18
 42
0.0625
 43
0.38
 44
0.18
 45
0.0
 46
0.0
 47
0.0
 48
0.0
140
0.18
141
0.09
142
0.0
143
25.399999999999999
144
1.0
145
0.0
146
1.0
147
0.09
 71
     0
 72
     0
 73
     1
 74
     1
 75
     0
 76
     0
 77
     0
 78
     0
170
     0
171
     2
172
     0
173
     0
174
     0
175
     0
176
     0
177
     0
178
     0
  0
ENDTAB
  0
ENDSEC
  0
SECTION
  2
BLOCKS
  0
BLOCK
  8
0
  2
$MODEL_SPACE
 70
     0
 10
0.0
 20
0.0
 30
0.0
  3
$MODEL_SPACE
  1

  0
ENDBLK
  5
9
  8
0
  0
BLOCK
 67
     1
  8
0
  2
$PAPER_SPACE
 70
     0
 10
0.0
 20
0.0
 30
0.0
  3
$PAPER_SPACE
  1

  0
ENDBLK
  5
E
 67
     1
  8
0
  0
ENDSEC
  0
SECTION
  2
ENTITIES
  0
LINE
  5
26
  8
1
 10
74.279026855398115
 20
73.573529625845595
 30
0.0
 11
24.279026855398119
 21
73.573529625845595
 31
0.0
  0
LINE
  5
29
  8
1
 10
49.279026855398122
 20
98.573529625845595
 30
0.0
 11
49.279026855398122
 21
48.573529625845602
 31
0.0
  0
CIRCLE
  5
2A
  8
2
 10
49.279026855398122
 20
73.573529625845595
 30
0.0
 40
15.0
  0
CIRCLE
  5
2D
  8
0
 10
49.279026855398122
 20
73.573529625845595
 30
0.0
 40
20.0
  0
CIRCLE
  5
2E
  8
2
 10
49.279026855398122
 20
73.573529625845595
 30
0.0
 40
11.5
  0
CIRCLE
  5
2F
  8
0
 10
49.279026855398122
 20
73.573529625845595
 30
0.0
 40
11.0
  0
ARC
  5
30
  8
0
 10
50.029026855397149
 20
73.573529625845595
 30
0.0
 40
9.75
 50
42.834156958489643
 51
317.16584304151058
  0
LINE
  5
31
  8
0
 10
56.20199788492755
 20
79.382592063374801
 30
0.0
 11
57.17894252700728
 21
80.202345952224505
 31
0.0
  0
LINE
  5
32
  8
0
 10
57.771308013233011
 20
76.664467188317246
 30
0.0
 11
59.615645684042903
 21
77.335751202427929
 31
0.0
  0
CIRCLE
  5
33
  8
0
 10
56.986652123174053
 20
78.023531056357484
 30
0.0
 40
1.0
  0
ARC
  5
34
  8
0
 10
57.048064045646917
 20
78.058985338979909
 30
0.0
 40
1.570911426267553
 50
122.58722830885689
 51
297.41277169114289
  0
ARC
  5
35
  8
0
 10
57.048064045646917
 20
69.088073912711423
 30
0.0
 40
1.570911426267553
 50
62.587228308857171
 51
237.41277169114309
  0
CIRCLE
  5
36
  8
0
 10
56.986652123174053
 20
69.123528195333847
 30
0.0
 40
1.0
  0
LINE
  5
37
  8
0
 10
57.771308013233011
 20
70.482592063373943
 30
0.0
 11
59.615645684042619
 21
69.811308049263403
 31
0.0
  0
LINE
  5
38
  8
0
 10
56.20199788492755
 20
67.76446718831653
 30
0.0
 11
57.17894252700728
 21
66.944713299466684
 31
0.0
  0
LINE
  5
39
  8
2
 10
59.615645684042903
 20
77.335751202427929
 30
0.0
 11
60.08549199443592
 21
77.50676127409082
 31
0.0
  0
LINE
  5
3A
  8
2
 10
60.085491994435699
 20
69.640297977600653
 30
0.0
 11
59.615645684042619
 21
69.811308049263403
 31
0.0
  0
CIRCLE
  5
3B
  8
0
 10
49.279026855398122
 20
73.573529625845595
 30
0.0
 40
4.0
  0
LINE
  5
3C
  8
1
 10
122.5502445198707
 20
73.573529625845595
 30
0.0
 11
148.55024451987049
 21
73.573529625845595
 31
0.0
  0
LINE
  5
3D
  8
0
 10
139.0502445198704
 20
93.573529625845595
 30
0.0
 11
143.55024451987049
 21
93.573529625846021
 31
0.0
1001
ACAD
1000
ASC_BOUNDS
1002
{
1070
    19
1002
}
  0
LINE
  5
3F
  8
0
 10
139.05024451987001
 20
53.573529625846021
 30
0.0
 11
143.55024451987049
 21
53.573529625846021
 31
0.0
1001
ACAD
1000
ASC_BOUNDS
1002
{
1070
    19
1002
}
  0
LINE
  5
40
  8
0
 10
132.05024451987049
 20
53.573529625845033
 30
0.0
 11
132.05024451987049
 21
93.57352962584558
 31
0.0
  0
LINE
  5
41
  8
0
 10
139.0502445198704
 20
53.573529625846021
 30
0.0
 11
139.0502445198704
 21
93.573529625845609
 31
0.0
  0
LINE
  5
42
  8
0
 10
132.05024451987009
 20
88.573529625845651
 30
0.0
 11
139.0502445198704
 21
88.573529625846504
 31
0.0
1001
ACAD
1000
ASC_BOUNDS
1002
{
1070
    19
1002
}
  0
LINE
  5
43
  8
0
 10
132.05024451987049
 20
58.573529625845111
 30
0.0
 11
139.05024451987001
 21
58.573529625846099
 31
0.0
1001
ACAD
1000
ASC_BOUNDS
1002
{
1070
    19
1002
}
  0
LINE
  5
44
  8
0
 10
127.5502445198705
 20
53.573529625845602
 30
0.0
 11
127.5502445198709
 21
93.573529625845595
 31
0.0
1001
ACAD
1000
ASC_BOUNDS
1002
{
1070
    19
1002
}
  0
LINE
  5
45
  8
0
 10
143.55024451987049
 20
53.573529625845602
 30
0.0
 11
143.55024451987049
 21
93.573529625845595
 31
0.0
1001
ACAD
1000
ASC_BOUNDS
1002
{
1070
    19
1002
}
  0
LINE
  5
46
  8
0
 10
127.5502445198709
 20
93.573529625845595
 30
0.0
 11
132.05024451987009
 21
93.573529625845595
 31
0.0
1001
ACAD
1000
ASC_BOUNDS
1002
{
1070
    19
1002
}
  0
LINE
  5
47
  8
0
 10
127.5502445198705
 20
53.573529625844742
 30
0.0
 11
132.05024451987049
 21
53.573529625845033
 31
0.0
1001
ACAD
1000
ASC_BOUNDS
1002
{
1070
    19
1002
}
  0
LINE
  5
48
  8
2
 10
128.550244519871
 20
62.573529625845651
 30
0.0
 11
130.70024451987061
 21
62.573529625845651
 31
0.0
1001
ACAD
1000
ASC_BOUNDS
1002
{
1070
    19
1002
}
  0
LINE
  5
49
  8
2
 10
130.70024451987061
 20
62.073529625845538
 30
0.0
 11
132.05024451987049
 21
62.073529625845538
 31
0.0
1001
ACAD
1000
ASC_BOUNDS
1002
{
1070
    19
1002
}
  0
LINE
  5
4A
  8
2
 10
132.05024451987049
 20
62.573529625845651
 30
0.0
 11
138.85024451987061
 21
62.573529625845651
 31
0.0
1001
ACAD
1000
ASC_BOUNDS
1002
{
1070
    19
1002
}
  0
LINE
  5
4B
  8
2
 10
128.550244519871
 20
62.573529625845651
 30
0.0
 11
127.5502445198709
 21
61.996179356656029
 31
0.0
1001
ACAD
1000
ASC_BOUNDS
1002
{
1070
    19
1002
}
  0
ARC
  5
4C
  8
2
 10
138.85024451987061
 20
62.77352962584547
 30
0.0
 40
0.2
 50
270.0
 51
359.99999999999989
1001
ACAD
1000
ASC_BOUNDS
1002
{
1070
    19
1002
}
  0
LINE
  5
4D
  8
2
 10
132.05024451987049
 20
79.973529625845742
 30
0.0
 11
133.87991521102191
 21
79.973529625845742
 31
0.0
  0
LINE
  5
4E
  8
2
 10
132.05024451987049
 20
82.173529625845447
 30
0.0
 11
133.87991521102279
 21
82.173529625845447
 31
0.0
  0
CIRCLE
  5
4F
  8
2
 10
135.55024451987049
 20
81.073529625845595
 30
0.0
 40
2.0
  0
LINE
  5
50
  8
2
 10
137.2205738287181
 20
82.173529625845447
 30
0.0
 11
139.05024451987049
 21
82.173529625845447
 31
0.0
  0
LINE
  5
51
  8
2
 10
137.22057382871901
 20
79.973529625845742
 30
0.0
 11
139.05024451987049
 21
79.973529625845742
 31
0.0
  0
ARC
  5
52
  8
2
 10
132.35024451987061
 20
77.873529625845379
 30
0.0
 40
0.3
 50
180.0
 51
270.00000000000011
  0
ARC
  5
53
  8
2
 10
138.75024451987031
 20
77.873529625845663
 30
0.0
 40
0.3
 50
270.00000000000011
 51
0.0
  0
ARC
  5
54
  8
2
 10
138.75024451987031
 20
69.273529625845384
 30
0.0
 40
0.3
 50
0.0
 51
89.999999999999758
  0
ARC
  5
55
  8
2
 10
132.35024451987061
 20
69.273529625845384
 30
0.0
 40
0.3
 50
89.999999999999915
 51
180.00000000000011
  0
ARC
  5
56
  8
2
 10
138.75024451987031
 20
62.873529625845663
 30
0.0
 40
0.3
 50
270.0
 51
0.0
  0
ARC
  5
57
  8
2
 10
132.35024451987061
 20
62.873529625845663
 30
0.0
 40
0.3
 50
180.0
 51
270.0
  0
LINE
  5
58
  8
2
 10
137.22057382871901
 20
67.173529625845447
 30
0.0
 11
139.05024451987049
 21
67.173529625845447
 31
0.0
  0
LINE
  5
59
  8
2
 10
137.2205738287181
 20
64.973529625845742
 30
0.0
 11
139.05024451987049
 21
64.973529625845742
 31
0.0
  0
CIRCLE
  5
5A
  8
2
 10
135.55024451987049
 20
66.073529625845595
 30
0.0
 40
2.0
  0
LINE
  5
5B
  8
2
 10
132.05024451987049
 20
64.973529625845742
 30
0.0
 11
133.87991521102279
 21
64.973529625845742
 31
0.0
  0
LINE
  5
5C
  8
2
 10
132.05024451987049
 20
67.173529625845447
 30
0.0
 11
133.87991521102191
 21
67.173529625845447
 31
0.0
  0
LINE
  5
5D
  8
2
 10
132.35024451987061
 20
77.573529625845651
 30
0.0
 11
138.75024451987031
 21
77.573529625845651
 31
0.0
  0
LINE
  5
5E
  8
2
 10
132.35024451987061
 20
69.573529625845538
 30
0.0
 11
138.75024451987031
 21
69.573529625845538
 31
0.0
  0
LINE
  5
5F
  8
2
 10
131.05024451987049
 20
83.294640673457423
 30
0.0
 11
132.05024451987049
 21
83.294640673457423
 31
0.0
  0
LINE
  5
60
  8
2
 10
131.05024451987049
 20
63.852418578233767
 30
0.0
 11
132.05024451987049
 21
63.852418578233767
 31
0.0
  0
LINE
  5
61
  8
2
 10
139.05024451987049
 20
64.573529625845538
 30
0.0
 11
143.55024451987049
 21
64.573529625845538
 31
0.0
1001
ACAD
1000
ASC_BOUNDS
1002
{
1070
    19
1002
}
  0
LINE
  5
62
  8
2
 10
139.05024451987049
 20
82.573529625845651
 30
0.0
 11
143.55024451987049
 21
82.573529625845651
 31
0.0
1001
ACAD
1000
ASC_BOUNDS
1002
{
1070
    19
1002
}
  0
LINE
  5
63
  8
2
 10
128.550244519871
 20
84.573529625845538
 30
0.0
 11
130.70024451987061
 21
84.573529625845538
 31
0.0
1001
ACAD
1000
ASC_BOUNDS
1002
{
1070
    19
1002
}
  0
LINE
  5
64
  8
2
 10
130.70024451987061
 20
85.073529625845651
 30
0.0
 11
132.05024451987049
 21
85.073529625845651
 31
0.0
1001
ACAD
1000
ASC_BOUNDS
1002
{
1070
    19
1002
}
  0
LINE
  5
65
  8
2
 10
132.05024451987049
 20
84.573529625845538
 30
0.0
 11
138.85024451987061
 21
84.573529625845538
 31
0.0
1001
ACAD
1000
ASC_BOUNDS
1002
{
1070
    19
1002
}
  0
LINE
  5
66
  8
2
 10
128.550244519871
 20
84.573529625845538
 30
0.0
 11
127.5502445198709
 21
85.150879895035018
 31
0.0
  0
ARC
  5
67
  8
2
 10
138.85024451987061
 20
84.37352962584572
 30
0.0
 40
0.2
 50
359.99999999999977
 51
90.0
1001
ACAD
1000
ASC_BOUNDS
1002
{
1070
    19
1002
}
  0
ARC
  5
68
  8
2
 10
138.85024451987061
 20
84.37352962584572
 30
0.0
 40
0.2
 50
359.99999999999977
 51
90.0
  0
ARC
  5
69
  8
2
 10
138.75024451987031
 20
84.273529625845384
 30
0.0
 40
0.3
 50
0.0
 51
90.000000000000242
  0
ARC
  5
6A
  8
2
 10
132.35024451987019
 20
84.273529625845384
 30
0.0
 40
0.3
 50
90.000000000000313
 51
180.0000000000002
  0
LINE
  5
6B
  8
2
 10
139.05024451987049
 20
84.37352962584572
 30
0.0
 11
139.05024451987049
 21
62.77352962584547
 31
0.0
1001
ACAD
1000
ASC_BOUNDS
1002
{
1070
    19
1002
}
  0
LINE
  5
6C
  8
2
 10
132.05024451987049
 20
85.073529625845651
 30
0.0
 11
132.05024451987049
 21
62.073529625845538
 31
0.0
1001
ACAD
1000
ASC_BOUNDS
1002
{
1070
    19
1002
}
  0
LINE
  5
6D
  8
2
 10
130.70024451987061
 20
85.073529625845651
 30
0.0
 11
130.70024451987061
 21
62.073529625845538
 31
0.0
1001
ACAD
1000
ASC_BOUNDS
1002
{
1070
    19
1002
}
  0
LINE
  5
6E
  8
2
 10
128.550244519871
 20
84.573529625845538
 30
0.0
 11
128.550244519871
 21
62.573529625845651
 31
0.0
  0
LINE
  5
6F
  8
2
 10
131.05024451987049
 20
62.073529625845538
 30
0.0
 11
131.05024451987049
 21
85.073529625845651
 31
0.0
  0
TEXT
  5
128
  8
0
 62
     3
 10
0.0
 20
0.0
 30
0.0
 40
10.0
  1
GRL40SH-H
  7
STANDARD1
  0
ENDSEC
  0
EOF
