  0
SECTION
  2
HEADER
  9
$ACADVER
  1
AC1009
  9
$INSBASE
 10
0.0
 20
0.0
 30
0.0
  9
$EXTMIN
 10
0.0
 20
-2.960436562073669
 30
0.0
  9
$EXTMAX
 10
129.84009211649379
 20
96.076229733164766
 30
0.0
  9
$LIMMIN
 10
0.0
 20
0.0
  9
$LIMMAX
 10
187.5
 20
135.0
  9
$ORTHOMODE
 70
     1
  9
$REGENMODE
 70
     1
  9
$FILLMODE
 70
     1
  9
$QTEXTMODE
 70
     0
  9
$MIRRTEXT
 70
     0
  9
$DRAGMODE
 70
     2
  9
$LTSCALE
 40
5.0
  9
$OSMODE
 70
  3071
  9
$ATTMODE
 70
     1
  9
$TEXTSIZE
 40
0.2
  9
$TRACEWID
 40
0.05
  9
$TEXTSTYLE
  7
STANDARD
  9
$CLAYER
  8
0
  9
$CELTYPE
  6
BYLAYER
  9
$CECOLOR
 62
   256
  9
$DIMSCALE
 40
0.5
  9
$DIMASZ
 40
3.0
  9
$DIMEXO
 40
2.0
  9
$DIMDLI
 40
0.3799999999999999
  9
$DIMRND
 40
0.0
  9
$DIMDLE
 40
0.0
  9
$DIMEXE
 40
2.0
  9
$DIMTP
 40
0.0
  9
$DIMTM
 40
0.0
  9
$DIMTXT
 40
3.2000000000000002
  9
$DIMCEN
 40
0.09
  9
$DIMTSZ
 40
0.0
  9
$DIMTOL
 70
     0
  9
$DIMLIM
 70
     0
  9
$DIMTIH
 70
     0
  9
$DIMTOH
 70
     0
  9
$DIMSE1
 70
     0
  9
$DIMSE2
 70
     0
  9
$DIMTAD
 70
     1
  9
$DIMZIN
 70
     0
  9
$DIMBLK
  1

  9
$DIMASO
 70
     0
  9
$DIMSHO
 70
     0
  9
$DIMPOST
  1

  9
$DIMAPOST
  1

  9
$DIMALT
 70
     0
  9
$DIMALTD
 70
     2
  9
$DIMALTF
 40
25.399999999999999
  9
$DIMLFAC
 40
1.0
  9
$DIMTOFL
 70
     0
  9
$DIMTVP
 40
1.6000000000000001
  9
$DIMTIX
 70
     1
  9
$DIMSOXD
 70
     0
  9
$DIMSAH
 70
     0
  9
$DIMBLK1
  1

  9
$DIMBLK2
  1

  9
$DIMSTYLE
  2
STANDARD
  9
$DIMCLRD
 70
     0
  9
$DIMCLRE
 70
     0
  9
$DIMCLRT
 70
     0
  9
$DIMTFAC
 40
1.0
  9
$DIMGAP
 40
0.09
  9
$LUNITS
 70
     2
  9
$LUPREC
 70
     4
  9
$SKETCHINC
 40
0.1
  9
$FILLETRAD
 40
0.4
  9
$AUNITS
 70
     0
  9
$AUPREC
 70
     0
  9
$MENU
  1
E:\r13\win\SUPPORT\ACAD
  9
$ELEVATION
 40
0.0
  9
$PELEVATION
 40
0.0
  9
$THICKNESS
 40
0.0
  9
$LIMCHECK
 70
     0
  9
$BLIPMODE
 70
     0
  9
$CHAMFERA
 40
0.0
  9
$CHAMFERB
 40
0.0
  9
$SKPOLY
 70
     0
  9
$TDCREATE
 40
2451824.6906229062
  9
$TDUPDATE
 40
2456598.6895106598
  9
$TDINDWG
 40
0.0255959375
  9
$TDUSRTIMER
 40
0.0255959375
  9
$USRTIMER
 70
     1
  9
$ANGBASE
 50
0.0
  9
$ANGDIR
 70
     0
  9
$PDMODE
 70
     0
  9
$PDSIZE
 40
0.0
  9
$PLINEWID
 40
0.0
  9
$COORDS
 70
     1
  9
$SPLFRAME
 70
     0
  9
$SPLINETYPE
 70
     6
  9
$SPLINESEGS
 70
     8
  9
$ATTDIA
 70
     0
  9
$ATTREQ
 70
     1
  9
$HANDLING
 70
     1
  9
$HANDSEED
  5
203
  9
$SURFTAB1
 70
     6
  9
$SURFTAB2
 70
     6
  9
$SURFTYPE
 70
     6
  9
$SURFU
 70
     6
  9
$SURFV
 70
     6
  9
$UCSNAME
  2

  9
$UCSORG
 10
0.0
 20
0.0
 30
0.0
  9
$UCSXDIR
 10
1.0
 20
0.0
 30
0.0
  9
$UCSYDIR
 10
0.0
 20
1.0
 30
0.0
  9
$PUCSNAME
  2

  9
$PUCSORG
 10
0.0
 20
0.0
 30
0.0
  9
$PUCSXDIR
 10
1.0
 20
0.0
 30
0.0
  9
$PUCSYDIR
 10
0.0
 20
1.0
 30
0.0
  9
$USERI1
 70
     0
  9
$USERI2
 70
     1
  9
$USERI3
 70
     0
  9
$USERI4
 70
     0
  9
$USERI5
 70
     0
  9
$USERR1
 40
0.0
  9
$USERR2
 40
0.0
  9
$USERR3
 40
0.0
  9
$USERR4
 40
0.0
  9
$USERR5
 40
0.0
  9
$WORLDVIEW
 70
     1
  9
$SHADEDGE
 70
     3
  9
$SHADEDIF
 70
    70
  9
$TILEMODE
 70
     1
  9
$MAXACTVP
 70
    16
  9
$PLIMCHECK
 70
     0
  9
$PEXTMIN
 10
1.0000000000000000E+020
 20
1.0000000000000000E+020
 30
1.0000000000000000E+020
  9
$PEXTMAX
 10
-1.0000000000000000E+020
 20
-1.0000000000000000E+020
 30
-1.0000000000000000E+020
  9
$PLIMMIN
 10
0.0
 20
0.0
  9
$PLIMMAX
 10
12.0
 20
9.0
  9
$UNITMODE
 70
     0
  9
$VISRETAIN
 70
     0
  9
$PLINEGEN
 70
     0
  9
$PSLTSCALE
 70
     0
  0
ENDSEC
  0
SECTION
  2
TABLES
  0
TABLE
  2
VPORT
 70
     1
  0
VPORT
  2
*ACTIVE
 70
     0
 10
0.0
 20
0.0
 11
1.0
 21
1.0
 12
93.74713919532617
 22
66.313465060797697
 13
0.0
 23
0.0
 14
5.0
 24
5.0
 15
5.0
 25
5.0
 16
0.0
 26
0.0
 36
1.0
 17
0.0
 27
0.0
 37
0.0
 40
140.15365342376049
 41
2.304913294797688
 42
50.0
 43
0.0
 44
0.0
 50
0.0
 51
0.0
 71
     0
 72
   500
 73
     1
 74
     0
 75
     0
 76
     0
 77
     0
 78
     2
  0
ENDTAB
  0
TABLE
  2
LTYPE
 70
     5
  0
LTYPE
  2
CONTINUOUS
 70
     0
  3
Solid Line
 72
    65
 73
     0
 40
0.0
  0
LTYPE
  2
CENTER
 70
     0
  3
____ _ ____ _ ____ _ ____ _ ____ _ ____ _ ____
 72
    65
 73
     4
 40
2.0
 49
1.25
 49
-0.25
 49
0.25
 49
-0.25
  0
LTYPE
  2
HIDDEN
 70
     0
  3
__ __ __ __ __ __ __ __ __ __ __ __ __ __ __ __
 72
    65
 73
     2
 40
0.375
 49
0.25
 49
-0.125
  0
LTYPE
  2
PHANTOM
 70
     0
  3
_____ _ _ _____ _ _ _____ _ _ _____ _ _ ____
 72
    65
 73
     6
 40
2.5
 49
1.25
 49
-0.25
 49
0.25
 49
-0.25
 49
0.25
 49
-0.25
  0
LTYPE
  2
PHANTOM2
 70
     0
  3
___ _ _ ___ _ _ ___ _ _ ___ _ _
 72
    65
 73
     6
 40
1.25
 49
0.625
 49
-0.125
 49
0.125
 49
-0.125
 49
0.125
 49
-0.125
  0
ENDTAB
  0
TABLE
  2
LAYER
 70
     4
  0
LAYER
  2
0
 70
     0
 62
     7
  6
CONTINUOUS
  0
LAYER
  2
1
 70
     0
 62
     1
  6
CENTER
  0
LAYER
  2
2
 70
     0
 62
     2
  6
HIDDEN
  0
LAYER
  2
5
 70
     0
 62
     3
  6
PHANTOM
  0
ENDTAB
  0
TABLE
  2
STYLE
 70
     2
  0
STYLE
  2
STANDARD
 70
     0
 40
0.0
 41
1.0
 50
0.0
 71
     0
 42
0.2
  3
TXT
  4
BIGFONT
  0
STYLE
  2
STANDARD1
 70
     0
 40
0.0
 41
1.0
 50
0.0
 71
     0
 42
3.0
  3
txt
  4

  0
ENDTAB
  0
TABLE
  2
VIEW
 70
     0
  0
ENDTAB
  0
TABLE
  2
UCS
 70
     0
  0
ENDTAB
  0
TABLE
  2
APPID
 70
     3
  0
APPID
  2
ACAD
 70
     0
  0
APPID
  2
ACAD_MLEADERVER
 70
     0
  0
APPID
  2
ACAD_NAV_VCDISPLAY
 70
     0
  0
ENDTAB
  0
TABLE
  2
DIMSTYLE
 70
     1
  0
DIMSTYLE
  2
STANDARD
 70
     0
  3

  4

  5

  6

  7

 40
1.0
 41
0.18
 42
0.0625
 43
0.38
 44
0.18
 45
0.0
 46
0.0
 47
0.0
 48
0.0
140
0.18
141
0.09
142
0.0
143
25.399999999999999
144
1.0
145
0.0
146
1.0
147
0.09
 71
     0
 72
     0
 73
     1
 74
     1
 75
     0
 76
     0
 77
     0
 78
     0
170
     0
171
     2
172
     0
173
     0
174
     0
175
     0
176
     0
177
     0
178
     0
  0
ENDTAB
  0
ENDSEC
  0
SECTION
  2
BLOCKS
  0
BLOCK
  8
0
  2
$MODEL_SPACE
 70
     0
 10
0.0
 20
0.0
 30
0.0
  3
$MODEL_SPACE
  1

  0
ENDBLK
  5
9
  8
0
  0
BLOCK
 67
     1
  8
0
  2
$PAPER_SPACE
 70
     0
 10
0.0
 20
0.0
 30
0.0
  3
$PAPER_SPACE
  1

  0
ENDBLK
  5
E
 67
     1
  8
0
  0
ENDSEC
  0
SECTION
  2
ENTITIES
  0
LINE
  5
26
  8
1
 10
107.3400921164942
 20
86.576229733164766
 30
0.0
 11
126.3400921164942
 21
86.576229733164766
 31
0.0
  0
CIRCLE
  5
29
  8
5
 10
116.8400921164942
 20
86.576229733164766
 30
0.0
 40
7.0
  0
LINE
  5
2C
  8
1
 10
116.84009211649391
 20
32.770822443832692
 30
0.0
 11
116.84009211649391
 21
96.076229733164766
 31
0.0
  0
LINE
  5
2D
  8
0
 10
108.8400921164942
 20
83.270822443832685
 30
0.0
 11
109.88925634052011
 21
83.270822443832685
 31
0.0
1001
ACAD
1000
ASC_BOUNDS
1002
{
1070
    19
1005
0
1002
}
  0
LINE
  5
2F
  8
0
 10
123.7909278924688
 20
83.270822443833026
 30
0.0
 11
124.84009211649381
 21
83.270822443833097
 31
0.0
1001
ACAD
1000
ASC_BOUNDS
1002
{
1070
    19
1005
0
1002
}
  0
LINE
  5
30
  8
0
 10
115.84009211649391
 20
78.27747833901617
 30
0.0
 11
109.88925634052021
 21
83.270822443832571
 31
0.0
  0
LINE
  5
31
  8
0
 10
117.84009211649391
 20
78.277478339015815
 30
0.0
 11
123.7909278924694
 21
83.270822443833481
 31
0.0
  0
LINE
  5
34
  8
0
 10
115.84009211649391
 20
77.270822443833595
 30
0.0
 11
117.84009211649391
 21
77.270822443833595
 31
0.0
1001
ACAD
1000
ASC_BOUNDS
1002
{
1070
    19
1002
}
  0
LINE
  5
35
  8
0
 10
108.84009211649381
 20
43.270822443831833
 30
0.0
 11
109.8892563405191
 21
43.270822443831896
 31
0.0
1001
ACAD
1000
ASC_BOUNDS
1002
{
1070
    19
1005
0
1002
}
  0
LINE
  5
36
  8
0
 10
123.79092789246801
 20
43.270822443833111
 30
0.0
 11
124.84009211649381
 21
43.270822443833111
 31
0.0
1001
ACAD
1000
ASC_BOUNDS
1002
{
1070
    19
1005
0
1002
}
  0
CIRCLE
  5
37
  8
5
 10
116.84009211649391
 20
41.270822443832678
 30
0.0
 40
6.0
  0
LINE
  5
38
  8
0
 10
115.84009211649391
 20
49.270822443831783
 30
0.0
 11
117.84009211649391
 21
49.270822443831783
 31
0.0
1001
ACAD
1000
ASC_BOUNDS
1002
{
1070
    19
1002
}
  0
LINE
  5
39
  8
0
 10
117.84009211649391
 20
78.277478339015843
 30
0.0
 11
117.84009211649391
 21
48.264166548649541
 31
0.0
  0
LINE
  5
3A
  8
0
 10
115.84009211649391
 20
78.277478339016142
 30
0.0
 11
115.84009211649391
 21
48.2641665486492
 31
0.0
  0
LINE
  5
3B
  8
0
 10
117.84009211649391
 20
48.264166548649541
 30
0.0
 11
123.7909278924694
 21
43.270822443831889
 31
0.0
  0
LINE
  5
3C
  8
0
 10
115.84009211649391
 20
48.2641665486492
 30
0.0
 11
109.88925634052021
 21
43.270822443832792
 31
0.0
  0
LINE
  5
3D
  8
1
 10
108.34009211649391
 20
41.270822443832678
 30
0.0
 11
125.34009211649391
 21
41.270822443832678
 31
0.0
  0
LINE
  5
3E
  8
1
 10
73.84009211649402
 20
63.270822443832692
 30
0.0
 11
23.84009211649402
 21
63.270822443832692
 31
0.0
  0
LINE
  5
3F
  8
1
 10
48.84009211649402
 20
88.270822443832685
 30
0.0
 11
48.84009211649402
 21
38.270822443832692
 31
0.0
  0
CIRCLE
  5
43
  8
0
 10
48.84009211649402
 20
63.270822443832692
 30
0.0
 40
20.0
  0
CIRCLE
  5
44
  8
2
 10
48.84009211649402
 20
63.270822443832692
 30
0.0
 40
11.5
  0
CIRCLE
  5
45
  8
0
 10
48.84009211649402
 20
63.270822443832692
 30
0.0
 40
11.0
  0
ARC
  5
46
  8
0
 10
49.590092116493061
 20
63.270822443832692
 30
0.0
 40
9.75
 50
42.834156958489928
 51
317.16584304151081
  0
LINE
  5
47
  8
0
 10
55.763063146023448
 20
69.079884881361892
 30
0.0
 11
56.740007788103178
 21
69.899638770211595
 31
0.0
  0
LINE
  5
48
  8
0
 10
57.332373274328923
 20
66.361760006304337
 30
0.0
 11
59.176710945138773
 21
67.033044020415019
 31
0.0
  0
CIRCLE
  5
49
  8
0
 10
56.547717384269959
 20
67.720823874344575
 30
0.0
 40
1.0
  0
ARC
  5
4A
  8
0
 10
56.60912930674283
 20
67.756278156966999
 30
0.0
 40
1.570911426267553
 50
122.58722830885699
 51
297.41277169114261
  0
ARC
  5
4B
  8
0
 10
56.60912930674283
 20
58.785366730698513
 30
0.0
 40
1.570911426267553
 50
62.587228308857398
 51
237.41277169114289
  0
CIRCLE
  5
4C
  8
0
 10
56.547717384269959
 20
58.820821013320938
 30
0.0
 40
1.0
  0
LINE
  5
4D
  8
0
 10
57.332373274328923
 20
60.179884881361033
 30
0.0
 11
59.176710945138552
 21
59.508600867250493
 31
0.0
  0
LINE
  5
4E
  8
0
 10
55.763063146023448
 20
57.461760006303621
 30
0.0
 11
56.740007788103178
 21
56.642006117453782
 31
0.0
  0
LINE
  5
4F
  8
2
 10
59.176710945138773
 20
67.033044020415019
 30
0.0
 11
59.646557255531832
 21
67.204054092077911
 31
0.0
  0
LINE
  5
50
  8
2
 10
59.646557255531611
 20
59.337590795587737
 30
0.0
 11
59.176710945138552
 21
59.508600867250493
 31
0.0
  0
CIRCLE
  5
51
  8
0
 10
48.84009211649402
 20
63.270822443832692
 30
0.0
 40
4.0
  0
LINE
  5
52
  8
1
 10
103.84009211649401
 20
63.270822443832692
 30
0.0
 11
129.84009211649379
 21
63.270822443832692
 31
0.0
  0
LINE
  5
53
  8
0
 10
108.84009211649381
 20
43.270822443832692
 30
0.0
 11
108.8400921164942
 21
83.270822443832685
 31
0.0
  0
LINE
  5
54
  8
0
 10
124.84009211649381
 20
43.270822443832692
 30
0.0
 11
124.84009211649381
 21
83.270822443832685
 31
0.0
  0
LINE
  5
55
  8
2
 10
109.8400921164943
 20
52.270822443832742
 30
0.0
 11
111.9900921164939
 21
52.270822443832742
 31
0.0
  0
LINE
  5
56
  8
2
 10
111.9900921164939
 20
51.770822443832628
 30
0.0
 11
113.34009211649381
 21
51.770822443832628
 31
0.0
  0
LINE
  5
57
  8
2
 10
113.34009211649381
 20
52.270822443832742
 30
0.0
 11
120.1400921164939
 21
52.270822443832742
 31
0.0
  0
LINE
  5
58
  8
2
 10
109.8400921164943
 20
52.270822443832742
 30
0.0
 11
108.8400921164942
 21
51.693472174643119
 31
0.0
  0
ARC
  5
59
  8
2
 10
120.1400921164939
 20
52.47082244383256
 30
0.0
 40
0.2
 50
270.0
 51
359.99999999999989
  0
LINE
  5
5A
  8
2
 10
113.34009211649381
 20
69.670822443832833
 30
0.0
 11
115.1697628076453
 21
69.670822443832833
 31
0.0
  0
LINE
  5
5B
  8
2
 10
113.34009211649381
 20
71.870822443832537
 30
0.0
 11
115.16976280764609
 21
71.870822443832537
 31
0.0
  0
CIRCLE
  5
5C
  8
2
 10
116.84009211649381
 20
70.770822443832685
 30
0.0
 40
2.0
  0
LINE
  5
5D
  8
2
 10
118.51042142534141
 20
71.870822443832537
 30
0.0
 11
120.34009211649381
 21
71.870822443832537
 31
0.0
  0
LINE
  5
5E
  8
2
 10
118.5104214253423
 20
69.670822443832833
 30
0.0
 11
120.34009211649381
 21
69.670822443832833
 31
0.0
  0
ARC
  5
5F
  8
2
 10
113.6400921164939
 20
67.570822443832469
 30
0.0
 40
0.3
 50
180.0
 51
270.0
  0
ARC
  5
60
  8
2
 10
120.0400921164936
 20
67.570822443832753
 30
0.0
 40
0.3
 50
270.0
 51
0.0
  0
ARC
  5
61
  8
2
 10
120.0400921164936
 20
58.970822443832482
 30
0.0
 40
0.3
 50
0.0
 51
90.0
  0
ARC
  5
62
  8
2
 10
113.6400921164939
 20
58.970822443832482
 30
0.0
 40
0.3
 50
90.0
 51
180.00000000000011
  0
ARC
  5
63
  8
2
 10
120.0400921164936
 20
52.570822443832753
 30
0.0
 40
0.3
 50
270.0
 51
0.0
  0
ARC
  5
64
  8
2
 10
113.6400921164939
 20
52.570822443832753
 30
0.0
 40
0.3
 50
180.0
 51
270.0
  0
LINE
  5
65
  8
2
 10
118.5104214253423
 20
56.870822443832537
 30
0.0
 11
120.34009211649381
 21
56.870822443832537
 31
0.0
  0
LINE
  5
66
  8
2
 10
118.51042142534141
 20
54.670822443832833
 30
0.0
 11
120.34009211649381
 21
54.670822443832833
 31
0.0
  0
CIRCLE
  5
67
  8
2
 10
116.84009211649381
 20
55.770822443832692
 30
0.0
 40
2.0
  0
LINE
  5
68
  8
2
 10
113.34009211649381
 20
54.670822443832833
 30
0.0
 11
115.16976280764609
 21
54.670822443832833
 31
0.0
  0
LINE
  5
69
  8
2
 10
113.34009211649381
 20
56.870822443832537
 30
0.0
 11
115.1697628076453
 21
56.870822443832537
 31
0.0
  0
LINE
  5
6A
  8
2
 10
113.6400921164939
 20
67.270822443832742
 30
0.0
 11
120.0400921164936
 21
67.270822443832742
 31
0.0
  0
LINE
  5
6B
  8
2
 10
113.6400921164939
 20
59.270822443832628
 30
0.0
 11
120.0400921164936
 21
59.270822443832628
 31
0.0
  0
LINE
  5
6C
  8
2
 10
112.34009211649381
 20
72.991933491444513
 30
0.0
 11
113.34009211649381
 21
72.991933491444513
 31
0.0
  0
LINE
  5
6D
  8
2
 10
112.34009211649381
 20
53.549711396220857
 30
0.0
 11
113.34009211649381
 21
53.549711396220857
 31
0.0
  0
LINE
  5
6E
  8
2
 10
120.34009211649381
 20
54.270822443832628
 30
0.0
 11
124.84009211649381
 21
54.270822443832628
 31
0.0
  0
LINE
  5
6F
  8
2
 10
120.34009211649381
 20
72.270822443832742
 30
0.0
 11
124.84009211649381
 21
72.270822443832742
 31
0.0
  0
LINE
  5
70
  8
2
 10
109.8400921164943
 20
74.270822443832628
 30
0.0
 11
111.9900921164939
 21
74.270822443832628
 31
0.0
  0
LINE
  5
71
  8
2
 10
111.9900921164939
 20
74.770822443832742
 30
0.0
 11
113.34009211649381
 21
74.770822443832742
 31
0.0
  0
LINE
  5
72
  8
2
 10
113.34009211649381
 20
74.270822443832628
 30
0.0
 11
120.1400921164939
 21
74.270822443832628
 31
0.0
  0
LINE
  5
73
  8
2
 10
109.8400921164943
 20
74.270822443832628
 30
0.0
 11
108.8400921164942
 21
74.848172713022109
 31
0.0
  0
ARC
  5
74
  8
2
 10
120.1400921164939
 20
74.07082244383281
 30
0.0
 40
0.2
 50
359.99999999999977
 51
90.0
  0
ARC
  5
75
  8
2
 10
120.1400921164939
 20
74.07082244383281
 30
0.0
 40
0.2
 50
359.99999999999977
 51
90.0
  0
ARC
  5
76
  8
2
 10
120.0400921164936
 20
73.970822443832475
 30
0.0
 40
0.3
 50
0.0
 51
90.0
  0
ARC
  5
77
  8
2
 10
113.64009211649351
 20
73.970822443832475
 30
0.0
 40
0.3
 50
90.0
 51
180.0000000000002
  0
LINE
  5
78
  8
2
 10
120.34009211649381
 20
74.07082244383281
 30
0.0
 11
120.34009211649381
 21
52.47082244383256
 31
0.0
  0
LINE
  5
79
  8
2
 10
113.34009211649381
 20
74.770822443832742
 30
0.0
 11
113.34009211649381
 21
51.770822443832628
 31
0.0
  0
LINE
  5
7A
  8
2
 10
111.9900921164939
 20
74.770822443832742
 30
0.0
 11
111.9900921164939
 21
51.770822443832628
 31
0.0
  0
LINE
  5
7B
  8
2
 10
109.8400921164943
 20
74.270822443832628
 30
0.0
 11
109.8400921164943
 21
52.270822443832742
 31
0.0
  0
LINE
  5
7C
  8
2
 10
112.34009211649381
 20
51.770822443832628
 30
0.0
 11
112.34009211649381
 21
74.770822443832742
 31
0.0
  0
LINE
  5
A5
  8
0
 10
123.7909278924694
 20
83.270822443833481
 30
0.0
 11
123.7909278924694
 21
43.270822443831889
 31
0.0
  0
LINE
  5
A6
  8
0
 10
109.88925634052021
 20
83.270822443832571
 30
0.0
 11
109.88925634052021
 21
43.270822443832792
 31
0.0
  0
CIRCLE
  5
C2
  8
2
 10
48.84009211649402
 20
63.270822443832692
 30
0.0
 40
14.000000000000909
  0
TEXT
  5
16C
  8
0
 62
     3
 10
0.0
 20
0.0
 30
0.0
 40
10.0
  1
GRL40-Y-SUS
  7
STANDARD1
  0
ENDSEC
  0
EOF
