  0
SECTION
  2
HEADER
  9
$ACADVER
  1
AC1009
  9
$INSBASE
 10
0.0
 20
0.0
 30
0.0
  9
$EXTMIN
 10
0.0
 20
-2.960436562073669
 30
0.0
  9
$EXTMAX
 10
170.50000000000011
 20
70.500000000000043
 30
0.0
  9
$LIMMIN
 10
0.0
 20
0.0
  9
$LIMMAX
 10
187.5
 20
135.0
  9
$ORTHOMODE
 70
     1
  9
$REGENMODE
 70
     1
  9
$FILLMODE
 70
     1
  9
$QTEXTMODE
 70
     0
  9
$MIRRTEXT
 70
     0
  9
$DRAGMODE
 70
     2
  9
$LTSCALE
 40
5.0
  9
$OSMODE
 70
    37
  9
$ATTMODE
 70
     1
  9
$TEXTSIZE
 40
2.5000000000000488
  9
$TRACEWID
 40
0.05
  9
$TEXTSTYLE
  7
STANDARD
  9
$CLAYER
  8
0
  9
$CELTYPE
  6
BYLAYER
  9
$CECOLOR
 62
   256
  9
$DIMSCALE
 40
0.5
  9
$DIMASZ
 40
3.0
  9
$DIMEXO
 40
2.0
  9
$DIMDLI
 40
0.38
  9
$DIMRND
 40
0.0
  9
$DIMDLE
 40
0.0
  9
$DIMEXE
 40
2.0
  9
$DIMTP
 40
0.0
  9
$DIMTM
 40
0.0
  9
$DIMTXT
 40
3.2000000000000002
  9
$DIMCEN
 40
0.0
  9
$DIMTSZ
 40
0.0
  9
$DIMTOL
 70
     0
  9
$DIMLIM
 70
     0
  9
$DIMTIH
 70
     0
  9
$DIMTOH
 70
     0
  9
$DIMSE1
 70
     0
  9
$DIMSE2
 70
     0
  9
$DIMTAD
 70
     1
  9
$DIMZIN
 70
     0
  9
$DIMBLK
  1

  9
$DIMASO
 70
     1
  9
$DIMSHO
 70
     0
  9
$DIMPOST
  1

  9
$DIMAPOST
  1

  9
$DIMALT
 70
     0
  9
$DIMALTD
 70
     2
  9
$DIMALTF
 40
25.399999999999999
  9
$DIMLFAC
 40
1.0
  9
$DIMTOFL
 70
     1
  9
$DIMTVP
 40
1.6000000000000001
  9
$DIMTIX
 70
     1
  9
$DIMSOXD
 70
     0
  9
$DIMSAH
 70
     0
  9
$DIMBLK1
  1

  9
$DIMBLK2
  1

  9
$DIMSTYLE
  2
STANDARD
  9
$DIMCLRD
 70
     0
  9
$DIMCLRE
 70
     0
  9
$DIMCLRT
 70
     0
  9
$DIMTFAC
 40
1.0
  9
$DIMGAP
 40
0.09
  9
$LUNITS
 70
     2
  9
$LUPREC
 70
     4
  9
$SKETCHINC
 40
0.1
  9
$FILLETRAD
 40
0.0
  9
$AUNITS
 70
     0
  9
$AUPREC
 70
     4
  9
$MENU
  1
E:\r13\win\SUPPORT\ACAD
  9
$ELEVATION
 40
0.0
  9
$PELEVATION
 40
0.0
  9
$THICKNESS
 40
0.0
  9
$LIMCHECK
 70
     0
  9
$BLIPMODE
 70
     0
  9
$CHAMFERA
 40
0.0
  9
$CHAMFERB
 40
0.0
  9
$SKPOLY
 70
     0
  9
$TDCREATE
 40
2449839.787418982
  9
$TDUPDATE
 40
2457162.6031153239
  9
$TDINDWG
 40
0.3176632639
  9
$TDUSRTIMER
 40
0.3176632639
  9
$USRTIMER
 70
     1
  9
$ANGBASE
 50
0.0
  9
$ANGDIR
 70
     0
  9
$PDMODE
 70
     0
  9
$PDSIZE
 40
0.0
  9
$PLINEWID
 40
0.0
  9
$COORDS
 70
     1
  9
$SPLFRAME
 70
     0
  9
$SPLINETYPE
 70
     6
  9
$SPLINESEGS
 70
     8
  9
$ATTDIA
 70
     0
  9
$ATTREQ
 70
     1
  9
$HANDLING
 70
     1
  9
$HANDSEED
  5
1980
  9
$SURFTAB1
 70
     6
  9
$SURFTAB2
 70
     6
  9
$SURFTYPE
 70
     6
  9
$SURFU
 70
     6
  9
$SURFV
 70
     6
  9
$UCSNAME
  2

  9
$UCSORG
 10
0.0
 20
0.0
 30
0.0
  9
$UCSXDIR
 10
1.0
 20
0.0
 30
0.0
  9
$UCSYDIR
 10
0.0
 20
1.0
 30
0.0
  9
$PUCSNAME
  2

  9
$PUCSORG
 10
0.0
 20
0.0
 30
0.0
  9
$PUCSXDIR
 10
1.0
 20
0.0
 30
0.0
  9
$PUCSYDIR
 10
0.0
 20
1.0
 30
0.0
  9
$USERI1
 70
     0
  9
$USERI2
 70
     1
  9
$USERI3
 70
     1
  9
$USERI4
 70
     0
  9
$USERI5
 70
     0
  9
$USERR1
 40
0.0
  9
$USERR2
 40
0.0
  9
$USERR3
 40
0.0
  9
$USERR4
 40
0.0
  9
$USERR5
 40
0.0
  9
$WORLDVIEW
 70
     1
  9
$SHADEDGE
 70
     3
  9
$SHADEDIF
 70
    70
  9
$TILEMODE
 70
     1
  9
$MAXACTVP
 70
    16
  9
$PLIMCHECK
 70
     0
  9
$PEXTMIN
 10
1.0000000000000000E+020
 20
1.0000000000000000E+020
 30
1.0000000000000000E+020
  9
$PEXTMAX
 10
-1.0000000000000000E+020
 20
-1.0000000000000000E+020
 30
-1.0000000000000000E+020
  9
$PLIMMIN
 10
0.0
 20
0.0
  9
$PLIMMAX
 10
12.0
 20
9.0
  9
$UNITMODE
 70
     0
  9
$VISRETAIN
 70
     0
  9
$PLINEGEN
 70
     0
  9
$PSLTSCALE
 70
     0
  0
ENDSEC
  0
SECTION
  2
TABLES
  0
TABLE
  2
VPORT
 70
     1
  0
VPORT
  2
*ACTIVE
 70
     0
 10
0.0
 20
0.0
 11
1.0
 21
1.0
 12
172.54532068437049
 22
95.0
 13
0.0
 23
0.0
 14
5.0
 24
5.0
 15
5.0
 25
5.0
 16
0.0
 26
0.0
 36
1.0
 17
0.0
 27
0.0
 37
0.0
 40
190.02225276138799
 41
1.816239316239316
 42
50.0
 43
0.0
 44
0.0
 50
0.0
 51
0.0
 71
     0
 72
   500
 73
     1
 74
     0
 75
     0
 76
     0
 77
     0
 78
     2
  0
ENDTAB
  0
TABLE
  2
LTYPE
 70
     4
  0
LTYPE
  2
CONTINUOUS
 70
     0
  3
Solid Line
 72
    65
 73
     0
 40
0.0
  0
LTYPE
  2
CENTER
 70
     0
  3
____ _ ____ _ ____ _ ____ _ ____ _ ____ _ ____
 72
    65
 73
     4
 40
2.0
 49
1.25
 49
-0.25
 49
0.25
 49
-0.25
  0
LTYPE
  2
HIDDEN
 70
     0
  3
_ _ _ _ _ _ _ _ _ _ _ _ _ _ _ _ _ _ _ _ _ _ _
 72
    65
 73
     2
 40
0.375
 49
0.25
 49
-0.125
  0
LTYPE
  2
PHANTOM2
 70
     0
  3
___ _ _ ___ _ _ ___ _ _ ___ _ _
 72
    65
 73
     6
 40
1.25
 49
0.625
 49
-0.125
 49
0.125
 49
-0.125
 49
0.125
 49
-0.125
  0
ENDTAB
  0
TABLE
  2
LAYER
 70
     4
  0
LAYER
  2
0
 70
     0
 62
     7
  6
CONTINUOUS
  0
LAYER
  2
1
 70
     0
 62
     1
  6
CENTER
  0
LAYER
  2
3
 70
     0
 62
     3
  6
CONTINUOUS
  0
LAYER
  2
2
 70
     0
 62
     2
  6
HIDDEN
  0
ENDTAB
  0
TABLE
  2
STYLE
 70
     2
  0
STYLE
  2
STANDARD
 70
     0
 40
0.0
 41
1.0
 50
0.0
 71
     0
 42
2.5000000000000488
  3
TXT
  4
BIGFONT
  0
STYLE
  2
STANDARD1
 70
     0
 40
0.0
 41
1.0
 50
0.0
 71
     0
 42
3.0
  3
txt
  4

  0
ENDTAB
  0
TABLE
  2
VIEW
 70
     2
  0
VIEW
  2
ALL
 70
     0
 40
135.0
 10
110.4957983193277
 20
67.5
 41
0.0
 11
0.0
 21
0.0
 31
1.0
 12
0.0
 22
0.0
 32
0.0
 42
0.0
 43
0.0
 44
0.0
 50
0.0
 71
     0
  0
VIEW
  2
OLE1
 70
     0
 40
63.825144965398117
 10
233.6237691698706
 20
4.175601147383162
 41
113.79500935111911
 11
0.0
 21
0.0
 31
1.0
 12
0.0
 22
0.0
 32
0.0
 42
50.0
 43
0.0
 44
0.0
 50
0.0
 71
     0
  0
ENDTAB
  0
TABLE
  2
UCS
 70
     0
  0
ENDTAB
  0
TABLE
  2
APPID
 70
     4
  0
APPID
  2
ACAD
 70
     0
  0
APPID
  2
ACAD_EXEMPT_FROM_CAD_STANDARDS
 70
     0
  0
APPID
  2
ACAD_MLEADERVER
 70
     0
  0
APPID
  2
ACAD_NAV_VCDISPLAY
 70
     0
  0
ENDTAB
  0
TABLE
  2
DIMSTYLE
 70
     1
  0
DIMSTYLE
  2
STANDARD
 70
     0
  3

  4

  5

  6

  7

 40
1.0
 41
0.18
 42
0.0625
 43
0.38
 44
0.18
 45
0.0
 46
0.0
 47
0.0
 48
0.0
140
0.18
141
0.09
142
0.0
143
25.399999999999999
144
1.0
145
0.0
146
1.0
147
0.09
 71
     0
 72
     0
 73
     1
 74
     1
 75
     0
 76
     0
 77
     0
 78
     0
170
     0
171
     2
172
     0
173
     0
174
     0
175
     0
176
     0
177
     0
178
     0
  0
ENDTAB
  0
ENDSEC
  0
SECTION
  2
BLOCKS
  0
BLOCK
  8
0
  2
$MODEL_SPACE
 70
     0
 10
0.0
 20
0.0
 30
0.0
  3
$MODEL_SPACE
  1

  0
ENDBLK
  5
85E
  8
0
  0
BLOCK
 67
     1
  8
0
  2
$PAPER_SPACE
 70
     0
 10
0.0
 20
0.0
 30
0.0
  3
$PAPER_SPACE
  1

  0
ENDBLK
  5
85C
 67
     1
  8
0
  0
ENDSEC
  0
SECTION
  2
ENTITIES
  0
LINE
  5
FE3
  8
1
 10
129.5000000000002
 20
50.000000000000078
 30
0.0
 11
170.50000000000011
 21
50.000000000000078
 31
0.0
  0
LINE
  5
FE4
  8
1
 10
150.00000000000011
 20
29.500000000000131
 30
0.0
 11
150.00000000000011
 21
70.500000000000043
 31
0.0
  0
CIRCLE
  5
FE5
  8
0
 10
150.0
 20
50.000000000000043
 30
0.0
 40
13.5
  0
CIRCLE
  5
FE7
  8
0
 10
150.0
 20
50.000000000000043
 30
0.0
 40
8.4181818181818162
  0
CIRCLE
  5
FE8
  8
0
 10
150.0
 20
50.000000000000043
 30
0.0
 40
6.8181818181818166
  0
LINE
  5
FE9
  8
0
 10
164.47546829493331
 20
50.843100019201941
 30
0.0
 11
165.43004687647701
 21
51.470936228978871
 31
0.0
  0
ARC
  5
FEA
  8
0
 10
150.00000000000011
 20
50.000000000000043
 30
0.0
 40
15.499999999999879
 50
5.4455130956059099
 51
14.55448690439462
  0
LINE
  5
FEB
  8
0
 10
165.4964796927878
 20
50.3303288225651
 30
0.0
 11
164.47546829493331
 21
50.843100019201941
 31
0.0
  0
LINE
  5
FEC
  8
0
 10
165.00259100806429
 20
53.895158924196437
 30
0.0
 11
163.8908479285746
 21
54.158646874310847
 31
0.0
  0
ARC
  5
FED
  8
0
 10
149.99999999999849
 20
50.000000000000213
 30
0.0
 40
15.50000000000148
 50
352.112179762273
 51
1.221153571060585
  0
LINE
  5
FEE
  8
0
 10
164.27971241867701
 20
47.482101423829562
 30
0.0
 11
165.3533492052147
 21
47.872873256542498
 31
0.0
  0
LINE
  5
FEF
  8
0
 10
163.8908479285746
 20
54.158646874310861
 30
0.0
 11
164.67490672670959
 21
54.989700648573333
 31
0.0
  0
ARC
  5
FF0
  8
0
 10
149.99999999999889
 20
49.999999999999417
 30
0.0
 40
15.50000000000121
 50
18.778846428939818
 51
27.887820237727929
  0
LINE
  5
FF1
  8
0
 10
163.69990875882019
 20
57.250000000000028
 30
0.0
 11
162.55736835487431
 21
57.250000000000028
 31
0.0
  0
LINE
  5
FF2
  8
0
 10
165.15494914615871
 20
46.747690608606867
 30
0.0
 11
164.27971241867701
 21
47.48210142382954
 31
0.0
  0
ARC
  5
FF3
  8
0
 10
150.0000000000004
 20
49.999999999999837
 30
0.0
 40
15.49999999999948
 50
338.77884642893878
 51
347.88782023772808
  0
LINE
  5
FF4
  8
0
 10
163.31413354976399
 20
44.256843392432273
 30
0.0
 11
164.44894850423299
 21
44.389484237432171
 31
0.0
  0
LINE
  5
FF5
  8
0
 10
162.55736835487431
 20
57.250000000000043
 30
0.0
 11
163.12863855684731
 21
58.239469014667328
 31
0.0
  0
ARC
  5
FF6
  8
0
 10
150.0000000000006
 20
50.000000000000277
 30
0.0
 40
15.49999999999941
 50
32.112179762273669
 51
41.221153571062572
  0
LINE
  5
FF7
  8
0
 10
161.6586608822989
 20
60.213991699211071
 30
0.0
 11
160.54691780280919
 21
59.950503749096647
 31
0.0
  0
LINE
  5
FF8
  8
0
 10
163.99641136834779
 20
43.340385235767542
 30
0.0
 11
163.31413354976399
 21
44.256843392432252
 31
0.0
  0
ARC
  5
FF9
  8
0
 10
149.99999999999989
 20
50.000000000000043
 30
0.0
 40
15.50000000000003
 50
325.44551309560518
 51
334.55448690439403
  0
LINE
  5
FFA
  8
0
 10
161.63078629494811
 20
41.34120042030964
 30
0.0
 11
162.7656012494171
 21
41.208559575309749
 31
0.0
  0
LINE
  5
FFB
  8
0
 10
160.54691780280919
 20
59.950503749096683
 30
0.0
 11
160.87460208416391
 21
61.045045473473571
 31
0.0
  0
ARC
  5
FFC
  8
0
 10
149.99999999999969
 20
49.999999999999588
 30
0.0
 40
15.50000000000054
 50
45.445513095606202
 51
54.554486904392547
  0
LINE
  5
FFD
  8
0
 10
158.988891579881
 20
62.627344462124441
 30
0.0
 11
157.9678801820267
 21
62.1145732654876
 31
0.0
  0
LINE
  5
FFE
  8
0
 10
162.08332343083319
 20
40.292101418645032
 30
0.0
 11
161.63078629494811
 21
41.341200420309619
 31
0.0
  0
ARC
  5
FFF
  8
0
 10
150.0000000000004
 20
49.999999999999389
 30
0.0
 40
15.49999999999925
 50
312.11217976227141
 51
321.22115357106259
  0
LINE
  5
1000
  8
0
 10
159.3204203404548
 20
38.892355574774868
 30
0.0
 11
160.39405712699249
 21
38.501583742061932
 31
0.0
  0
LINE
  5
1001
  8
0
 10
157.9678801820267
 20
62.114573265487621
 30
0.0
 11
158.03431299833741
 21
63.25518067190135
 31
0.0
  0
ARC
  5
1002
  8
0
 10
149.99999999999949
 20
49.999999999999233
 30
0.0
 40
15.50000000000095
 50
58.778846428937761
 51
67.887820237727681
  0
LINE
  5
1003
  8
0
 10
155.8345288057038
 20
64.359953816618386
 30
0.0
 11
154.95929207822221
 21
63.625543001395712
 31
0.0
  0
LINE
  5
1004
  8
0
 10
159.51882039951079
 20
37.767172926839251
 30
0.0
 11
159.3204203404548
 21
38.892355574774861
 31
0.0
  0
ARC
  5
1005
  8
0
 10
150.0000000000004
 20
49.999999999999197
 30
0.0
 40
15.499999999999069
 50
298.77884642893918
 51
307.88782023772882
  0
LINE
  5
1006
  8
0
 10
156.50758811290669
 20
37.042326715310573
 30
0.0
 11
157.4621666944503
 21
36.414490505533649
 31
0.0
  0
LINE
  5
1007
  8
0
 10
154.95929207822221
 20
63.625543001395727
 30
0.0
 11
154.76089201916611
 21
64.750725649331329
 31
0.0
  0
ARC
  5
1008
  8
0
 10
150.0000000000002
 20
50.000000000000739
 30
0.0
 40
15.499999999999259
 50
72.112179762274081
 51
81.221153571061251
  0
LINE
  5
1009
  8
0
 10
152.36562507339971
 20
65.318414343922925
 30
0.0
 11
151.6833472548158
 21
64.401956187258193
 31
0.0
  0
LINE
  5
100A
  8
0
 10
156.44115529659601
 20
35.90171930889683
 30
0.0
 11
156.50758811290669
 21
37.042326715310551
 31
0.0
  0
ARC
  5
100B
  8
0
 10
149.99999999999969
 20
50.000000000000647
 30
0.0
 40
15.50000000000067
 50
285.44551309560592
 51
294.55448690439312
  0
LINE
  5
100C
  8
0
 10
153.34393012576541
 20
35.890849376592598
 30
0.0
 11
154.1279889239004
 21
35.059795602330126
 31
0.0
  0
LINE
  5
100D
  8
0
 10
151.6833472548158
 20
64.401956187258193
 30
0.0
 11
151.23081011893061
 21
65.451055188922837
 31
0.0
  0
ARC
  5
100E
  8
0
 10
149.99999999999989
 20
50.000000000000817
 30
0.0
 40
15.49999999999922
 50
85.445513095604014
 51
94.554486904392718
  0
LINE
  5
100F
  8
0
 10
148.76918988106931
 20
65.451055188922837
 30
0.0
 11
148.31665274518409
 21
64.401956187258193
 31
0.0
  0
LINE
  5
1010
  8
0
 10
153.01624584441061
 20
34.796307652215731
 30
0.0
 11
153.34393012576541
 21
35.890849376592598
 31
0.0
  0
ARC
  5
1011
  8
0
 10
149.9999999999998
 20
50.000000000001961
 30
0.0
 40
15.500000000001929
 50
272.11217976227351
 51
281.22115357105957
  0
LINE
  5
1012
  8
0
 10
150.0
 20
35.500000000000043
 30
0.0
 11
150.57127020197291
 21
34.510530985332771
 31
0.0
  0
LINE
  5
1013
  8
0
 10
148.31665274518409
 20
64.401956187258222
 30
0.0
 11
147.63437492660029
 21
65.318414343922939
 31
0.0
  0
ARC
  5
1014
  8
0
 10
150.00000000000011
 20
49.99999999999978
 30
0.0
 40
15.50000000000027
 50
98.778846428938763
 51
107.8878202377259
  0
LINE
  5
1015
  8
0
 10
145.23910798083381
 20
64.750725649331329
 30
0.0
 11
145.04070792177779
 21
63.625543001395712
 31
0.0
  0
LINE
  5
1016
  8
0
 10
149.42872979802701
 20
34.510530985332792
 30
0.0
 11
150.0
 21
35.500000000000057
 31
0.0
  0
ARC
  5
1017
  8
0
 10
149.99999999999989
 20
50.000000000000782
 30
0.0
 40
15.5000000000007
 50
258.77884642894043
 51
267.8878202377266
  0
LINE
  5
1018
  8
0
 10
146.65606987423459
 20
35.890849376592598
 30
0.0
 11
146.98375415558931
 21
34.796307652215717
 31
0.0
  0
LINE
  5
1019
  8
0
 10
145.04070792177779
 20
63.625543001395712
 30
0.0
 11
144.16547119429609
 21
64.359953816618386
 31
0.0
  0
ARC
  5
101A
  8
0
 10
149.9999999999998
 20
50.000000000000391
 30
0.0
 40
15.49999999999959
 50
112.11217976227231
 51
121.221153571062
  0
LINE
  5
101B
  8
0
 10
141.9656870016625
 20
63.25518067190135
 30
0.0
 11
142.0321198179733
 21
62.114573265487621
 31
0.0
  0
LINE
  5
101C
  8
0
 10
145.87201107609951
 20
35.059795602330141
 30
0.0
 11
146.65606987423459
 21
35.890849376592598
 31
0.0
  0
ARC
  5
101D
  8
0
 10
150.0000000000002
 20
50.000000000000909
 30
0.0
 40
15.50000000000089
 50
245.44551309560691
 51
254.55448690439391
  0
LINE
  5
101E
  8
0
 10
143.49241188709331
 20
37.042326715310573
 30
0.0
 11
143.55884470340399
 21
35.90171930889683
 31
0.0
  0
LINE
  5
101F
  8
0
 10
142.0321198179733
 20
62.114573265487621
 30
0.0
 11
141.01110842011889
 21
62.627344462124441
 31
0.0
  0
ARC
  5
1020
  8
0
 10
150.00000000000011
 20
49.999999999999872
 30
0.0
 40
15.50000000000022
 50
125.4455130956074
 51
134.5544869043938
  0
LINE
  5
1021
  8
0
 10
139.125397915836
 20
61.04504547347355
 30
0.0
 11
139.45308219719081
 21
59.950503749096683
 31
0.0
  0
LINE
  5
1022
  8
0
 10
142.5378333055497
 20
36.414490505533642
 30
0.0
 11
143.49241188709331
 21
37.042326715310573
 31
0.0
  0
ARC
  5
1023
  8
0
 10
149.99999999999929
 20
49.999999999998728
 30
0.0
 40
15.49999999999855
 50
232.11217976227121
 51
241.22115357106071
  0
LINE
  5
1024
  8
0
 10
140.6795796595452
 20
38.892355574774861
 30
0.0
 11
140.4811796004891
 21
37.767172926839237
 31
0.0
  0
LINE
  5
1025
  8
0
 10
139.45308219719081
 20
59.950503749096683
 30
0.0
 11
138.3413391177011
 21
60.213991699211078
 31
0.0
  0
ARC
  5
1026
  8
0
 10
150.00000000000099
 20
49.999999999999332
 30
0.0
 40
15.50000000000122
 50
138.77884642894119
 51
147.8878202377276
  0
LINE
  5
1027
  8
0
 10
136.87136144315269
 20
58.239469014667321
 30
0.0
 11
137.4426316451256
 21
57.250000000000043
 31
0.0
  0
LINE
  5
1028
  8
0
 10
139.60594287300751
 20
38.501583742061939
 30
0.0
 11
140.6795796595452
 21
38.892355574774868
 31
0.0
  0
ARC
  5
1029
  8
0
 10
150.0000000000008
 20
50.000000000000888
 30
0.0
 40
15.50000000000114
 50
218.77884642894119
 51
227.8878202377287
  0
LINE
  5
102A
  8
0
 10
138.36921370505189
 20
41.34120042030964
 30
0.0
 11
137.91667656916661
 21
40.292101418645018
 31
0.0
  0
LINE
  5
102B
  8
0
 10
137.4426316451256
 20
57.250000000000043
 30
0.0
 11
136.3000912411797
 21
57.250000000000043
 31
0.0
  0
ARC
  5
102C
  8
0
 10
150.00000000000031
 20
50.000000000000028
 30
0.0
 40
15.500000000000311
 50
152.11217976227201
 51
161.22115357106091
  0
LINE
  5
102D
  8
0
 10
135.32509327329041
 20
54.989700648573312
 30
0.0
 11
136.1091520714254
 21
54.158646874310861
 31
0.0
  0
LINE
  5
102E
  8
0
 10
137.23439875058281
 20
41.208559575309749
 30
0.0
 11
138.36921370505181
 21
41.34120042030964
 31
0.0
  0
ARC
  5
102F
  8
0
 10
150.00000000000031
 20
50.000000000000178
 30
0.0
 40
15.500000000000311
 50
205.44551309560589
 51
214.55448690439459
  0
LINE
  5
1030
  8
0
 10
136.68586645023601
 20
44.256843392432252
 30
0.0
 11
136.00358863165221
 21
43.340385235767542
 31
0.0
  0
LINE
  5
1031
  8
0
 10
136.1091520714254
 20
54.158646874310847
 30
0.0
 11
134.99740899193571
 21
53.895158924196451
 31
0.0
  0
ARC
  5
1032
  8
0
 10
150.00000000000119
 20
49.999999999999922
 30
0.0
 40
15.500000000001251
 50
165.4455130956062
 51
174.55448690439411
  0
LINE
  5
1033
  8
0
 10
134.56995312352299
 20
51.470936228978857
 30
0.0
 11
135.52453170506661
 21
50.843100019201941
 31
0.0
  0
LINE
  5
1034
  8
0
 10
135.55105149576701
 20
44.389484237432171
 30
0.0
 11
136.68586645023601
 21
44.256843392432273
 31
0.0
  0
ARC
  5
1035
  8
0
 10
150.0000000000004
 20
50.000000000000171
 30
0.0
 40
15.500000000000471
 50
192.1121797622724
 51
201.2211535710604
  0
LINE
  5
1036
  8
0
 10
135.72028758132291
 20
47.48210142382954
 30
0.0
 11
134.84505085384129
 21
46.747690608606867
 31
0.0
  0
LINE
  5
1037
  8
0
 10
135.52453170506661
 20
50.843100019201941
 30
0.0
 11
134.50352030721231
 21
50.330328822565122
 31
0.0
  0
ARC
  5
1038
  8
0
 10
150.0
 20
49.999999999999922
 30
0.0
 40
15.50000000000006
 50
178.77884642893861
 51
187.88782023772691
  0
LINE
  5
1039
  8
0
 10
134.6466507947853
 20
47.872873256542491
 30
0.0
 11
135.72028758132291
 21
47.48210142382954
 31
0.0
  0
CIRCLE
  5
103B
  8
0
 10
149.9999999999998
 20
49.999999999999943
 30
0.0
 40
14.49999999999976
  0
LINE
  5
107A
  8
1
 10
83.499999999999986
 20
50.000000000000078
 30
0.0
 11
117.5
 21
50.000000000000078
 31
0.0
  0
LINE
  5
107D
  8
0
 10
89.800000000000026
 20
57.500000000000078
 30
0.0
 11
88.799999999999997
 21
56.500000000000092
 31
0.0
  0
LINE
  5
107E
  8
0
 10
88.799999999999997
 20
43.500000000000078
 30
0.0
 11
89.800000000000026
 21
42.500000000000078
 31
0.0
  0
LINE
  5
107F
  8
0
 10
100.0
 20
57.500000000000078
 30
0.0
 11
89.800000000000026
 21
57.500000000000078
 31
0.0
  0
LINE
  5
1080
  8
0
 10
89.800000000000026
 20
42.500000000000078
 30
0.0
 11
100.0
 21
42.500000000000078
 31
0.0
  0
ARC
  5
1081
  8
0
 10
100.5
 20
37.000000000000092
 30
0.0
 40
0.5000000000000018
 50
180.0
 51
270.0
  0
ARC
  5
1082
  8
0
 10
100.5
 20
63.000000000000078
 30
0.0
 40
0.5000000000000036
 50
90.0
 51
180.0
  0
LINE
  5
1083
  8
0
 10
100.95999999999999
 20
63.500000000000078
 30
0.0
 11
100.5
 21
63.500000000000078
 31
0.0
  0
LINE
  5
1084
  8
0
 10
100.5
 20
36.500000000000092
 30
0.0
 11
100.95999999999999
 21
36.500000000000092
 31
0.0
  0
LINE
  5
1085
  8
0
 10
112.0
 20
63.500000000000078
 30
0.0
 11
111.54000000000001
 21
63.500000000000078
 31
0.0
  0
LINE
  5
1086
  8
0
 10
111.54000000000001
 20
36.500000000000092
 30
0.0
 11
112.0
 21
36.500000000000092
 31
0.0
  0
ARC
  5
1087
  8
0
 10
112.0
 20
37.000000000000099
 30
0.0
 40
0.5000000000000071
 50
270.0
 51
0.0
  0
ARC
  5
1088
  8
0
 10
112.0
 20
63.000000000000071
 30
0.0
 40
0.5000000000000071
 50
0.0
 51
90.0
  0
LINE
  5
1089
  8
0
 10
101.4263076581549
 20
65.5
 30
0.0
 11
100.95999999999999
 21
64.500000000000085
 31
0.0
  0
LINE
  5
108A
  8
0
 10
111.54000000000001
 20
64.500000000000085
 30
0.0
 11
111.073692341845
 21
65.5
 31
0.0
  0
LINE
  5
108B
  8
0
 10
105.6726497308106
 20
65.500000000000099
 30
0.0
 11
104.1823502691893
 21
65.500000000000099
 31
0.0
  0
LINE
  5
108C
  8
0
 10
103.02764973081059
 20
65.500000000000099
 30
0.0
 11
101.4263076581547
 21
65.500000000000099
 31
0.0
  0
LINE
  5
108D
  8
0
 10
108.3176497308107
 20
65.500000000000099
 30
0.0
 11
106.8273502691893
 21
65.500000000000099
 31
0.0
  0
LINE
  5
108E
  8
0
 10
111.0736923418452
 20
65.500000000000099
 30
0.0
 11
109.47235026918931
 21
65.500000000000099
 31
0.0
  0
LINE
  5
108F
  8
0
 10
108.895
 20
64.500000000000085
 30
0.0
 11
108.3176497308104
 21
65.499999999999972
 31
0.0
  0
LINE
  5
1090
  8
0
 10
109.4723502691896
 20
65.499999999999972
 30
0.0
 11
108.895
 21
64.500000000000085
 31
0.0
  0
LINE
  5
1091
  8
0
 10
106.25
 20
64.500000000000085
 30
0.0
 11
105.67264973081041
 21
65.499999999999972
 31
0.0
  0
LINE
  5
1092
  8
0
 10
106.82735026918949
 20
65.499999999999972
 30
0.0
 11
106.25
 21
64.500000000000085
 31
0.0
  0
LINE
  5
1093
  8
0
 10
103.605
 20
64.500000000000071
 30
0.0
 11
103.0276497308104
 21
65.499999999999972
 31
0.0
  0
LINE
  5
1094
  8
0
 10
104.1823502691895
 20
65.499999999999972
 30
0.0
 11
103.605
 21
64.500000000000071
 31
0.0
  0
LINE
  5
1096
  8
0
 10
88.799999999999997
 20
43.500000000000078
 30
0.0
 11
88.799999999999997
 21
56.500000000000092
 31
0.0
  0
LINE
  5
1097
  8
0
 10
89.800000000000026
 20
42.500000000000078
 30
0.0
 11
89.800000000000026
 21
57.500000000000078
 31
0.0
  0
LINE
  5
1098
  8
0
 10
100.0
 20
37.000000000000092
 30
0.0
 11
100.0
 21
63.000000000000078
 31
0.0
  0
LINE
  5
1099
  8
0
 10
100.5
 20
36.500000000000092
 30
0.0
 11
100.5
 21
63.500000000000078
 31
0.0
  0
LINE
  5
109A
  8
0
 10
112.0
 20
36.500000000000092
 30
0.0
 11
112.0
 21
63.500000000000078
 31
0.0
  0
LINE
  5
109B
  8
0
 10
112.5
 20
37.000000000000092
 30
0.0
 11
112.5
 21
63.000000000000078
 31
0.0
  0
LINE
  5
109C
  8
0
 10
100.95999999999999
 20
35.500000000000092
 30
0.0
 11
100.95999999999999
 21
64.500000000000085
 31
0.0
  0
LINE
  5
109D
  8
0
 10
111.54000000000001
 20
35.500000000000092
 30
0.0
 11
111.54000000000001
 21
64.500000000000085
 31
0.0
  0
LINE
  5
109E
  8
0
 10
101.426307658155
 20
34.796307652215759
 30
0.0
 11
100.95999999999999
 21
35.890849376592641
 31
0.0
  0
LINE
  5
109F
  8
0
 10
101.426307658155
 20
35.901719308896872
 30
0.0
 11
100.95999999999999
 21
37.042326715310608
 31
0.0
  0
LINE
  5
10A0
  8
0
 10
101.426307658155
 20
37.76717292683928
 30
0.0
 11
100.95999999999999
 21
38.892355574774911
 31
0.0
  0
LINE
  5
10A1
  8
0
 10
101.426307658155
 20
40.292101418645068
 30
0.0
 11
100.95999999999999
 21
41.34120042030969
 31
0.0
  0
LINE
  5
10A2
  8
0
 10
101.426307658155
 20
43.340385235767577
 30
0.0
 11
100.95999999999999
 21
44.256843392432323
 31
0.0
  0
LINE
  5
10A3
  8
0
 10
101.426307658155
 20
46.747690608606909
 30
0.0
 11
100.95999999999999
 21
47.48210142382959
 31
0.0
  0
LINE
  5
10A4
  8
0
 10
104.1823502691896
 20
50.330328822565171
 30
0.0
 11
105.67264973081041
 21
50.330328822565171
 31
0.0
  0
LINE
  5
10A5
  8
0
 10
104.1823502691896
 20
51.4709362289789
 30
0.0
 11
105.67264973081041
 21
51.4709362289789
 31
0.0
  0
LINE
  5
10A6
  8
0
 10
104.1823502691896
 20
53.895158924196487
 30
0.0
 11
105.67264973081041
 21
53.895158924196487
 31
0.0
  0
LINE
  5
10A7
  8
0
 10
104.1823502691896
 20
54.989700648573361
 30
0.0
 11
105.67264973081041
 21
54.989700648573361
 31
0.0
  0
LINE
  5
10A8
  8
0
 10
104.1823502691896
 20
58.239469014667371
 30
0.0
 11
105.67264973081041
 21
58.239469014667371
 31
0.0
  0
LINE
  5
10A9
  8
0
 10
104.1823502691896
 20
60.213991699211121
 30
0.0
 11
105.67264973081041
 21
60.213991699211121
 31
0.0
  0
LINE
  5
10AA
  8
0
 10
104.1823502691896
 20
61.045045473473593
 30
0.0
 11
105.67264973081041
 21
61.045045473473593
 31
0.0
  0
LINE
  5
10AB
  8
0
 10
104.1823502691896
 20
62.627344462124483
 30
0.0
 11
105.67264973081041
 21
62.627344462124483
 31
0.0
  0
LINE
  5
10AC
  8
0
 10
104.1823502691896
 20
63.2551806719014
 30
0.0
 11
105.67264973081041
 21
63.2551806719014
 31
0.0
  0
LINE
  5
10AD
  8
0
 10
104.1823502691896
 20
64.359953816618429
 30
0.0
 11
105.67264973081041
 21
64.359953816618429
 31
0.0
  0
LINE
  5
10AE
  8
0
 10
104.1823502691896
 20
64.750725649331372
 30
0.0
 11
105.67264973081041
 21
64.750725649331372
 31
0.0
  0
LINE
  5
10AF
  8
0
 10
104.1823502691896
 20
65.318414343922981
 30
0.0
 11
105.67264973081041
 21
65.318414343922981
 31
0.0
  0
LINE
  5
10B0
  8
0
 10
104.1823502691896
 20
65.451055188922879
 30
0.0
 11
105.67264973081041
 21
65.451055188922879
 31
0.0
  0
LINE
  5
10B1
  8
0
 10
101.4263076581547
 20
65.451055188922879
 30
0.0
 11
101.4263076581547
 21
65.500000000000085
 31
0.0
  0
LINE
  5
10B2
  8
0
 10
111.0736923418452
 20
65.500000000000085
 30
0.0
 11
111.0736923418452
 21
65.451055188922879
 31
0.0
  0
LINE
  5
10B3
  8
0
 10
100.95999999999999
 20
64.40195618725825
 30
0.0
 11
101.426307658155
 21
65.451055188922879
 31
0.0
  0
LINE
  5
10B4
  8
0
 10
101.426307658155
 20
65.451055188922879
 30
0.0
 11
103.0276497308104
 21
65.451055188922879
 31
0.0
  0
LINE
  5
10B5
  8
0
 10
106.82735026918959
 20
65.451055188922879
 30
0.0
 11
108.3176497308103
 21
65.451055188922879
 31
0.0
  0
LINE
  5
10B6
  8
0
 10
109.4723502691896
 20
65.451055188922879
 30
0.0
 11
111.073692341845
 21
65.451055188922879
 31
0.0
  0
LINE
  5
10B7
  8
0
 10
111.073692341845
 20
65.451055188922879
 30
0.0
 11
111.54000000000001
 21
64.40195618725825
 31
0.0
  0
LINE
  5
10B8
  8
0
 10
101.426307658155
 20
65.318414343922981
 30
0.0
 11
100.95999999999999
 21
64.40195618725825
 31
0.0
  0
LINE
  5
10B9
  8
0
 10
111.54000000000001
 20
64.401956187258264
 30
0.0
 11
111.073692341845
 21
65.318414343922981
 31
0.0
  0
LINE
  5
10BA
  8
0
 10
101.4263076581549
 20
64.750725649331372
 30
0.0
 11
101.4263076581549
 21
65.318414343922981
 31
0.0
  0
LINE
  5
10BB
  8
0
 10
101.426307658155
 20
65.318414343922981
 30
0.0
 11
103.0276497308104
 21
65.318414343922981
 31
0.0
  0
LINE
  5
10BC
  8
0
 10
106.82735026918959
 20
65.318414343922981
 30
0.0
 11
108.3176497308103
 21
65.318414343922981
 31
0.0
  0
LINE
  5
10BD
  8
0
 10
109.4723502691896
 20
65.318414343922981
 30
0.0
 11
111.073692341845
 21
65.318414343922981
 31
0.0
  0
LINE
  5
10BE
  8
0
 10
111.073692341845
 20
65.318414343922981
 30
0.0
 11
111.073692341845
 21
64.750725649331372
 31
0.0
  0
LINE
  5
10BF
  8
0
 10
100.95999999999999
 20
63.625543001395748
 30
0.0
 11
101.426307658155
 21
64.750725649331372
 31
0.0
  0
LINE
  5
10C0
  8
0
 10
101.426307658155
 20
64.750725649331372
 30
0.0
 11
103.0276497308104
 21
64.750725649331372
 31
0.0
  0
LINE
  5
10C1
  8
0
 10
106.82735026918959
 20
64.750725649331372
 30
0.0
 11
108.3176497308104
 21
64.750725649331372
 31
0.0
  0
LINE
  5
10C2
  8
0
 10
109.4723502691896
 20
64.750725649331372
 30
0.0
 11
111.073692341845
 21
64.750725649331372
 31
0.0
  0
LINE
  5
10C3
  8
0
 10
111.073692341845
 20
64.750725649331372
 30
0.0
 11
111.54000000000001
 21
63.625543001395748
 31
0.0
  0
LINE
  5
10C4
  8
0
 10
100.95999999999999
 20
35.500000000000092
 30
0.0
 11
101.426307658155
 21
34.510530985332842
 31
0.0
  0
LINE
  5
10C5
  8
0
 10
111.073692341845
 20
34.510530985332842
 30
0.0
 11
111.54000000000001
 21
35.500000000000099
 31
0.0
  0
LINE
  5
10C6
  8
0
 10
104.1823502691896
 20
34.510530985332842
 30
0.0
 11
105.67264973081041
 21
34.510530985332842
 31
0.0
  0
LINE
  5
10C7
  8
0
 10
101.426307658155
 20
34.510530985332842
 30
0.0
 11
103.0276497308104
 21
34.510530985332842
 31
0.0
  0
LINE
  5
10C8
  8
0
 10
101.4263076581551
 20
34.510530985332842
 30
0.0
 11
101.4263076581551
 21
34.796307652215759
 31
0.0
  0
LINE
  5
10C9
  8
0
 10
101.426307658155
 20
34.796307652215759
 30
0.0
 11
103.0276497308104
 21
34.796307652215759
 31
0.0
  0
LINE
  5
10CA
  8
0
 10
106.82735026918959
 20
34.510530985332842
 30
0.0
 11
108.3176497308104
 21
34.510530985332842
 31
0.0
  0
LINE
  5
10CB
  8
0
 10
111.0736923418449
 20
34.796307652215759
 30
0.0
 11
111.0736923418449
 21
34.510530985332842
 31
0.0
  0
LINE
  5
10CC
  8
0
 10
109.4723502691896
 20
34.510530985332842
 30
0.0
 11
111.073692341845
 21
34.510530985332842
 31
0.0
  0
LINE
  5
10CD
  8
0
 10
104.1823502691896
 20
34.796307652215759
 30
0.0
 11
105.67264973081041
 21
34.796307652215759
 31
0.0
  0
LINE
  5
10CE
  8
0
 10
106.82735026918959
 20
34.796307652215759
 30
0.0
 11
108.3176497308103
 21
34.796307652215759
 31
0.0
  0
LINE
  5
10CF
  8
0
 10
111.54000000000001
 20
35.890849376592641
 30
0.0
 11
111.073692341845
 21
34.796307652215759
 31
0.0
  0
LINE
  5
10D0
  8
0
 10
109.4723502691896
 20
34.796307652215759
 30
0.0
 11
111.073692341845
 21
34.796307652215759
 31
0.0
  0
LINE
  5
10D1
  8
0
 10
101.426307658155
 20
64.359953816618429
 30
0.0
 11
100.95999999999999
 21
63.625543001395748
 31
0.0
  0
LINE
  5
10D2
  8
0
 10
111.54000000000001
 20
63.625543001395748
 30
0.0
 11
111.073692341845
 21
64.359953816618429
 31
0.0
  0
LINE
  5
10D3
  8
0
 10
101.4263076581547
 20
63.2551806719014
 30
0.0
 11
101.4263076581547
 21
64.359953816618429
 31
0.0
  0
LINE
  5
10D4
  8
0
 10
101.426307658155
 20
64.359953816618429
 30
0.0
 11
103.0276497308104
 21
64.359953816618429
 31
0.0
  0
LINE
  5
10D5
  8
0
 10
106.82735026918959
 20
64.359953816618429
 30
0.0
 11
108.3176497308104
 21
64.359953816618429
 31
0.0
  0
LINE
  5
10D6
  8
0
 10
109.4723502691896
 20
64.359953816618429
 30
0.0
 11
111.073692341845
 21
64.359953816618429
 31
0.0
  0
LINE
  5
10D7
  8
0
 10
111.0736923418452
 20
64.359953816618429
 30
0.0
 11
111.0736923418452
 21
63.2551806719014
 31
0.0
  0
LINE
  5
10D8
  8
0
 10
100.95999999999999
 20
62.114573265487657
 30
0.0
 11
101.426307658155
 21
63.2551806719014
 31
0.0
  0
LINE
  5
10D9
  8
0
 10
101.426307658155
 20
63.2551806719014
 30
0.0
 11
103.0276497308104
 21
63.2551806719014
 31
0.0
  0
LINE
  5
10DA
  8
0
 10
106.82735026918959
 20
63.2551806719014
 30
0.0
 11
108.3176497308103
 21
63.2551806719014
 31
0.0
  0
LINE
  5
10DB
  8
0
 10
109.4723502691896
 20
63.2551806719014
 30
0.0
 11
111.073692341845
 21
63.2551806719014
 31
0.0
  0
LINE
  5
10DC
  8
0
 10
111.073692341845
 20
63.2551806719014
 30
0.0
 11
111.54000000000001
 21
62.114573265487657
 31
0.0
  0
LINE
  5
10DD
  8
0
 10
100.95999999999999
 20
35.890849376592641
 30
0.0
 11
101.426307658155
 21
35.05979560233019
 31
0.0
  0
LINE
  5
10DE
  8
0
 10
111.073692341845
 20
35.05979560233019
 30
0.0
 11
111.54000000000001
 21
35.890849376592641
 31
0.0
  0
LINE
  5
10DF
  8
0
 10
104.1823502691896
 20
35.05979560233019
 30
0.0
 11
105.67264973081041
 21
35.05979560233019
 31
0.0
  0
LINE
  5
10E0
  8
0
 10
101.426307658155
 20
35.05979560233019
 30
0.0
 11
103.0276497308104
 21
35.05979560233019
 31
0.0
  0
LINE
  5
10E1
  8
0
 10
101.4263076581552
 20
35.05979560233019
 30
0.0
 11
101.4263076581552
 21
35.901719308896872
 31
0.0
  0
LINE
  5
10E2
  8
0
 10
101.426307658155
 20
35.901719308896872
 30
0.0
 11
103.0276497308104
 21
35.901719308896872
 31
0.0
  0
LINE
  5
10E3
  8
0
 10
106.82735026918959
 20
35.05979560233019
 30
0.0
 11
108.3176497308104
 21
35.05979560233019
 31
0.0
  0
LINE
  5
10E4
  8
0
 10
111.0736923418448
 20
35.901719308896872
 30
0.0
 11
111.0736923418448
 21
35.05979560233019
 31
0.0
  0
LINE
  5
10E5
  8
0
 10
109.4723502691896
 20
35.05979560233019
 30
0.0
 11
111.073692341845
 21
35.05979560233019
 31
0.0
  0
LINE
  5
10E6
  8
0
 10
104.1823502691896
 20
35.901719308896872
 30
0.0
 11
105.67264973081041
 21
35.901719308896872
 31
0.0
  0
LINE
  5
10E7
  8
0
 10
106.82735026918959
 20
35.901719308896872
 30
0.0
 11
108.3176497308103
 21
35.901719308896872
 31
0.0
  0
LINE
  5
10E8
  8
0
 10
111.54000000000001
 20
37.042326715310608
 30
0.0
 11
111.073692341845
 21
35.901719308896872
 31
0.0
  0
LINE
  5
10E9
  8
0
 10
109.4723502691896
 20
35.901719308896872
 30
0.0
 11
111.073692341845
 21
35.901719308896872
 31
0.0
  0
LINE
  5
10EA
  8
0
 10
101.426307658155
 20
62.627344462124483
 30
0.0
 11
100.95999999999999
 21
62.114573265487657
 31
0.0
  0
LINE
  5
10EB
  8
0
 10
111.54000000000001
 20
62.114573265487657
 30
0.0
 11
111.073692341845
 21
62.627344462124483
 31
0.0
  0
LINE
  5
10EC
  8
0
 10
101.4263076581552
 20
61.045045473473593
 30
0.0
 11
101.4263076581552
 21
62.627344462124483
 31
0.0
  0
LINE
  5
10ED
  8
0
 10
101.426307658155
 20
62.627344462124483
 30
0.0
 11
103.0276497308104
 21
62.627344462124483
 31
0.0
  0
LINE
  5
10EE
  8
0
 10
106.82735026918959
 20
62.627344462124483
 30
0.0
 11
108.3176497308104
 21
62.627344462124483
 31
0.0
  0
LINE
  5
10EF
  8
0
 10
109.4723502691896
 20
62.627344462124483
 30
0.0
 11
111.073692341845
 21
62.627344462124483
 31
0.0
  0
LINE
  5
10F0
  8
0
 10
111.0736923418448
 20
62.627344462124483
 30
0.0
 11
111.0736923418448
 21
61.045045473473593
 31
0.0
  0
LINE
  5
10F1
  8
0
 10
100.95999999999999
 20
59.950503749096733
 30
0.0
 11
101.426307658155
 21
61.045045473473593
 31
0.0
  0
LINE
  5
10F2
  8
0
 10
101.426307658155
 20
61.045045473473593
 30
0.0
 11
103.0276497308104
 21
61.045045473473593
 31
0.0
  0
LINE
  5
10F3
  8
0
 10
106.82735026918959
 20
61.045045473473593
 30
0.0
 11
108.3176497308104
 21
61.045045473473593
 31
0.0
  0
LINE
  5
10F4
  8
0
 10
109.4723502691896
 20
61.045045473473593
 30
0.0
 11
111.073692341845
 21
61.045045473473593
 31
0.0
  0
LINE
  5
10F5
  8
0
 10
111.073692341845
 20
61.045045473473593
 30
0.0
 11
111.54000000000001
 21
59.950503749096733
 31
0.0
  0
LINE
  5
10F6
  8
0
 10
100.95999999999999
 20
37.042326715310608
 30
0.0
 11
101.426307658155
 21
36.414490505533678
 31
0.0
  0
LINE
  5
10F7
  8
0
 10
111.073692341845
 20
36.414490505533678
 30
0.0
 11
111.54000000000001
 21
37.042326715310608
 31
0.0
  0
LINE
  5
10F8
  8
0
 10
104.1823502691896
 20
36.414490505533678
 30
0.0
 11
105.67264973081031
 21
36.414490505533678
 31
0.0
  0
LINE
  5
10F9
  8
0
 10
101.426307658155
 20
36.414490505533678
 30
0.0
 11
103.0276497308104
 21
36.414490505533678
 31
0.0
  0
LINE
  5
10FA
  8
0
 10
101.4263076581545
 20
36.414490505533678
 30
0.0
 11
101.4263076581545
 21
37.76717292683928
 31
0.0
  0
LINE
  5
10FB
  8
0
 10
101.426307658155
 20
37.76717292683928
 30
0.0
 11
103.0276497308104
 21
37.76717292683928
 31
0.0
  0
LINE
  5
10FC
  8
0
 10
106.82735026918959
 20
36.414490505533678
 30
0.0
 11
108.3176497308103
 21
36.414490505533678
 31
0.0
  0
LINE
  5
10FD
  8
0
 10
111.0736923418455
 20
37.76717292683928
 30
0.0
 11
111.0736923418455
 21
36.414490505533678
 31
0.0
  0
LINE
  5
10FE
  8
0
 10
109.4723502691896
 20
36.414490505533678
 30
0.0
 11
111.073692341845
 21
36.414490505533678
 31
0.0
  0
LINE
  5
10FF
  8
0
 10
104.1823502691896
 20
37.76717292683928
 30
0.0
 11
105.67264973081041
 21
37.76717292683928
 31
0.0
  0
LINE
  5
1100
  8
0
 10
106.82735026918959
 20
37.76717292683928
 30
0.0
 11
108.3176497308104
 21
37.76717292683928
 31
0.0
  0
LINE
  5
1101
  8
0
 10
111.54000000000001
 20
38.892355574774903
 30
0.0
 11
111.073692341845
 21
37.76717292683928
 31
0.0
  0
LINE
  5
1102
  8
0
 10
109.4723502691896
 20
37.76717292683928
 30
0.0
 11
111.073692341845
 21
37.76717292683928
 31
0.0
  0
LINE
  5
1103
  8
0
 10
101.426307658155
 20
60.213991699211121
 30
0.0
 11
100.95999999999999
 21
59.950503749096733
 31
0.0
  0
LINE
  5
1104
  8
0
 10
111.54000000000001
 20
59.950503749096733
 30
0.0
 11
111.073692341845
 21
60.213991699211121
 31
0.0
  0
LINE
  5
1105
  8
0
 10
101.4263076581552
 20
58.239469014667371
 30
0.0
 11
101.4263076581552
 21
60.213991699211121
 31
0.0
  0
LINE
  5
1106
  8
0
 10
101.426307658155
 20
60.213991699211121
 30
0.0
 11
103.0276497308104
 21
60.213991699211121
 31
0.0
  0
LINE
  5
1107
  8
0
 10
106.82735026918959
 20
60.213991699211121
 30
0.0
 11
108.3176497308103
 21
60.213991699211121
 31
0.0
  0
LINE
  5
1108
  8
0
 10
109.4723502691896
 20
60.213991699211121
 30
0.0
 11
111.073692341845
 21
60.213991699211121
 31
0.0
  0
LINE
  5
1109
  8
0
 10
111.0736923418448
 20
60.213991699211121
 30
0.0
 11
111.0736923418448
 21
58.239469014667371
 31
0.0
  0
LINE
  5
110A
  8
0
 10
100.95999999999999
 20
57.250000000000078
 30
0.0
 11
101.426307658155
 21
58.239469014667371
 31
0.0
  0
LINE
  5
110B
  8
0
 10
101.426307658155
 20
58.239469014667371
 30
0.0
 11
103.0276497308104
 21
58.239469014667371
 31
0.0
  0
LINE
  5
110C
  8
0
 10
106.82735026918959
 20
58.239469014667371
 30
0.0
 11
108.3176497308104
 21
58.239469014667371
 31
0.0
  0
LINE
  5
110D
  8
0
 10
109.4723502691896
 20
58.239469014667371
 30
0.0
 11
111.073692341845
 21
58.239469014667371
 31
0.0
  0
LINE
  5
110E
  8
0
 10
111.073692341845
 20
58.239469014667371
 30
0.0
 11
111.54000000000001
 21
57.250000000000078
 31
0.0
  0
LINE
  5
110F
  8
0
 10
100.95999999999999
 20
38.892355574774911
 30
0.0
 11
101.426307658155
 21
38.501583742061982
 31
0.0
  0
LINE
  5
1110
  8
0
 10
111.073692341845
 20
38.501583742061982
 30
0.0
 11
111.54000000000001
 21
38.892355574774911
 31
0.0
  0
LINE
  5
1111
  8
0
 10
104.1823502691896
 20
38.501583742061982
 30
0.0
 11
105.67264973081041
 21
38.501583742061982
 31
0.0
  0
LINE
  5
1112
  8
0
 10
101.426307658155
 20
38.501583742061982
 30
0.0
 11
103.0276497308104
 21
38.501583742061982
 31
0.0
  0
LINE
  5
1113
  8
0
 10
101.4263076581551
 20
38.501583742061982
 30
0.0
 11
101.4263076581551
 21
40.292101418645053
 31
0.0
  0
LINE
  5
1114
  8
0
 10
101.426307658155
 20
40.292101418645053
 30
0.0
 11
103.0276497308104
 21
40.292101418645053
 31
0.0
  0
LINE
  5
1115
  8
0
 10
106.82735026918959
 20
38.501583742061982
 30
0.0
 11
108.3176497308104
 21
38.501583742061982
 31
0.0
  0
LINE
  5
1116
  8
0
 10
111.0736923418448
 20
40.292101418645053
 30
0.0
 11
111.0736923418448
 21
38.501583742061982
 31
0.0
  0
LINE
  5
1117
  8
0
 10
109.4723502691896
 20
38.501583742061982
 30
0.0
 11
111.073692341845
 21
38.501583742061982
 31
0.0
  0
LINE
  5
1118
  8
0
 10
104.1823502691896
 20
40.292101418645053
 30
0.0
 11
105.67264973081041
 21
40.292101418645053
 31
0.0
  0
LINE
  5
1119
  8
0
 10
106.82735026918959
 20
40.292101418645053
 30
0.0
 11
108.3176497308104
 21
40.292101418645053
 31
0.0
  0
LINE
  5
111A
  8
0
 10
111.54000000000001
 20
41.34120042030969
 30
0.0
 11
111.073692341845
 21
40.292101418645053
 31
0.0
  0
LINE
  5
111B
  8
0
 10
109.4723502691896
 20
40.292101418645053
 30
0.0
 11
111.073692341845
 21
40.292101418645053
 31
0.0
  0
LINE
  5
111C
  8
0
 10
111.54000000000001
 20
57.250000000000078
 30
0.0
 11
100.95999999999999
 21
57.250000000000078
 31
0.0
  0
LINE
  5
111D
  8
0
 10
101.4263076581549
 20
54.989700648573361
 30
0.0
 11
101.4263076581549
 21
57.250000000000078
 31
0.0
  0
LINE
  5
111E
  8
0
 10
111.0736923418451
 20
57.250000000000078
 30
0.0
 11
111.0736923418451
 21
54.989700648573361
 31
0.0
  0
LINE
  5
111F
  8
0
 10
100.95999999999999
 20
54.158646874310918
 30
0.0
 11
101.426307658155
 21
54.989700648573361
 31
0.0
  0
LINE
  5
1120
  8
0
 10
101.426307658155
 20
54.989700648573361
 30
0.0
 11
103.0276497308104
 21
54.989700648573361
 31
0.0
  0
LINE
  5
1121
  8
0
 10
106.82735026918959
 20
54.989700648573361
 30
0.0
 11
108.3176497308104
 21
54.989700648573361
 31
0.0
  0
LINE
  5
1122
  8
0
 10
109.4723502691896
 20
54.989700648573361
 30
0.0
 11
111.073692341845
 21
54.989700648573361
 31
0.0
  0
LINE
  5
1123
  8
0
 10
111.073692341845
 20
54.989700648573361
 30
0.0
 11
111.54000000000001
 21
54.158646874310897
 31
0.0
  0
LINE
  5
1124
  8
0
 10
100.95999999999999
 20
41.34120042030969
 30
0.0
 11
101.426307658155
 21
41.208559575309792
 31
0.0
  0
LINE
  5
1125
  8
0
 10
111.073692341845
 20
41.208559575309792
 30
0.0
 11
111.54000000000001
 21
41.34120042030969
 31
0.0
  0
LINE
  5
1126
  8
0
 10
104.1823502691896
 20
41.208559575309792
 30
0.0
 11
105.67264973081041
 21
41.208559575309792
 31
0.0
  0
LINE
  5
1127
  8
0
 10
101.426307658155
 20
41.208559575309792
 30
0.0
 11
103.0276497308104
 21
41.208559575309792
 31
0.0
  0
LINE
  5
1128
  8
0
 10
101.4263076581548
 20
41.208559575309792
 30
0.0
 11
101.4263076581548
 21
43.340385235767577
 31
0.0
  0
LINE
  5
1129
  8
0
 10
101.426307658155
 20
43.340385235767577
 30
0.0
 11
103.0276497308104
 21
43.340385235767577
 31
0.0
  0
LINE
  5
112A
  8
0
 10
106.82735026918959
 20
41.208559575309792
 30
0.0
 11
108.3176497308104
 21
41.208559575309792
 31
0.0
  0
LINE
  5
112B
  8
0
 10
111.0736923418452
 20
43.340385235767577
 30
0.0
 11
111.0736923418452
 21
41.208559575309792
 31
0.0
  0
LINE
  5
112C
  8
0
 10
109.4723502691896
 20
41.208559575309792
 30
0.0
 11
111.073692341845
 21
41.208559575309792
 31
0.0
  0
LINE
  5
112D
  8
0
 10
104.1823502691896
 20
43.340385235767577
 30
0.0
 11
105.67264973081041
 21
43.340385235767577
 31
0.0
  0
LINE
  5
112E
  8
0
 10
106.82735026918959
 20
43.340385235767577
 30
0.0
 11
108.3176497308104
 21
43.340385235767577
 31
0.0
  0
LINE
  5
112F
  8
0
 10
111.54000000000001
 20
44.256843392432302
 30
0.0
 11
111.073692341845
 21
43.340385235767577
 31
0.0
  0
LINE
  5
1130
  8
0
 10
109.4723502691896
 20
43.340385235767577
 30
0.0
 11
111.073692341845
 21
43.340385235767577
 31
0.0
  0
LINE
  5
1131
  8
0
 10
101.426307658155
 20
53.895158924196487
 30
0.0
 11
100.95999999999999
 21
54.158646874310882
 31
0.0
  0
LINE
  5
1132
  8
0
 10
100.95999999999999
 20
54.158646874310882
 30
0.0
 11
111.54000000000001
 21
54.158646874310882
 31
0.0
  0
LINE
  5
1133
  8
0
 10
111.54000000000001
 20
54.158646874310882
 30
0.0
 11
111.073692341845
 21
53.895158924196487
 31
0.0
  0
LINE
  5
1134
  8
0
 10
101.42630765815539
 20
51.4709362289789
 30
0.0
 11
101.42630765815539
 21
53.895158924196487
 31
0.0
  0
LINE
  5
1135
  8
0
 10
101.426307658155
 20
53.895158924196487
 30
0.0
 11
103.0276497308104
 21
53.895158924196487
 31
0.0
  0
LINE
  5
1136
  8
0
 10
106.82735026918959
 20
53.895158924196487
 30
0.0
 11
108.3176497308103
 21
53.895158924196487
 31
0.0
  0
LINE
  5
1137
  8
0
 10
109.4723502691896
 20
53.895158924196487
 30
0.0
 11
111.073692341845
 21
53.895158924196487
 31
0.0
  0
LINE
  5
1138
  8
0
 10
111.07369234184451
 20
53.895158924196487
 30
0.0
 11
111.07369234184451
 21
51.4709362289789
 31
0.0
  0
LINE
  5
1139
  8
0
 10
100.95999999999999
 20
50.843100019201998
 30
0.0
 11
101.426307658155
 21
51.4709362289789
 31
0.0
  0
LINE
  5
113A
  8
0
 10
101.426307658155
 20
51.4709362289789
 30
0.0
 11
103.0276497308104
 21
51.4709362289789
 31
0.0
  0
LINE
  5
113B
  8
0
 10
106.82735026918959
 20
51.4709362289789
 30
0.0
 11
108.3176497308104
 21
51.4709362289789
 31
0.0
  0
LINE
  5
113C
  8
0
 10
109.4723502691896
 20
51.4709362289789
 30
0.0
 11
111.073692341845
 21
51.4709362289789
 31
0.0
  0
LINE
  5
113D
  8
0
 10
111.073692341845
 20
51.4709362289789
 30
0.0
 11
111.54000000000001
 21
50.843100019201977
 31
0.0
  0
LINE
  5
113E
  8
0
 10
100.95999999999999
 20
44.256843392432323
 30
0.0
 11
101.426307658155
 21
44.389484237432207
 31
0.0
  0
LINE
  5
113F
  8
0
 10
111.073692341845
 20
44.389484237432207
 30
0.0
 11
111.54000000000001
 21
44.256843392432323
 31
0.0
  0
LINE
  5
1140
  8
0
 10
100.95999999999999
 20
44.256843392432323
 30
0.0
 11
111.54000000000001
 21
44.256843392432323
 31
0.0
  0
LINE
  5
1141
  8
0
 10
104.1823502691896
 20
44.389484237432207
 30
0.0
 11
105.67264973081041
 21
44.389484237432207
 31
0.0
  0
LINE
  5
1142
  8
0
 10
101.426307658155
 20
44.389484237432207
 30
0.0
 11
103.0276497308104
 21
44.389484237432207
 31
0.0
  0
LINE
  5
1143
  8
0
 10
101.4263076581549
 20
44.389484237432207
 30
0.0
 11
101.4263076581549
 21
46.747690608606909
 31
0.0
  0
LINE
  5
1144
  8
0
 10
101.426307658155
 20
46.747690608606909
 30
0.0
 11
103.0276497308104
 21
46.747690608606909
 31
0.0
  0
LINE
  5
1145
  8
0
 10
106.82735026918959
 20
44.389484237432207
 30
0.0
 11
108.3176497308103
 21
44.389484237432207
 31
0.0
  0
LINE
  5
1146
  8
0
 10
111.0736923418451
 20
46.747690608606909
 30
0.0
 11
111.0736923418451
 21
44.389484237432207
 31
0.0
  0
LINE
  5
1147
  8
0
 10
109.4723502691896
 20
44.389484237432207
 30
0.0
 11
111.073692341845
 21
44.389484237432207
 31
0.0
  0
LINE
  5
1148
  8
0
 10
104.1823502691896
 20
46.747690608606909
 30
0.0
 11
105.67264973081041
 21
46.747690608606909
 31
0.0
  0
LINE
  5
1149
  8
0
 10
106.82735026918959
 20
46.747690608606909
 30
0.0
 11
108.3176497308104
 21
46.747690608606909
 31
0.0
  0
LINE
  5
114A
  8
0
 10
111.54000000000001
 20
47.48210142382959
 30
0.0
 11
111.073692341845
 21
46.747690608606909
 31
0.0
  0
LINE
  5
114B
  8
0
 10
109.4723502691896
 20
46.747690608606909
 30
0.0
 11
111.073692341845
 21
46.747690608606909
 31
0.0
  0
LINE
  5
114C
  8
0
 10
101.426307658155
 20
50.330328822565171
 30
0.0
 11
100.95999999999999
 21
50.843100019201977
 31
0.0
  0
LINE
  5
114D
  8
0
 10
100.95999999999999
 20
50.843100019201977
 30
0.0
 11
111.54000000000001
 21
50.843100019201977
 31
0.0
  0
LINE
  5
114E
  8
0
 10
111.54000000000001
 20
50.843100019201977
 30
0.0
 11
111.073692341845
 21
50.330328822565171
 31
0.0
  0
LINE
  5
114F
  8
0
 10
101.4263076581551
 20
47.872873256542533
 30
0.0
 11
101.4263076581551
 21
50.330328822565171
 31
0.0
  0
LINE
  5
1150
  8
0
 10
101.426307658155
 20
50.330328822565171
 30
0.0
 11
103.0276497308104
 21
50.330328822565171
 31
0.0
  0
LINE
  5
1151
  8
0
 10
106.82735026918959
 20
50.330328822565171
 30
0.0
 11
108.3176497308104
 21
50.330328822565171
 31
0.0
  0
LINE
  5
1152
  8
0
 10
109.4723502691896
 20
50.330328822565171
 30
0.0
 11
111.073692341845
 21
50.330328822565171
 31
0.0
  0
LINE
  5
1153
  8
0
 10
111.0736923418448
 20
50.330328822565171
 30
0.0
 11
111.0736923418448
 21
47.872873256542533
 31
0.0
  0
LINE
  5
1154
  8
0
 10
104.1823502691896
 20
47.872873256542533
 30
0.0
 11
105.67264973081041
 21
47.872873256542533
 31
0.0
  0
LINE
  5
1155
  8
0
 10
100.95999999999999
 20
47.48210142382959
 30
0.0
 11
101.426307658155
 21
47.872873256542533
 31
0.0
  0
LINE
  5
1156
  8
0
 10
101.426307658155
 20
47.872873256542533
 30
0.0
 11
103.0276497308104
 21
47.872873256542533
 31
0.0
  0
LINE
  5
1157
  8
0
 10
106.82735026918959
 20
47.872873256542533
 30
0.0
 11
108.3176497308103
 21
47.872873256542533
 31
0.0
  0
LINE
  5
1158
  8
0
 10
109.4723502691896
 20
47.872873256542533
 30
0.0
 11
111.073692341845
 21
47.872873256542533
 31
0.0
  0
LINE
  5
1159
  8
0
 10
111.073692341845
 20
47.872873256542533
 30
0.0
 11
111.54000000000001
 21
47.48210142382959
 31
0.0
  0
LINE
  5
115A
  8
0
 10
100.95999999999999
 20
47.48210142382959
 30
0.0
 11
111.54000000000001
 21
47.48210142382959
 31
0.0
  0
LINE
  5
115B
  8
0
 10
108.3176497308107
 20
65.451055188922879
 30
0.0
 11
108.3176497308107
 21
65.500000000000099
 31
0.0
  0
LINE
  5
115C
  8
0
 10
108.895
 20
64.401956187258264
 30
0.0
 11
108.3176497308103
 21
65.451055188922879
 31
0.0
  0
LINE
  5
115D
  8
0
 10
108.3176497308104
 20
64.750725649331372
 30
0.0
 11
108.3176497308104
 21
65.318414343922981
 31
0.0
  0
LINE
  5
115E
  8
0
 10
108.3176497308103
 20
65.318414343922981
 30
0.0
 11
108.895
 21
64.401956187258264
 31
0.0
  0
LINE
  5
115F
  8
0
 10
108.895
 20
63.625543001395769
 30
0.0
 11
108.3176497308104
 21
64.750725649331372
 31
0.0
  0
LINE
  5
1160
  8
0
 10
108.3176497308107
 20
63.2551806719014
 30
0.0
 11
108.3176497308107
 21
64.359953816618429
 31
0.0
  0
LINE
  5
1161
  8
0
 10
108.3176497308104
 20
64.359953816618429
 30
0.0
 11
108.895
 21
63.625543001395769
 31
0.0
  0
LINE
  5
1162
  8
0
 10
108.895
 20
62.114573265487657
 30
0.0
 11
108.3176497308103
 21
63.255180671901421
 31
0.0
  0
LINE
  5
1163
  8
0
 10
108.3176497308101
 20
61.045045473473593
 30
0.0
 11
108.3176497308101
 21
62.627344462124483
 31
0.0
  0
LINE
  5
1164
  8
0
 10
108.3176497308104
 20
62.627344462124483
 30
0.0
 11
108.895
 21
62.114573265487657
 31
0.0
  0
LINE
  5
1165
  8
0
 10
108.895
 20
59.950503749096733
 30
0.0
 11
108.3176497308104
 21
61.045045473473593
 31
0.0
  0
LINE
  5
1166
  8
0
 10
108.3176497308101
 20
58.239469014667371
 30
0.0
 11
108.3176497308101
 21
60.213991699211121
 31
0.0
  0
LINE
  5
1167
  8
0
 10
108.3176497308103
 20
60.213991699211121
 30
0.0
 11
108.895
 21
59.950503749096733
 31
0.0
  0
LINE
  5
1168
  8
0
 10
108.895
 20
57.250000000000099
 30
0.0
 11
108.3176497308104
 21
58.239469014667371
 31
0.0
  0
LINE
  5
1169
  8
0
 10
108.3176497308105
 20
54.989700648573361
 30
0.0
 11
108.3176497308105
 21
57.250000000000078
 31
0.0
  0
LINE
  5
116A
  8
0
 10
108.895
 20
54.158646874310918
 30
0.0
 11
108.3176497308104
 21
54.989700648573361
 31
0.0
  0
LINE
  5
116B
  8
0
 10
108.3176497308098
 20
51.4709362289789
 30
0.0
 11
108.3176497308098
 21
53.895158924196487
 31
0.0
  0
LINE
  5
116C
  8
0
 10
108.3176497308103
 20
53.895158924196487
 30
0.0
 11
108.895
 21
54.158646874310882
 31
0.0
  0
LINE
  5
116D
  8
0
 10
108.895
 20
50.843100019201998
 30
0.0
 11
108.3176497308104
 21
51.4709362289789
 31
0.0
  0
LINE
  5
116E
  8
0
 10
108.3176497308101
 20
47.872873256542533
 30
0.0
 11
108.3176497308101
 21
50.330328822565171
 31
0.0
  0
LINE
  5
116F
  8
0
 10
108.3176497308104
 20
50.330328822565171
 30
0.0
 11
108.895
 21
50.843100019201977
 31
0.0
  0
LINE
  5
1170
  8
0
 10
108.895
 20
47.48210142382959
 30
0.0
 11
108.3176497308103
 21
47.872873256542533
 31
0.0
  0
LINE
  5
1171
  8
0
 10
108.895
 20
44.256843392432323
 30
0.0
 11
108.3176497308103
 21
44.389484237432207
 31
0.0
  0
LINE
  5
1172
  8
0
 10
108.3176497308105
 20
44.389484237432207
 30
0.0
 11
108.3176497308105
 21
46.747690608606909
 31
0.0
  0
LINE
  5
1173
  8
0
 10
108.3176497308104
 20
46.747690608606909
 30
0.0
 11
108.895
 21
47.48210142382959
 31
0.0
  0
LINE
  5
1174
  8
0
 10
108.895
 20
41.34120042030969
 30
0.0
 11
108.3176497308104
 21
41.208559575309792
 31
0.0
  0
LINE
  5
1175
  8
0
 10
108.3176497308105
 20
41.208559575309792
 30
0.0
 11
108.3176497308105
 21
43.340385235767577
 31
0.0
  0
LINE
  5
1176
  8
0
 10
108.3176497308104
 20
43.340385235767577
 30
0.0
 11
108.895
 21
44.256843392432302
 31
0.0
  0
LINE
  5
1177
  8
0
 10
108.895
 20
38.892355574774911
 30
0.0
 11
108.3176497308104
 21
38.501583742061982
 31
0.0
  0
LINE
  5
1178
  8
0
 10
108.3176497308102
 20
38.501583742061982
 30
0.0
 11
108.3176497308102
 21
40.292101418645053
 31
0.0
  0
LINE
  5
1179
  8
0
 10
108.3176497308104
 20
40.292101418645053
 30
0.0
 11
108.895
 21
41.341200420309669
 31
0.0
  0
LINE
  5
117A
  8
0
 10
108.895
 20
37.042326715310587
 30
0.0
 11
108.3176497308103
 21
36.414490505533678
 31
0.0
  0
LINE
  5
117B
  8
0
 10
108.317649730811
 20
36.414490505533678
 30
0.0
 11
108.317649730811
 21
37.76717292683928
 31
0.0
  0
LINE
  5
117C
  8
0
 10
108.3176497308103
 20
37.76717292683928
 30
0.0
 11
108.895
 21
38.892355574774903
 31
0.0
  0
LINE
  5
117D
  8
0
 10
108.895
 20
35.890849376592641
 30
0.0
 11
108.3176497308104
 21
35.05979560233019
 31
0.0
  0
LINE
  5
117E
  8
0
 10
108.3176497308101
 20
35.05979560233019
 30
0.0
 11
108.3176497308101
 21
35.901719308896872
 31
0.0
  0
LINE
  5
117F
  8
0
 10
108.3176497308103
 20
35.901719308896872
 30
0.0
 11
108.895
 21
37.042326715310608
 31
0.0
  0
LINE
  5
1180
  8
0
 10
108.895
 20
35.500000000000071
 30
0.0
 11
108.3176497308104
 21
34.510530985332842
 31
0.0
  0
LINE
  5
1181
  8
0
 10
108.3176497308102
 20
34.510530985332842
 30
0.0
 11
108.3176497308102
 21
34.796307652215759
 31
0.0
  0
LINE
  5
1182
  8
0
 10
108.3176497308103
 20
34.796307652215759
 30
0.0
 11
108.895
 21
35.890849376592627
 31
0.0
  0
LINE
  5
1183
  8
0
 10
109.4723502691897
 20
34.796307652215759
 30
0.0
 11
109.4723502691897
 21
34.510530985332842
 31
0.0
  0
LINE
  5
1184
  8
0
 10
109.4723502691896
 20
34.510530985332842
 30
0.0
 11
108.895
 21
35.500000000000071
 31
0.0
  0
LINE
  5
1185
  8
0
 10
108.895
 20
35.890849376592627
 30
0.0
 11
109.4723502691896
 21
34.796307652215759
 31
0.0
  0
LINE
  5
1186
  8
0
 10
109.4723502691898
 20
35.901719308896872
 30
0.0
 11
109.4723502691898
 21
35.05979560233019
 31
0.0
  0
LINE
  5
1187
  8
0
 10
109.4723502691896
 20
35.05979560233019
 30
0.0
 11
108.895
 21
35.890849376592641
 31
0.0
  0
LINE
  5
1188
  8
0
 10
108.895
 20
37.042326715310608
 30
0.0
 11
109.4723502691896
 21
35.901719308896872
 31
0.0
  0
LINE
  5
1189
  8
0
 10
109.47235026918899
 20
37.76717292683928
 30
0.0
 11
109.47235026918899
 21
36.414490505533678
 31
0.0
  0
LINE
  5
118A
  8
0
 10
109.4723502691896
 20
36.414490505533678
 30
0.0
 11
108.895
 21
37.042326715310587
 31
0.0
  0
LINE
  5
118B
  8
0
 10
108.895
 20
38.892355574774903
 30
0.0
 11
109.4723502691896
 21
37.76717292683928
 31
0.0
  0
LINE
  5
118C
  8
0
 10
109.4723502691898
 20
40.292101418645053
 30
0.0
 11
109.4723502691898
 21
38.501583742061982
 31
0.0
  0
LINE
  5
118D
  8
0
 10
109.4723502691896
 20
38.501583742061982
 30
0.0
 11
108.895
 21
38.892355574774911
 31
0.0
  0
LINE
  5
118E
  8
0
 10
108.895
 20
41.341200420309669
 30
0.0
 11
109.4723502691896
 21
40.292101418645053
 31
0.0
  0
LINE
  5
118F
  8
0
 10
109.47235026918941
 20
43.340385235767577
 30
0.0
 11
109.47235026918941
 21
41.208559575309792
 31
0.0
  0
LINE
  5
1190
  8
0
 10
109.4723502691896
 20
41.208559575309792
 30
0.0
 11
108.895
 21
41.34120042030969
 31
0.0
  0
LINE
  5
1191
  8
0
 10
108.895
 20
44.256843392432302
 30
0.0
 11
109.4723502691896
 21
43.340385235767577
 31
0.0
  0
LINE
  5
1192
  8
0
 10
109.4723502691895
 20
46.747690608606909
 30
0.0
 11
109.4723502691895
 21
44.389484237432207
 31
0.0
  0
LINE
  5
1193
  8
0
 10
109.4723502691896
 20
44.389484237432207
 30
0.0
 11
108.895
 21
44.256843392432323
 31
0.0
  0
LINE
  5
1194
  8
0
 10
108.895
 20
35.500000000000071
 30
0.0
 11
108.895
 21
64.500000000000085
 31
0.0
  0
LINE
  5
1195
  8
0
 10
108.895
 20
47.48210142382959
 30
0.0
 11
109.4723502691896
 21
46.747690608606909
 31
0.0
  0
LINE
  5
1196
  8
0
 10
108.895
 20
50.843100019201977
 30
0.0
 11
109.4723502691896
 21
50.330328822565171
 31
0.0
  0
LINE
  5
1197
  8
0
 10
109.4723502691898
 20
50.330328822565171
 30
0.0
 11
109.4723502691898
 21
47.872873256542533
 31
0.0
  0
LINE
  5
1198
  8
0
 10
109.4723502691896
 20
47.872873256542533
 30
0.0
 11
108.895
 21
47.48210142382959
 31
0.0
  0
LINE
  5
1199
  8
0
 10
108.895
 20
54.158646874310882
 30
0.0
 11
109.4723502691896
 21
53.895158924196487
 31
0.0
  0
LINE
  5
119A
  8
0
 10
109.4723502691902
 20
53.895158924196487
 30
0.0
 11
109.4723502691902
 21
51.4709362289789
 31
0.0
  0
LINE
  5
119B
  8
0
 10
109.4723502691896
 20
51.4709362289789
 30
0.0
 11
108.895
 21
50.843100019201998
 31
0.0
  0
LINE
  5
119C
  8
0
 10
109.47235026918941
 20
57.250000000000078
 30
0.0
 11
109.47235026918941
 21
54.989700648573361
 31
0.0
  0
LINE
  5
119D
  8
0
 10
109.4723502691896
 20
54.989700648573361
 30
0.0
 11
108.895
 21
54.158646874310918
 31
0.0
  0
LINE
  5
119E
  8
0
 10
108.895
 20
59.950503749096733
 30
0.0
 11
109.4723502691896
 21
60.213991699211121
 31
0.0
  0
LINE
  5
119F
  8
0
 10
109.4723502691899
 20
60.213991699211121
 30
0.0
 11
109.4723502691899
 21
58.239469014667371
 31
0.0
  0
LINE
  5
11A0
  8
0
 10
109.4723502691896
 20
58.239469014667371
 30
0.0
 11
108.895
 21
57.250000000000099
 31
0.0
  0
LINE
  5
11A1
  8
0
 10
108.895
 20
62.114573265487657
 30
0.0
 11
109.4723502691896
 21
62.627344462124483
 31
0.0
  0
LINE
  5
11A2
  8
0
 10
109.4723502691899
 20
62.627344462124483
 30
0.0
 11
109.4723502691899
 21
61.045045473473593
 31
0.0
  0
LINE
  5
11A3
  8
0
 10
109.4723502691896
 20
61.045045473473593
 30
0.0
 11
108.895
 21
59.950503749096733
 31
0.0
  0
LINE
  5
11A4
  8
0
 10
108.895
 20
63.625543001395769
 30
0.0
 11
109.4723502691896
 21
64.359953816618429
 31
0.0
  0
LINE
  5
11A5
  8
0
 10
109.47235026918931
 20
64.359953816618429
 30
0.0
 11
109.47235026918931
 21
63.2551806719014
 31
0.0
  0
LINE
  5
11A6
  8
0
 10
109.4723502691896
 20
63.255180671901421
 30
0.0
 11
108.895
 21
62.114573265487657
 31
0.0
  0
LINE
  5
11A7
  8
0
 10
108.895
 20
64.401956187258264
 30
0.0
 11
109.4723502691896
 21
65.318414343922981
 31
0.0
  0
LINE
  5
11A8
  8
0
 10
109.4723502691896
 20
65.318414343922981
 30
0.0
 11
109.4723502691896
 21
64.750725649331372
 31
0.0
  0
LINE
  5
11A9
  8
0
 10
109.4723502691896
 20
64.750725649331372
 30
0.0
 11
108.895
 21
63.625543001395769
 31
0.0
  0
LINE
  5
11AA
  8
0
 10
109.47235026918931
 20
65.500000000000099
 30
0.0
 11
109.47235026918931
 21
65.451055188922879
 31
0.0
  0
LINE
  5
11AB
  8
0
 10
109.4723502691896
 20
65.451055188922879
 30
0.0
 11
108.895
 21
64.401956187258264
 31
0.0
  0
LINE
  5
11AC
  8
0
 10
105.6726497308106
 20
65.451055188922879
 30
0.0
 11
105.6726497308106
 21
65.500000000000099
 31
0.0
  0
LINE
  5
11AD
  8
0
 10
106.25
 20
64.401956187258264
 30
0.0
 11
105.67264973081041
 21
65.451055188922879
 31
0.0
  0
LINE
  5
11AE
  8
0
 10
105.67264973081041
 20
64.750725649331372
 30
0.0
 11
105.67264973081041
 21
65.318414343922981
 31
0.0
  0
LINE
  5
11AF
  8
0
 10
105.67264973081041
 20
65.318414343922981
 30
0.0
 11
106.25
 21
64.401956187258264
 31
0.0
  0
LINE
  5
11B0
  8
0
 10
106.25
 20
63.625543001395769
 30
0.0
 11
105.67264973081041
 21
64.750725649331372
 31
0.0
  0
LINE
  5
11B1
  8
0
 10
105.6726497308107
 20
63.2551806719014
 30
0.0
 11
105.6726497308107
 21
64.359953816618429
 31
0.0
  0
LINE
  5
11B2
  8
0
 10
105.67264973081041
 20
64.359953816618429
 30
0.0
 11
106.25
 21
63.625543001395748
 31
0.0
  0
LINE
  5
11B3
  8
0
 10
106.25
 20
62.114573265487657
 30
0.0
 11
105.67264973081041
 21
63.2551806719014
 31
0.0
  0
LINE
  5
11B4
  8
0
 10
105.67264973081009
 20
61.045045473473593
 30
0.0
 11
105.67264973081009
 21
62.627344462124483
 31
0.0
  0
LINE
  5
11B5
  8
0
 10
105.67264973081041
 20
62.627344462124483
 30
0.0
 11
106.25
 21
62.114573265487657
 31
0.0
  0
LINE
  5
11B6
  8
0
 10
106.25
 20
59.950503749096733
 30
0.0
 11
105.67264973081041
 21
61.045045473473593
 31
0.0
  0
LINE
  5
11B7
  8
0
 10
105.67264973080999
 20
58.239469014667371
 30
0.0
 11
105.67264973080999
 21
60.213991699211121
 31
0.0
  0
LINE
  5
11B8
  8
0
 10
105.67264973081041
 20
60.213991699211121
 30
0.0
 11
106.25
 21
59.950503749096733
 31
0.0
  0
LINE
  5
11B9
  8
0
 10
106.25
 20
57.250000000000078
 30
0.0
 11
105.67264973081041
 21
58.239469014667371
 31
0.0
  0
LINE
  5
11BA
  8
0
 10
105.67264973081051
 20
54.989700648573361
 30
0.0
 11
105.67264973081051
 21
57.250000000000078
 31
0.0
  0
LINE
  5
11BB
  8
0
 10
106.25
 20
54.158646874310897
 30
0.0
 11
105.67264973081041
 21
54.989700648573361
 31
0.0
  0
LINE
  5
11BC
  8
0
 10
105.67264973080979
 20
51.4709362289789
 30
0.0
 11
105.67264973080979
 21
53.895158924196487
 31
0.0
  0
LINE
  5
11BD
  8
0
 10
105.67264973081041
 20
53.895158924196487
 30
0.0
 11
106.25
 21
54.158646874310882
 31
0.0
  0
LINE
  5
11BE
  8
0
 10
106.25
 20
50.843100019201998
 30
0.0
 11
105.67264973081041
 21
51.4709362289789
 31
0.0
  0
LINE
  5
11BF
  8
0
 10
105.67264973081009
 20
47.872873256542533
 30
0.0
 11
105.67264973081009
 21
50.330328822565171
 31
0.0
  0
LINE
  5
11C0
  8
0
 10
105.67264973081041
 20
50.330328822565171
 30
0.0
 11
106.25
 21
50.843100019201977
 31
0.0
  0
LINE
  5
11C1
  8
0
 10
106.25
 20
47.48210142382959
 30
0.0
 11
105.67264973081041
 21
47.872873256542533
 31
0.0
  0
LINE
  5
11C2
  8
0
 10
106.25
 20
44.256843392432323
 30
0.0
 11
105.67264973081041
 21
44.389484237432207
 31
0.0
  0
LINE
  5
11C3
  8
0
 10
105.67264973081051
 20
44.389484237432207
 30
0.0
 11
105.67264973081051
 21
46.747690608606909
 31
0.0
  0
LINE
  5
11C4
  8
0
 10
105.67264973081041
 20
46.747690608606909
 30
0.0
 11
106.25
 21
47.48210142382959
 31
0.0
  0
LINE
  5
11C5
  8
0
 10
106.25
 20
41.34120042030969
 30
0.0
 11
105.67264973081041
 21
41.208559575309792
 31
0.0
  0
LINE
  5
11C6
  8
0
 10
105.6726497308106
 20
41.208559575309792
 30
0.0
 11
105.6726497308106
 21
43.340385235767577
 31
0.0
  0
LINE
  5
11C7
  8
0
 10
105.67264973081041
 20
43.340385235767577
 30
0.0
 11
106.25
 21
44.256843392432302
 31
0.0
  0
LINE
  5
11C8
  8
0
 10
106.25
 20
38.892355574774911
 30
0.0
 11
105.67264973081041
 21
38.501583742061982
 31
0.0
  0
LINE
  5
11C9
  8
0
 10
105.67264973081021
 20
38.501583742061982
 30
0.0
 11
105.67264973081021
 21
40.292101418645053
 31
0.0
  0
LINE
  5
11CA
  8
0
 10
105.67264973081041
 20
40.292101418645053
 30
0.0
 11
106.25
 21
41.34120042030969
 31
0.0
  0
LINE
  5
11CB
  8
0
 10
106.25
 20
37.042326715310608
 30
0.0
 11
105.67264973081031
 21
36.414490505533678
 31
0.0
  0
LINE
  5
11CC
  8
0
 10
105.672649730811
 20
36.414490505533678
 30
0.0
 11
105.672649730811
 21
37.76717292683928
 31
0.0
  0
LINE
  5
11CD
  8
0
 10
105.67264973081041
 20
37.76717292683928
 30
0.0
 11
106.25
 21
38.892355574774903
 31
0.0
  0
LINE
  5
11CE
  8
0
 10
106.25
 20
35.890849376592641
 30
0.0
 11
105.67264973081041
 21
35.05979560233019
 31
0.0
  0
LINE
  5
11CF
  8
0
 10
105.67264973081009
 20
35.05979560233019
 30
0.0
 11
105.67264973081009
 21
35.901719308896872
 31
0.0
  0
LINE
  5
11D0
  8
0
 10
105.67264973081041
 20
35.901719308896872
 30
0.0
 11
106.25
 21
37.042326715310608
 31
0.0
  0
LINE
  5
11D1
  8
0
 10
106.25
 20
35.500000000000092
 30
0.0
 11
105.67264973081041
 21
34.510530985332842
 31
0.0
  0
LINE
  5
11D2
  8
0
 10
105.67264973081021
 20
34.510530985332842
 30
0.0
 11
105.67264973081021
 21
34.796307652215759
 31
0.0
  0
LINE
  5
11D3
  8
0
 10
105.67264973081041
 20
34.796307652215759
 30
0.0
 11
106.25
 21
35.890849376592641
 31
0.0
  0
LINE
  5
11D4
  8
0
 10
106.82735026918969
 20
34.796307652215759
 30
0.0
 11
106.82735026918969
 21
34.510530985332842
 31
0.0
  0
LINE
  5
11D5
  8
0
 10
106.82735026918959
 20
34.510530985332842
 30
0.0
 11
106.25
 21
35.500000000000092
 31
0.0
  0
LINE
  5
11D6
  8
0
 10
106.25
 20
35.890849376592641
 30
0.0
 11
106.82735026918959
 21
34.796307652215759
 31
0.0
  0
LINE
  5
11D7
  8
0
 10
106.82735026918979
 20
35.901719308896872
 30
0.0
 11
106.82735026918979
 21
35.05979560233019
 31
0.0
  0
LINE
  5
11D8
  8
0
 10
106.82735026918959
 20
35.05979560233019
 30
0.0
 11
106.25
 21
35.890849376592641
 31
0.0
  0
LINE
  5
11D9
  8
0
 10
106.25
 20
37.042326715310608
 30
0.0
 11
106.82735026918959
 21
35.901719308896872
 31
0.0
  0
LINE
  5
11DA
  8
0
 10
106.827350269189
 20
37.76717292683928
 30
0.0
 11
106.827350269189
 21
36.414490505533678
 31
0.0
  0
LINE
  5
11DB
  8
0
 10
106.82735026918959
 20
36.414490505533678
 30
0.0
 11
106.25
 21
37.042326715310608
 31
0.0
  0
LINE
  5
11DC
  8
0
 10
106.25
 20
38.892355574774903
 30
0.0
 11
106.82735026918959
 21
37.76717292683928
 31
0.0
  0
LINE
  5
11DD
  8
0
 10
106.82735026918979
 20
40.292101418645053
 30
0.0
 11
106.82735026918979
 21
38.501583742061982
 31
0.0
  0
LINE
  5
11DE
  8
0
 10
106.82735026918959
 20
38.501583742061982
 30
0.0
 11
106.25
 21
38.892355574774911
 31
0.0
  0
LINE
  5
11DF
  8
0
 10
106.25
 20
41.34120042030969
 30
0.0
 11
106.82735026918959
 21
40.292101418645053
 31
0.0
  0
LINE
  5
11E0
  8
0
 10
106.8273502691894
 20
43.340385235767577
 30
0.0
 11
106.8273502691894
 21
41.208559575309792
 31
0.0
  0
LINE
  5
11E1
  8
0
 10
106.82735026918959
 20
41.208559575309792
 30
0.0
 11
106.25
 21
41.34120042030969
 31
0.0
  0
LINE
  5
11E2
  8
0
 10
106.25
 20
44.256843392432302
 30
0.0
 11
106.82735026918959
 21
43.340385235767577
 31
0.0
  0
LINE
  5
11E3
  8
0
 10
106.82735026918949
 20
46.747690608606909
 30
0.0
 11
106.82735026918949
 21
44.389484237432207
 31
0.0
  0
LINE
  5
11E4
  8
0
 10
106.82735026918959
 20
44.389484237432207
 30
0.0
 11
106.25
 21
44.256843392432323
 31
0.0
  0
LINE
  5
11E5
  8
0
 10
106.25
 20
47.48210142382959
 30
0.0
 11
106.82735026918959
 21
46.747690608606909
 31
0.0
  0
LINE
  5
11E6
  8
0
 10
106.25
 20
50.843100019201977
 30
0.0
 11
106.82735026918959
 21
50.330328822565171
 31
0.0
  0
LINE
  5
11E7
  8
0
 10
106.82735026918979
 20
50.330328822565171
 30
0.0
 11
106.82735026918979
 21
47.872873256542533
 31
0.0
  0
LINE
  5
11E8
  8
0
 10
106.82735026918959
 20
47.872873256542533
 30
0.0
 11
106.25
 21
47.48210142382959
 31
0.0
  0
LINE
  5
11E9
  8
0
 10
106.25
 20
54.158646874310882
 30
0.0
 11
106.82735026918959
 21
53.895158924196487
 31
0.0
  0
LINE
  5
11EA
  8
0
 10
106.82735026919021
 20
53.895158924196487
 30
0.0
 11
106.82735026919021
 21
51.4709362289789
 31
0.0
  0
LINE
  5
11EB
  8
0
 10
106.82735026918959
 20
51.4709362289789
 30
0.0
 11
106.25
 21
50.843100019201998
 31
0.0
  0
LINE
  5
11EC
  8
0
 10
106.8273502691894
 20
57.250000000000078
 30
0.0
 11
106.8273502691894
 21
54.989700648573361
 31
0.0
  0
LINE
  5
11ED
  8
0
 10
106.82735026918959
 20
54.989700648573361
 30
0.0
 11
106.25
 21
54.158646874310897
 31
0.0
  0
LINE
  5
11EE
  8
0
 10
106.25
 20
59.950503749096733
 30
0.0
 11
106.82735026918959
 21
60.213991699211121
 31
0.0
  0
LINE
  5
11EF
  8
0
 10
106.82735026918991
 20
60.213991699211121
 30
0.0
 11
106.82735026918991
 21
58.239469014667371
 31
0.0
  0
LINE
  5
11F0
  8
0
 10
106.82735026918959
 20
58.239469014667371
 30
0.0
 11
106.25
 21
57.250000000000078
 31
0.0
  0
LINE
  5
11F1
  8
0
 10
106.25
 20
62.114573265487657
 30
0.0
 11
106.82735026918959
 21
62.627344462124483
 31
0.0
  0
LINE
  5
11F2
  8
0
 10
106.82735026918991
 20
62.627344462124483
 30
0.0
 11
106.82735026918991
 21
61.045045473473593
 31
0.0
  0
LINE
  5
11F3
  8
0
 10
106.82735026918959
 20
61.045045473473593
 30
0.0
 11
106.25
 21
59.950503749096733
 31
0.0
  0
LINE
  5
11F4
  8
0
 10
106.25
 20
63.625543001395748
 30
0.0
 11
106.82735026918959
 21
64.359953816618429
 31
0.0
  0
LINE
  5
11F5
  8
0
 10
106.8273502691893
 20
64.359953816618429
 30
0.0
 11
106.8273502691893
 21
63.2551806719014
 31
0.0
  0
LINE
  5
11F6
  8
0
 10
106.82735026918959
 20
63.2551806719014
 30
0.0
 11
106.25
 21
62.114573265487657
 31
0.0
  0
LINE
  5
11F7
  8
0
 10
106.25
 20
64.401956187258264
 30
0.0
 11
106.82735026918959
 21
65.318414343922981
 31
0.0
  0
LINE
  5
11F8
  8
0
 10
106.82735026918949
 20
65.318414343922981
 30
0.0
 11
106.82735026918949
 21
64.750725649331372
 31
0.0
  0
LINE
  5
11F9
  8
0
 10
106.82735026918959
 20
64.750725649331372
 30
0.0
 11
106.25
 21
63.625543001395769
 31
0.0
  0
LINE
  5
11FA
  8
0
 10
106.25
 20
35.500000000000092
 30
0.0
 11
106.25
 21
64.500000000000085
 31
0.0
  0
LINE
  5
11FB
  8
0
 10
106.8273502691893
 20
65.500000000000099
 30
0.0
 11
106.8273502691893
 21
65.451055188922879
 31
0.0
  0
LINE
  5
11FC
  8
0
 10
106.82735026918959
 20
65.451055188922879
 30
0.0
 11
106.25
 21
64.401956187258264
 31
0.0
  0
LINE
  5
11FD
  8
0
 10
103.02764973081059
 20
65.451055188922879
 30
0.0
 11
103.02764973081059
 21
65.500000000000099
 31
0.0
  0
LINE
  5
11FE
  8
0
 10
103.605
 20
64.40195618725825
 30
0.0
 11
103.0276497308104
 21
65.451055188922879
 31
0.0
  0
LINE
  5
11FF
  8
0
 10
103.0276497308104
 20
64.750725649331372
 30
0.0
 11
103.0276497308104
 21
65.318414343922981
 31
0.0
  0
LINE
  5
1200
  8
0
 10
103.0276497308104
 20
65.318414343922981
 30
0.0
 11
103.605
 21
64.40195618725825
 31
0.0
  0
LINE
  5
1201
  8
0
 10
103.605
 20
63.625543001395748
 30
0.0
 11
103.0276497308104
 21
64.750725649331372
 31
0.0
  0
LINE
  5
1202
  8
0
 10
103.02764973081069
 20
63.2551806719014
 30
0.0
 11
103.02764973081069
 21
64.359953816618429
 31
0.0
  0
LINE
  5
1203
  8
0
 10
103.0276497308104
 20
64.359953816618429
 30
0.0
 11
103.605
 21
63.625543001395741
 31
0.0
  0
LINE
  5
1204
  8
0
 10
103.605
 20
62.11457326548765
 30
0.0
 11
103.0276497308104
 21
63.2551806719014
 31
0.0
  0
LINE
  5
1205
  8
0
 10
103.0276497308101
 20
61.045045473473593
 30
0.0
 11
103.0276497308101
 21
62.627344462124483
 31
0.0
  0
LINE
  5
1206
  8
0
 10
103.0276497308104
 20
62.627344462124483
 30
0.0
 11
103.605
 21
62.11457326548765
 31
0.0
  0
LINE
  5
1207
  8
0
 10
103.605
 20
59.950503749096733
 30
0.0
 11
103.0276497308104
 21
61.045045473473593
 31
0.0
  0
LINE
  5
1208
  8
0
 10
103.0276497308101
 20
58.239469014667371
 30
0.0
 11
103.0276497308101
 21
60.213991699211121
 31
0.0
  0
LINE
  5
1209
  8
0
 10
103.0276497308104
 20
60.213991699211121
 30
0.0
 11
103.605
 21
59.950503749096733
 31
0.0
  0
LINE
  5
120A
  8
0
 10
103.605
 20
57.250000000000071
 30
0.0
 11
103.0276497308104
 21
58.239469014667371
 31
0.0
  0
LINE
  5
120B
  8
0
 10
103.0276497308105
 20
54.989700648573361
 30
0.0
 11
103.0276497308105
 21
57.250000000000078
 31
0.0
  0
LINE
  5
120C
  8
0
 10
103.605
 20
54.158646874310897
 30
0.0
 11
103.0276497308104
 21
54.989700648573361
 31
0.0
  0
LINE
  5
120D
  8
0
 10
103.0276497308098
 20
51.4709362289789
 30
0.0
 11
103.0276497308098
 21
53.895158924196487
 31
0.0
  0
LINE
  5
120E
  8
0
 10
103.0276497308104
 20
53.895158924196487
 30
0.0
 11
103.605
 21
54.158646874310882
 31
0.0
  0
LINE
  5
120F
  8
0
 10
103.605
 20
50.843100019201977
 30
0.0
 11
103.0276497308104
 21
51.4709362289789
 31
0.0
  0
LINE
  5
1210
  8
0
 10
103.0276497308101
 20
47.872873256542533
 30
0.0
 11
103.0276497308101
 21
50.330328822565171
 31
0.0
  0
LINE
  5
1211
  8
0
 10
103.0276497308104
 20
50.330328822565171
 30
0.0
 11
103.605
 21
50.843100019201977
 31
0.0
  0
LINE
  5
1212
  8
0
 10
103.605
 20
47.48210142382959
 30
0.0
 11
103.0276497308104
 21
47.872873256542533
 31
0.0
  0
LINE
  5
1213
  8
0
 10
103.605
 20
44.256843392432323
 30
0.0
 11
103.0276497308104
 21
44.389484237432207
 31
0.0
  0
LINE
  5
1214
  8
0
 10
103.0276497308105
 20
44.389484237432207
 30
0.0
 11
103.0276497308105
 21
46.747690608606909
 31
0.0
  0
LINE
  5
1215
  8
0
 10
103.0276497308104
 20
46.747690608606909
 30
0.0
 11
103.605
 21
47.482101423829597
 31
0.0
  0
LINE
  5
1216
  8
0
 10
103.605
 20
41.34120042030969
 30
0.0
 11
103.0276497308104
 21
41.208559575309792
 31
0.0
  0
LINE
  5
1217
  8
0
 10
103.0276497308105
 20
41.208559575309792
 30
0.0
 11
103.0276497308105
 21
43.340385235767577
 31
0.0
  0
LINE
  5
1218
  8
0
 10
103.0276497308104
 20
43.340385235767577
 30
0.0
 11
103.605
 21
44.256843392432323
 31
0.0
  0
LINE
  5
1219
  8
0
 10
103.605
 20
38.892355574774911
 30
0.0
 11
103.0276497308104
 21
38.501583742061982
 31
0.0
  0
LINE
  5
121A
  8
0
 10
103.0276497308102
 20
38.501583742061982
 30
0.0
 11
103.0276497308102
 21
40.292101418645053
 31
0.0
  0
LINE
  5
121B
  8
0
 10
103.0276497308104
 20
40.292101418645068
 30
0.0
 11
103.605
 21
41.34120042030969
 31
0.0
  0
LINE
  5
121C
  8
0
 10
103.605
 20
37.042326715310608
 30
0.0
 11
103.0276497308104
 21
36.414490505533678
 31
0.0
  0
LINE
  5
121D
  8
0
 10
103.02764973081101
 20
36.414490505533678
 30
0.0
 11
103.02764973081101
 21
37.76717292683928
 31
0.0
  0
LINE
  5
121E
  8
0
 10
103.0276497308104
 20
37.76717292683928
 30
0.0
 11
103.605
 21
38.892355574774911
 31
0.0
  0
LINE
  5
121F
  8
0
 10
103.605
 20
35.890849376592641
 30
0.0
 11
103.0276497308104
 21
35.05979560233019
 31
0.0
  0
LINE
  5
1220
  8
0
 10
103.0276497308101
 20
35.05979560233019
 30
0.0
 11
103.0276497308101
 21
35.901719308896872
 31
0.0
  0
LINE
  5
1221
  8
0
 10
103.0276497308104
 20
35.901719308896872
 30
0.0
 11
103.605
 21
37.042326715310622
 31
0.0
  0
LINE
  5
1222
  8
0
 10
103.605
 20
35.500000000000099
 30
0.0
 11
103.0276497308104
 21
34.510530985332842
 31
0.0
  0
LINE
  5
1223
  8
0
 10
103.0276497308102
 20
34.510530985332842
 30
0.0
 11
103.0276497308102
 21
34.796307652215759
 31
0.0
  0
LINE
  5
1224
  8
0
 10
103.0276497308104
 20
34.796307652215759
 30
0.0
 11
103.605
 21
35.890849376592641
 31
0.0
  0
LINE
  5
1225
  8
0
 10
104.1823502691897
 20
34.796307652215759
 30
0.0
 11
104.1823502691897
 21
34.510530985332842
 31
0.0
  0
LINE
  5
1226
  8
0
 10
104.1823502691896
 20
34.510530985332842
 30
0.0
 11
103.605
 21
35.500000000000099
 31
0.0
  0
LINE
  5
1227
  8
0
 10
103.605
 20
35.890849376592641
 30
0.0
 11
104.1823502691896
 21
34.796307652215759
 31
0.0
  0
LINE
  5
1228
  8
0
 10
104.1823502691898
 20
35.901719308896872
 30
0.0
 11
104.1823502691898
 21
35.05979560233019
 31
0.0
  0
LINE
  5
1229
  8
0
 10
104.1823502691896
 20
35.05979560233019
 30
0.0
 11
103.605
 21
35.890849376592641
 31
0.0
  0
LINE
  5
122A
  8
0
 10
103.605
 20
37.042326715310608
 30
0.0
 11
104.1823502691896
 21
35.901719308896872
 31
0.0
  0
LINE
  5
122B
  8
0
 10
104.182350269189
 20
37.76717292683928
 30
0.0
 11
104.182350269189
 21
36.414490505533678
 31
0.0
  0
LINE
  5
122C
  8
0
 10
104.1823502691896
 20
36.414490505533678
 30
0.0
 11
103.605
 21
37.042326715310608
 31
0.0
  0
LINE
  5
122D
  8
0
 10
103.605
 20
38.892355574774911
 30
0.0
 11
104.1823502691896
 21
37.76717292683928
 31
0.0
  0
LINE
  5
122E
  8
0
 10
104.1823502691898
 20
40.292101418645053
 30
0.0
 11
104.1823502691898
 21
38.501583742061982
 31
0.0
  0
LINE
  5
122F
  8
0
 10
104.1823502691896
 20
38.501583742061982
 30
0.0
 11
103.605
 21
38.892355574774911
 31
0.0
  0
LINE
  5
1230
  8
0
 10
103.605
 20
41.34120042030969
 30
0.0
 11
104.1823502691896
 21
40.292101418645068
 31
0.0
  0
LINE
  5
1231
  8
0
 10
104.1823502691894
 20
43.340385235767577
 30
0.0
 11
104.1823502691894
 21
41.208559575309792
 31
0.0
  0
LINE
  5
1232
  8
0
 10
104.1823502691896
 20
41.208559575309792
 30
0.0
 11
103.605
 21
41.34120042030969
 31
0.0
  0
LINE
  5
1233
  8
0
 10
103.605
 20
44.256843392432323
 30
0.0
 11
104.1823502691896
 21
43.340385235767577
 31
0.0
  0
LINE
  5
1234
  8
0
 10
104.1823502691895
 20
46.747690608606909
 30
0.0
 11
104.1823502691895
 21
44.389484237432207
 31
0.0
  0
LINE
  5
1235
  8
0
 10
104.1823502691896
 20
44.389484237432207
 30
0.0
 11
103.605
 21
44.256843392432323
 31
0.0
  0
LINE
  5
1236
  8
0
 10
103.605
 20
47.48210142382959
 30
0.0
 11
104.1823502691896
 21
46.747690608606909
 31
0.0
  0
LINE
  5
1237
  8
0
 10
103.605
 20
50.843100019201977
 30
0.0
 11
104.1823502691896
 21
50.330328822565171
 31
0.0
  0
LINE
  5
1238
  8
0
 10
104.1823502691898
 20
50.330328822565171
 30
0.0
 11
104.1823502691898
 21
47.872873256542533
 31
0.0
  0
LINE
  5
1239
  8
0
 10
104.1823502691896
 20
47.872873256542533
 30
0.0
 11
103.605
 21
47.48210142382959
 31
0.0
  0
LINE
  5
123A
  8
0
 10
103.605
 20
54.158646874310882
 30
0.0
 11
104.1823502691896
 21
53.895158924196487
 31
0.0
  0
LINE
  5
123B
  8
0
 10
104.1823502691902
 20
53.895158924196487
 30
0.0
 11
104.1823502691902
 21
51.4709362289789
 31
0.0
  0
LINE
  5
123C
  8
0
 10
104.1823502691896
 20
51.4709362289789
 30
0.0
 11
103.605
 21
50.843100019201977
 31
0.0
  0
LINE
  5
123D
  8
0
 10
104.1823502691894
 20
57.250000000000078
 30
0.0
 11
104.1823502691894
 21
54.989700648573361
 31
0.0
  0
LINE
  5
123E
  8
0
 10
104.1823502691896
 20
54.989700648573361
 30
0.0
 11
103.605
 21
54.158646874310897
 31
0.0
  0
LINE
  5
123F
  8
0
 10
103.605
 20
59.950503749096733
 30
0.0
 11
104.1823502691896
 21
60.213991699211121
 31
0.0
  0
LINE
  5
1240
  8
0
 10
104.1823502691899
 20
60.213991699211121
 30
0.0
 11
104.1823502691899
 21
58.239469014667371
 31
0.0
  0
LINE
  5
1241
  8
0
 10
104.1823502691896
 20
58.239469014667371
 30
0.0
 11
103.605
 21
57.250000000000071
 31
0.0
  0
LINE
  5
1242
  8
0
 10
103.605
 20
62.11457326548765
 30
0.0
 11
104.1823502691896
 21
62.627344462124483
 31
0.0
  0
LINE
  5
1243
  8
0
 10
104.1823502691899
 20
62.627344462124483
 30
0.0
 11
104.1823502691899
 21
61.045045473473593
 31
0.0
  0
LINE
  5
1244
  8
0
 10
104.1823502691896
 20
61.045045473473593
 30
0.0
 11
103.605
 21
59.950503749096733
 31
0.0
  0
LINE
  5
1245
  8
0
 10
103.605
 20
63.625543001395748
 30
0.0
 11
104.1823502691896
 21
64.359953816618429
 31
0.0
  0
LINE
  5
1246
  8
0
 10
104.1823502691893
 20
64.359953816618429
 30
0.0
 11
104.1823502691893
 21
63.2551806719014
 31
0.0
  0
LINE
  5
1247
  8
0
 10
104.1823502691896
 20
63.2551806719014
 30
0.0
 11
103.605
 21
62.11457326548765
 31
0.0
  0
LINE
  5
1248
  8
0
 10
103.605
 20
64.40195618725825
 30
0.0
 11
104.1823502691896
 21
65.318414343922981
 31
0.0
  0
LINE
  5
1249
  8
0
 10
104.1823502691896
 20
65.318414343922981
 30
0.0
 11
104.1823502691896
 21
64.750725649331372
 31
0.0
  0
LINE
  5
124A
  8
0
 10
104.1823502691896
 20
64.750725649331372
 30
0.0
 11
103.605
 21
63.625543001395741
 31
0.0
  0
LINE
  5
124B
  8
0
 10
103.605
 20
35.500000000000099
 30
0.0
 11
103.605
 21
64.500000000000071
 31
0.0
  0
LINE
  5
124C
  8
0
 10
104.1823502691893
 20
65.500000000000099
 30
0.0
 11
104.1823502691893
 21
65.451055188922879
 31
0.0
  0
LINE
  5
124D
  8
0
 10
104.1823502691896
 20
65.451055188922879
 30
0.0
 11
103.605
 21
64.40195618725825
 31
0.0
  0
LINE
  5
125E
  8
1
 10
70.499999999999773
 20
50.000000000000043
 30
0.0
 11
29.499999999999879
 21
50.000000000000043
 31
0.0
  0
LINE
  5
125F
  8
1
 10
49.999999999999829
 20
29.500000000000089
 30
0.0
 11
49.999999999999829
 21
70.5
 31
0.0
  0
CIRCLE
  5
1260
  8
0
 10
50.0
 20
50.0
 30
0.0
 40
13.5
  0
CIRCLE
  5
1262
  8
0
 10
50.0
 20
50.0
 30
0.0
 40
7.5000000000000417
  0
LINE
  5
1264
  8
0
 10
35.524531705066643
 20
50.843100019201898
 30
0.0
 11
34.569953123523021
 21
51.470936228978829
 31
0.0
  0
ARC
  5
1265
  8
0
 10
49.999999999999893
 20
50.0
 30
0.0
 40
15.499999999999879
 50
165.44551309560541
 51
174.55448690439411
  0
LINE
  5
1266
  8
0
 10
34.503520307212227
 20
50.330328822565058
 30
0.0
 11
35.524531705066643
 21
50.843100019201898
 31
0.0
  0
LINE
  5
1267
  8
0
 10
34.997408991935693
 20
53.895158924196387
 30
0.0
 11
36.109152071425399
 21
54.158646874310797
 31
0.0
  0
ARC
  5
1268
  8
0
 10
50.000000000001478
 20
50.000000000000171
 30
0.0
 40
15.50000000000148
 50
178.7788464289394
 51
187.88782023772691
  0
LINE
  5
1269
  8
0
 10
35.720287581322957
 20
47.482101423829512
 30
0.0
 11
34.646650794785273
 21
47.872873256542462
 31
0.0
  0
LINE
  5
126A
  8
0
 10
36.109152071425399
 20
54.158646874310811
 30
0.0
 11
35.325093273290413
 21
54.98970064857329
 31
0.0
  0
ARC
  5
126B
  8
0
 10
50.00000000000108
 20
49.999999999999368
 30
0.0
 40
15.50000000000121
 50
152.11217976227169
 51
161.2211535710606
  0
LINE
  5
126C
  8
0
 10
36.300091241179757
 20
57.249999999999979
 30
0.0
 11
37.44263164512563
 21
57.249999999999979
 31
0.0
  0
LINE
  5
126D
  8
0
 10
34.845050853841322
 20
46.747690608606831
 30
0.0
 11
35.720287581322957
 21
47.482101423829512
 31
0.0
  0
ARC
  5
126E
  8
0
 10
49.999999999999538
 20
49.999999999999801
 30
0.0
 40
15.49999999999948
 50
192.11217976227181
 51
201.2211535710608
  0
LINE
  5
126F
  8
0
 10
36.685866450236013
 20
44.256843392432231
 30
0.0
 11
35.551051495766963
 21
44.389484237432121
 31
0.0
  0
LINE
  5
1270
  8
0
 10
37.44263164512563
 20
57.25
 30
0.0
 11
36.871361443152701
 21
58.239469014667293
 31
0.0
  0
ARC
  5
1271
  8
0
 10
49.999999999999432
 20
50.000000000000242
 30
0.0
 40
15.49999999999941
 50
138.77884642893699
 51
147.88782023772509
  0
LINE
  5
1272
  8
0
 10
38.341339117701068
 20
60.213991699211022
 30
0.0
 11
39.453082197190781
 21
59.950503749096612
 31
0.0
  0
LINE
  5
1273
  8
0
 10
36.003588631652178
 20
43.340385235767499
 30
0.0
 11
36.685866450236013
 21
44.256843392432209
 31
0.0
  0
ARC
  5
1274
  8
0
 10
50.000000000000057
 20
50.0
 30
0.0
 40
15.50000000000003
 50
205.44551309560489
 51
214.55448690439511
  0
LINE
  5
1275
  8
0
 10
38.369213705051841
 20
41.341200420309598
 30
0.0
 11
37.234398750582841
 21
41.2085595753097
 31
0.0
  0
LINE
  5
1276
  8
0
 10
39.453082197190781
 20
59.95050374909664
 30
0.0
 11
39.125397915836061
 21
61.045045473473522
 31
0.0
  0
ARC
  5
1277
  8
0
 10
50.000000000000277
 20
49.999999999999538
 30
0.0
 40
15.50000000000054
 50
125.4455130956075
 51
134.55448690439351
  0
LINE
  5
1278
  8
0
 10
41.011108420118937
 20
62.627344462124398
 30
0.0
 11
42.032119817973303
 21
62.114573265487572
 31
0.0
  0
LINE
  5
1279
  8
0
 10
37.916676569166718
 20
40.292101418644982
 30
0.0
 11
38.369213705051891
 21
41.341200420309569
 31
0.0
  0
ARC
  5
127A
  8
0
 10
49.999999999999602
 20
49.999999999999353
 30
0.0
 40
15.49999999999925
 50
218.7788464289369
 51
227.88782023772879
  0
LINE
  5
127B
  8
0
 10
40.67957965954519
 20
38.892355574774832
 30
0.0
 11
39.60594287300745
 21
38.501583742061882
 31
0.0
  0
LINE
  5
127C
  8
0
 10
42.032119817973303
 20
62.114573265487579
 30
0.0
 11
41.965687001662552
 21
63.255180671901307
 31
0.0
  0
ARC
  5
127D
  8
0
 10
50.000000000000512
 20
49.99999999999919
 30
0.0
 40
15.50000000000095
 50
112.11217976227231
 51
121.2211535710622
  0
LINE
  5
127E
  8
0
 10
44.16547119429611
 20
64.359953816618344
 30
0.0
 11
45.040707921777823
 21
63.62554300139567
 31
0.0
  0
LINE
  5
127F
  8
0
 10
40.481179600489149
 20
37.767172926839208
 30
0.0
 11
40.67957965954519
 21
38.892355574774811
 31
0.0
  0
ARC
  5
1280
  8
0
 10
49.999999999999602
 20
49.999999999999162
 30
0.0
 40
15.499999999999069
 50
232.11217976227121
 51
241.22115357106071
  0
LINE
  5
1281
  8
0
 10
43.492411887093283
 20
37.042326715310523
 30
0.0
 11
42.537833305549661
 21
36.414490505533607
 31
0.0
  0
LINE
  5
1282
  8
0
 10
45.040707921777823
 20
63.625543001395677
 30
0.0
 11
45.239107980833857
 21
64.750725649331287
 31
0.0
  0
ARC
  5
1283
  8
0
 10
49.999999999999773
 20
50.000000000000703
 30
0.0
 40
15.499999999999259
 50
98.778846428938763
 51
107.8878202377259
  0
LINE
  5
1284
  8
0
 10
47.63437492660028
 20
65.318414343922882
 30
0.0
 11
48.316652745184172
 21
64.401956187258165
 31
0.0
  0
LINE
  5
1285
  8
0
 10
43.558844703404013
 20
35.901719308896787
 30
0.0
 11
43.492411887093283
 21
37.042326715310509
 31
0.0
  0
ARC
  5
1286
  8
0
 10
50.000000000000277
 20
50.000000000000611
 30
0.0
 40
15.50000000000067
 50
245.44551309560691
 51
254.554486904394
  0
LINE
  5
1287
  8
0
 10
46.65606987423461
 20
35.890849376592563
 30
0.0
 11
45.872011076099561
 21
35.059795602330077
 31
0.0
  0
LINE
  5
1288
  8
0
 10
48.316652745184172
 20
64.401956187258165
 30
0.0
 11
48.76918988106933
 21
65.451055188922794
 31
0.0
  0
ARC
  5
1289
  8
0
 10
50.000000000000057
 20
50.000000000000782
 30
0.0
 40
15.49999999999922
 50
85.445513095607296
 51
94.554486904395972
  0
LINE
  5
128A
  8
0
 10
51.230810118930663
 20
65.451055188922794
 30
0.0
 11
51.683347254815828
 21
64.401956187258165
 31
0.0
  0
LINE
  5
128B
  8
0
 10
46.983754155589338
 20
34.796307652215688
 30
0.0
 11
46.65606987423461
 21
35.890849376592563
 31
0.0
  0
ARC
  5
128C
  8
0
 10
50.000000000000227
 20
50.000000000001911
 30
0.0
 40
15.500000000001929
 50
258.77884642894043
 51
267.8878202377266
  0
LINE
  5
128D
  8
0
 10
50.0
 20
35.5
 30
0.0
 11
49.428729798027057
 21
34.510530985332721
 31
0.0
  0
LINE
  5
128E
  8
0
 10
51.683347254815828
 20
64.401956187258179
 30
0.0
 11
52.365625073399713
 21
65.318414343922896
 31
0.0
  0
ARC
  5
128F
  8
0
 10
49.999999999999893
 20
49.999999999999751
 30
0.0
 40
15.50000000000027
 50
72.112179762274081
 51
81.221153571061251
  0
LINE
  5
1290
  8
0
 10
54.760892019166143
 20
64.750725649331287
 30
0.0
 11
54.959292078222177
 21
63.62554300139567
 31
0.0
  0
LINE
  5
1291
  8
0
 10
50.571270201972929
 20
34.51053098533275
 30
0.0
 11
50.0
 21
35.500000000000021
 31
0.0
  0
ARC
  5
1292
  8
0
 10
50.000000000000107
 20
50.000000000000739
 30
0.0
 40
15.5000000000007
 50
272.11217976227351
 51
281.22115357105957
  0
LINE
  5
1293
  8
0
 10
53.343930125765382
 20
35.890849376592563
 30
0.0
 11
53.016245844410662
 21
34.796307652215681
 31
0.0
  0
LINE
  5
1294
  8
0
 10
54.959292078222177
 20
63.62554300139567
 30
0.0
 11
55.834528805703883
 21
64.359953816618344
 31
0.0
  0
ARC
  5
1295
  8
0
 10
50.000000000000227
 20
50.000000000000341
 30
0.0
 40
15.49999999999959
 50
58.778846428937712
 51
67.887820237727695
  0
LINE
  5
1296
  8
0
 10
58.034312998337441
 20
63.255180671901307
 30
0.0
 11
57.967880182026697
 21
62.114573265487579
 31
0.0
  0
LINE
  5
1297
  8
0
 10
54.127988923900432
 20
35.059795602330098
 30
0.0
 11
53.343930125765382
 21
35.890849376592563
 31
0.0
  0
ARC
  5
1298
  8
0
 10
49.999999999999773
 20
50.000000000000867
 30
0.0
 40
15.50000000000089
 50
285.44551309560592
 51
294.55448690439312
  0
LINE
  5
1299
  8
0
 10
56.50758811290671
 20
37.042326715310523
 30
0.0
 11
56.44115529659598
 21
35.901719308896787
 31
0.0
  0
LINE
  5
129A
  8
0
 10
57.967880182026697
 20
62.114573265487579
 30
0.0
 11
58.988891579881049
 21
62.627344462124398
 31
0.0
  0
ARC
  5
129B
  8
0
 10
49.999999999999893
 20
49.999999999999829
 30
0.0
 40
15.50000000000022
 50
45.445513095606472
 51
54.554486904392299
  0
LINE
  5
129C
  8
0
 10
60.874602084163939
 20
61.0450454734735
 30
0.0
 11
60.546917802809219
 21
59.95050374909664
 31
0.0
  0
LINE
  5
129D
  8
0
 10
57.462166694450332
 20
36.414490505533593
 30
0.0
 11
56.50758811290671
 21
37.042326715310523
 31
0.0
  0
ARC
  5
129E
  8
0
 10
50.000000000000682
 20
49.999999999998693
 30
0.0
 40
15.49999999999855
 50
298.77884642893918
 51
307.88782023772882
  0
LINE
  5
129F
  8
0
 10
59.320420340454802
 20
38.892355574774811
 30
0.0
 11
59.518820399510837
 21
37.767172926839187
 31
0.0
  0
LINE
  5
12A0
  8
0
 10
60.546917802809219
 20
59.95050374909664
 30
0.0
 11
61.658660882298932
 21
60.213991699211029
 31
0.0
  0
ARC
  5
12A1
  8
0
 10
49.99999999999897
 20
49.999999999999282
 30
0.0
 40
15.50000000000122
 50
32.112179762272021
 51
41.221153571058437
  0
LINE
  5
12A2
  8
0
 10
63.128638556847307
 20
58.239469014667279
 30
0.0
 11
62.55736835487437
 21
57.25
 31
0.0
  0
LINE
  5
12A3
  8
0
 10
60.394057126992493
 20
38.501583742061896
 30
0.0
 11
59.320420340454802
 21
38.892355574774832
 31
0.0
  0
ARC
  5
12A4
  8
0
 10
49.999999999999197
 20
50.000000000000853
 30
0.0
 40
15.50000000000114
 50
312.11217976227113
 51
321.22115357105849
  0
LINE
  5
12A5
  8
0
 10
61.630786294948109
 20
41.341200420309598
 30
0.0
 11
62.083323430833332
 21
40.292101418644968
 31
0.0
  0
LINE
  5
12A6
  8
0
 10
62.55736835487437
 20
57.25
 30
0.0
 11
63.699908758820243
 21
57.25
 31
0.0
  0
ARC
  5
12A7
  8
0
 10
49.999999999999659
 20
49.999999999999993
 30
0.0
 40
15.500000000000311
 50
18.778846428939062
 51
27.887820237728299
  0
LINE
  5
12A8
  8
0
 10
64.674906726709594
 20
54.989700648573283
 30
0.0
 11
63.890847928574601
 21
54.158646874310811
 31
0.0
  0
LINE
  5
12A9
  8
0
 10
62.765601249417159
 20
41.2085595753097
 30
0.0
 11
61.630786294948159
 21
41.341200420309598
 31
0.0
  0
ARC
  5
12AA
  8
0
 10
49.999999999999709
 20
50.000000000000142
 30
0.0
 40
15.500000000000311
 50
325.44551309560501
 51
334.55448690439511
  0
LINE
  5
12AB
  8
0
 10
63.314133549763987
 20
44.256843392432209
 30
0.0
 11
63.996411368347822
 21
43.340385235767499
 31
0.0
  0
LINE
  5
12AC
  8
0
 10
63.890847928574601
 20
54.158646874310797
 30
0.0
 11
65.002591008064314
 21
53.895158924196409
 31
0.0
  0
ARC
  5
12AD
  8
0
 10
49.999999999998749
 20
49.999999999999893
 30
0.0
 40
15.500000000001251
 50
5.445513095605909
 51
14.5544869043938
  0
LINE
  5
12AE
  8
0
 10
65.430046876476979
 20
51.470936228978807
 30
0.0
 11
64.475468294933364
 21
50.843100019201898
 31
0.0
  0
LINE
  5
12AF
  8
0
 10
64.448948504232987
 20
44.389484237432121
 30
0.0
 11
63.314133549763987
 21
44.256843392432231
 31
0.0
  0
ARC
  5
12B0
  8
0
 10
49.999999999999538
 20
50.000000000000128
 30
0.0
 40
15.500000000000471
 50
338.7788464289406
 51
347.88782023772728
  0
LINE
  5
12B1
  8
0
 10
64.279712418677036
 20
47.482101423829512
 30
0.0
 11
65.154949146158685
 21
46.747690608606831
 31
0.0
  0
LINE
  5
12B2
  8
0
 10
64.475468294933364
 20
50.843100019201898
 30
0.0
 11
65.496479692787716
 21
50.330328822565079
 31
0.0
  0
ARC
  5
12B3
  8
0
 10
49.999999999999943
 20
49.999999999999872
 30
0.0
 40
15.50000000000006
 50
352.112179762273
 51
1.221153571061401
  0
LINE
  5
12B4
  8
0
 10
65.353349205214727
 20
47.872873256542441
 30
0.0
 11
64.279712418677036
 21
47.482101423829512
 31
0.0
  0
CIRCLE
  5
12B5
  8
0
 10
50.000000000000227
 20
49.999999999999901
 30
0.0
 40
14.49999999999976
  0
LINE
  5
15D8
  8
2
 10
89.041499999999985
 20
52.458500000000072
 30
0.0
 11
88.499999999999986
 21
53.000000000000078
 31
0.0
  0
LINE
  5
15D9
  8
2
 10
88.499999999999986
 20
47.000000000000092
 30
0.0
 11
89.041499999999985
 21
47.541500000000092
 31
0.0
  0
LINE
  5
15DA
  8
2
 10
101.7
 20
52.458500000000072
 30
0.0
 11
89.041499999999985
 21
52.458500000000072
 31
0.0
  0
LINE
  5
15DB
  8
2
 10
89.041499999999985
 20
47.541500000000092
 30
0.0
 11
101.7
 21
47.541500000000092
 31
0.0
  0
LINE
  5
15DC
  8
2
 10
103.1194156368027
 20
50.000000000000078
 30
0.0
 11
101.7
 21
52.458500000000072
 31
0.0
  0
LINE
  5
15DD
  8
2
 10
101.7
 20
47.541500000000092
 30
0.0
 11
103.1194156368027
 21
50.000000000000078
 31
0.0
  0
LINE
  5
15EE
  8
2
 10
89.041499999999985
 20
47.541500000000092
 30
0.0
 11
89.041499999999985
 21
52.458500000000072
 31
0.0
  0
LINE
  5
15EF
  8
2
 10
101.7
 20
47.541500000000092
 30
0.0
 11
101.7
 21
52.458500000000072
 31
0.0
  0
LINE
  5
15F0
  8
2
 10
88.499999999999986
 20
53.000000000000078
 30
0.0
 11
100.5
 21
53.000000000000078
 31
0.0
  0
LINE
  5
15F2
  8
2
 10
88.499999999999986
 20
47.000000000000092
 30
0.0
 11
100.5
 21
47.000000000000092
 31
0.0
  0
LINE
  5
15F5
  8
0
 10
88.799999999999997
 20
54.000000000000092
 30
0.0
 11
88.499999999999986
 21
54.000000000000092
 31
0.0
  0
LINE
  5
15F6
  8
0
 10
88.499999999999986
 20
46.000000000000078
 30
0.0
 11
88.799999999999997
 21
46.000000000000078
 31
0.0
  0
LINE
  5
160F
  8
0
 10
88.499999999999986
 20
46.000000000000078
 30
0.0
 11
88.499999999999986
 21
54.000000000000092
 31
0.0
  0
LINE
  5
17CE
  8
2
 10
100.5
 20
47.000000000000092
 30
0.0
 11
100.5
 21
53.000000000000078
 31
0.0
  0
CIRCLE
  5
17D8
  8
0
 10
49.999999999999829
 20
50.000000000000078
 30
0.0
 40
4.000561791070071
  0
CIRCLE
  5
17D9
  8
3
 10
49.999999999999829
 20
50.000000000000043
 30
0.0
 40
3.0000000000000422
  0
CIRCLE
  5
17DA
  8
0
 10
49.999999999999829
 20
50.000000000000078
 30
0.0
 40
2.458499999999979
  0
TEXT
  5
187B
  8
0
 62
     3
 10
0.0
 20
0.0
 30
0.0
 40
10.0
  1
GKF30NA-OG
  7
STANDARD1
  0
ENDSEC
  0
EOF
