  0
SECTION
  2
HEADER
  9
$ACADVER
  1
AC1009
  9
$INSBASE
 10
0.0
 20
0.0
 30
0.0
  9
$EXTMIN
 10
0.0
 20
-2.960436562073669
 30
0.0
  9
$EXTMAX
 10
140.0
 20
393.4999999999971
 30
0.0
  9
$LIMMIN
 10
0.0
 20
0.0
  9
$LIMMAX
 10
187.5
 20
135.0
  9
$ORTHOMODE
 70
     1
  9
$REGENMODE
 70
     1
  9
$FILLMODE
 70
     1
  9
$QTEXTMODE
 70
     0
  9
$MIRRTEXT
 70
     0
  9
$DRAGMODE
 70
     2
  9
$LTSCALE
 40
5.0
  9
$OSMODE
 70
    37
  9
$ATTMODE
 70
     1
  9
$TEXTSIZE
 40
2.5000000000000488
  9
$TRACEWID
 40
0.05
  9
$TEXTSTYLE
  7
STANDARD
  9
$CLAYER
  8
0
  9
$CELTYPE
  6
BYLAYER
  9
$CECOLOR
 62
   256
  9
$DIMSCALE
 40
0.5
  9
$DIMASZ
 40
3.0
  9
$DIMEXO
 40
2.0
  9
$DIMDLI
 40
0.38
  9
$DIMRND
 40
0.0
  9
$DIMDLE
 40
0.0
  9
$DIMEXE
 40
2.0
  9
$DIMTP
 40
0.0
  9
$DIMTM
 40
0.0
  9
$DIMTXT
 40
3.2000000000000002
  9
$DIMCEN
 40
0.0
  9
$DIMTSZ
 40
0.0
  9
$DIMTOL
 70
     0
  9
$DIMLIM
 70
     0
  9
$DIMTIH
 70
     0
  9
$DIMTOH
 70
     0
  9
$DIMSE1
 70
     0
  9
$DIMSE2
 70
     0
  9
$DIMTAD
 70
     1
  9
$DIMZIN
 70
     0
  9
$DIMBLK
  1

  9
$DIMASO
 70
     1
  9
$DIMSHO
 70
     0
  9
$DIMPOST
  1

  9
$DIMAPOST
  1

  9
$DIMALT
 70
     0
  9
$DIMALTD
 70
     2
  9
$DIMALTF
 40
25.399999999999999
  9
$DIMLFAC
 40
1.0
  9
$DIMTOFL
 70
     1
  9
$DIMTVP
 40
1.6000000000000001
  9
$DIMTIX
 70
     1
  9
$DIMSOXD
 70
     0
  9
$DIMSAH
 70
     0
  9
$DIMBLK1
  1

  9
$DIMBLK2
  1

  9
$DIMSTYLE
  2
STANDARD
  9
$DIMCLRD
 70
     0
  9
$DIMCLRE
 70
     0
  9
$DIMCLRT
 70
     0
  9
$DIMTFAC
 40
1.0
  9
$DIMGAP
 40
0.09
  9
$LUNITS
 70
     2
  9
$LUPREC
 70
     1
  9
$SKETCHINC
 40
0.1
  9
$FILLETRAD
 40
0.0
  9
$AUNITS
 70
     0
  9
$AUPREC
 70
     1
  9
$MENU
  1
E:\r13\win\SUPPORT\ACAD
  9
$ELEVATION
 40
0.0
  9
$PELEVATION
 40
0.0
  9
$THICKNESS
 40
0.0
  9
$LIMCHECK
 70
     0
  9
$BLIPMODE
 70
     0
  9
$CHAMFERA
 40
0.0
  9
$CHAMFERB
 40
0.0
  9
$SKPOLY
 70
     0
  9
$TDCREATE
 40
2449839.787418982
  9
$TDUPDATE
 40
2457162.6023678239
  9
$TDINDWG
 40
0.3592881481
  9
$TDUSRTIMER
 40
0.3592881481
  9
$USRTIMER
 70
     1
  9
$ANGBASE
 50
0.0
  9
$ANGDIR
 70
     0
  9
$PDMODE
 70
     0
  9
$PDSIZE
 40
0.0
  9
$PLINEWID
 40
0.0
  9
$COORDS
 70
     1
  9
$SPLFRAME
 70
     0
  9
$SPLINETYPE
 70
     6
  9
$SPLINESEGS
 70
     8
  9
$ATTDIA
 70
     0
  9
$ATTREQ
 70
     1
  9
$HANDLING
 70
     1
  9
$HANDSEED
  5
611D
  9
$SURFTAB1
 70
     6
  9
$SURFTAB2
 70
     6
  9
$SURFTYPE
 70
     6
  9
$SURFU
 70
     6
  9
$SURFV
 70
     6
  9
$UCSNAME
  2

  9
$UCSORG
 10
0.0
 20
0.0
 30
0.0
  9
$UCSXDIR
 10
1.0
 20
0.0
 30
0.0
  9
$UCSYDIR
 10
0.0
 20
1.0
 30
0.0
  9
$PUCSNAME
  2

  9
$PUCSORG
 10
0.0
 20
0.0
 30
0.0
  9
$PUCSXDIR
 10
1.0
 20
0.0
 30
0.0
  9
$PUCSYDIR
 10
0.0
 20
1.0
 30
0.0
  9
$USERI1
 70
     0
  9
$USERI2
 70
     1
  9
$USERI3
 70
     1
  9
$USERI4
 70
     0
  9
$USERI5
 70
     0
  9
$USERR1
 40
0.0
  9
$USERR2
 40
0.0
  9
$USERR3
 40
0.0
  9
$USERR4
 40
0.0
  9
$USERR5
 40
0.0
  9
$WORLDVIEW
 70
     1
  9
$SHADEDGE
 70
     3
  9
$SHADEDIF
 70
    70
  9
$TILEMODE
 70
     1
  9
$MAXACTVP
 70
    16
  9
$PLIMCHECK
 70
     0
  9
$PEXTMIN
 10
1.0000000000000000E+020
 20
1.0000000000000000E+020
 30
1.0000000000000000E+020
  9
$PEXTMAX
 10
-1.0000000000000000E+020
 20
-1.0000000000000000E+020
 30
-1.0000000000000000E+020
  9
$PLIMMIN
 10
0.0
 20
0.0
  9
$PLIMMAX
 10
12.0
 20
9.0
  9
$UNITMODE
 70
     0
  9
$VISRETAIN
 70
     0
  9
$PLINEGEN
 70
     0
  9
$PSLTSCALE
 70
     0
  0
ENDSEC
  0
SECTION
  2
TABLES
  0
TABLE
  2
VPORT
 70
     1
  0
VPORT
  2
*ACTIVE
 70
     0
 10
0.0
 20
0.0
 11
1.0
 21
1.0
 12
363.25065923917708
 22
200.0
 13
0.0
 23
0.0
 14
5.0
 24
5.0
 15
5.0
 25
5.0
 16
0.0
 26
0.0
 36
1.0
 17
0.0
 27
0.0
 37
0.0
 40
400.02406309006449
 41
1.816239316239316
 42
50.0
 43
0.0
 44
0.0
 50
0.0
 51
0.0
 71
     0
 72
   500
 73
     1
 74
     0
 75
     0
 76
     0
 77
     0
 78
     2
  0
ENDTAB
  0
TABLE
  2
LTYPE
 70
     4
  0
LTYPE
  2
CONTINUOUS
 70
     0
  3
Solid Line
 72
    65
 73
     0
 40
0.0
  0
LTYPE
  2
HIDDEN
 70
     0
  3
_ _ _ _ _ _ _ _ _ _ _ _ _ _ _ _ _ _ _ _ _ _ _
 72
    65
 73
     2
 40
0.375
 49
0.25
 49
-0.125
  0
LTYPE
  2
CENTER
 70
     0
  3
____ _ ____ _ ____ _ ____ _ ____ _ ____ _ ____
 72
    65
 73
     4
 40
2.0
 49
1.25
 49
-0.25
 49
0.25
 49
-0.25
  0
LTYPE
  2
PHANTOM2
 70
     0
  3
___ _ _ ___ _ _ ___ _ _ ___ _ _
 72
    65
 73
     6
 40
1.25
 49
0.625
 49
-0.125
 49
0.125
 49
-0.125
 49
0.125
 49
-0.125
  0
ENDTAB
  0
TABLE
  2
LAYER
 70
     5
  0
LAYER
  2
0
 70
     0
 62
     7
  6
CONTINUOUS
  0
LAYER
  2
2
 70
     0
 62
     2
  6
HIDDEN
  0
LAYER
  2
1
 70
     0
 62
     1
  6
CENTER
  0
LAYER
  2
3
 70
     0
 62
     3
  6
CONTINUOUS
  0
LAYER
  2
DEFPOINTS
 70
     0
 62
     7
  6
CONTINUOUS
  0
ENDTAB
  0
TABLE
  2
STYLE
 70
     2
  0
STYLE
  2
STANDARD
 70
     0
 40
0.0
 41
1.0
 50
0.0
 71
     0
 42
2.5000000000000488
  3
TXT
  4
BIGFONT
  0
STYLE
  2
STANDARD1
 70
     0
 40
0.0
 41
1.0
 50
0.0
 71
     0
 42
3.0
  3
txt
  4

  0
ENDTAB
  0
TABLE
  2
VIEW
 70
     0
  0
ENDTAB
  0
TABLE
  2
UCS
 70
     0
  0
ENDTAB
  0
TABLE
  2
APPID
 70
     6
  0
APPID
  2
ACAD
 70
     0
  0
APPID
  2
ACAD_NAV_VCDISPLAY
 70
     0
  0
APPID
  2
ACAD_EXEMPT_FROM_CAD_STANDARDS
 70
     0
  0
APPID
  2
ACAD_MLEADERVER
 70
     0
  0
APPID
  2
ACAD_DSTYLE_DIMJAG
 70
     0
  0
APPID
  2
ACAD_DSTYLE_DIMTALN
 70
     0
  0
ENDTAB
  0
TABLE
  2
DIMSTYLE
 70
     1
  0
DIMSTYLE
  2
STANDARD
 70
     0
  3

  4

  5

  6

  7

 40
1.0
 41
0.18
 42
0.0625
 43
0.38
 44
0.18
 45
0.0
 46
0.0
 47
0.0
 48
0.0
140
0.18
141
0.09
142
0.0
143
25.399999999999999
144
1.0
145
0.0
146
1.0
147
0.09
 71
     0
 72
     0
 73
     1
 74
     1
 75
     0
 76
     0
 77
     0
 78
     0
170
     0
171
     2
172
     0
173
     0
174
     0
175
     0
176
     0
177
     0
178
     0
  0
ENDTAB
  0
ENDSEC
  0
SECTION
  2
BLOCKS
  0
BLOCK
  8
0
  2
$MODEL_SPACE
 70
     0
 10
0.0
 20
0.0
 30
0.0
  3
$MODEL_SPACE
  1

  0
ENDBLK
  5
65B
  8
0
  0
BLOCK
 67
     1
  8
0
  2
$PAPER_SPACE
 70
     0
 10
0.0
 20
0.0
 30
0.0
  3
$PAPER_SPACE
  1

  0
ENDBLK
  5
659
 67
     1
  8
0
  0
ENDSEC
  0
SECTION
  2
ENTITIES
  0
LINE
  5
56F1
  8
2
 10
97.500000000000071
 20
192.49999999999849
 30
0.0
 11
97.500000000000071
 21
214.49999999999849
 31
0.0
  0
LINE
  5
56F2
  8
2
 10
87.499999999999886
 20
214.49999999999849
 30
0.0
 11
87.499999999999943
 21
192.49999999999849
 31
0.0
  0
LINE
  5
56F9
  8
2
 10
107.0
 20
201.27777777777629
 30
0.0
 11
100.4999999999999
 21
201.27777777777621
 31
0.0
  0
LINE
  5
56FA
  8
2
 10
100.4999999999999
 20
195.72222222222069
 30
0.0
 11
107.0
 21
195.72222222222069
 31
0.0
  0
LINE
  5
56FB
  8
2
 10
106.8886163391772
 20
200.62088366082131
 30
0.0
 11
106.5095
 21
200.99999999999849
 31
0.0
  0
LINE
  5
56FC
  8
2
 10
106.5095
 20
195.99999999999849
 30
0.0
 11
106.8886163391772
 21
196.37911633917571
 31
0.0
  0
LINE
  5
56FD
  8
2
 10
97.990500000000011
 20
200.99999999999849
 30
0.0
 11
97.5
 21
200.5094999999985
 31
0.0
  0
LINE
  5
56FE
  8
2
 10
97.5
 20
196.49049999999849
 30
0.0
 11
97.990500000000054
 21
195.99999999999849
 31
0.0
  0
LINE
  5
56FF
  8
2
 10
106.5095
 20
200.99999999999849
 30
0.0
 11
97.990500000000011
 21
200.99999999999849
 31
0.0
  0
LINE
  5
5700
  8
2
 10
97.990500000000011
 20
195.99999999999849
 30
0.0
 11
106.5095
 21
195.99999999999849
 31
0.0
  0
LINE
  5
5706
  8
2
 10
87.499999999999886
 20
214.49999999999849
 30
0.0
 11
97.500000000000114
 21
214.49999999999849
 31
0.0
  0
LINE
  5
574F
  8
2
 10
97.990500000000011
 20
200.99999999999849
 30
0.0
 11
97.990500000000011
 21
195.99999999999849
 31
0.0
  0
LINE
  5
5750
  8
2
 10
100.4999999999999
 20
222.99999999999849
 30
0.0
 11
100.5
 21
200.99999999999849
 31
0.0
  0
LINE
  5
5751
  8
2
 10
106.5095
 20
195.99999999999849
 30
0.0
 11
106.5095
 21
200.99999999999849
 31
0.0
  0
LINE
  5
5752
  8
2
 10
107.0
 20
199.94337567297259
 30
0.0
 11
103.8333333333333
 21
199.94337567297259
 31
0.0
  0
LINE
  5
5753
  8
2
 10
107.0
 20
199.2216878364855
 30
0.0
 11
103.8333333333333
 21
199.2216878364855
 31
0.0
  0
LINE
  5
5754
  8
2
 10
107.0
 20
197.05662432702439
 30
0.0
 11
103.8333333333333
 21
197.05662432702439
 31
0.0
  0
LINE
  5
5755
  8
2
 10
107.0
 20
197.77831216351149
 30
0.0
 11
103.8333333333333
 21
197.77831216351149
 31
0.0
  0
LINE
  5
5756
  8
2
 10
103.8333333333333
 20
199.94337567297259
 30
0.0
 11
103.8333333333333
 21
197.05662432702439
 31
0.0
  0
LINE
  5
5757
  8
1
 10
92.5
 20
187.49999999999849
 30
0.0
 11
92.500000000000057
 21
227.99999999999849
 31
0.0
  0
LINE
  5
5758
  8
1
 10
61.0
 20
247.99999999999861
 30
0.0
 11
60.999999999999943
 21
220.99999999999861
 31
0.0
  0
LINE
  5
5759
  8
1
 10
95.500000000000057
 20
198.49999999999861
 30
0.0
 11
109.0
 21
198.49999999999849
 31
0.0
  0
ARC
  5
575A
  8
0
 10
52.0
 20
221.99999999999849
 30
0.0
 40
1.0000000000000171
 50
90.0
 51
180.0
  0
ARC
  5
575B
  8
0
 10
133.0
 20
221.99999999999849
 30
0.0
 40
1.0000000000000211
 50
0.0
 51
90.0
  0
LINE
  5
575C
  8
0
 10
135.0
 20
221.3999999999985
 30
0.0
 11
134.0
 21
221.99999999999849
 31
0.0
  0
LINE
  5
575D
  8
0
 10
51.0
 20
221.99999999999849
 30
0.0
 11
50.0
 21
221.39999999999861
 31
0.0
  0
ARC
  5
575E
  8
0
 10
52.0
 20
203.99999999999849
 30
0.0
 40
1.0
 50
180.0
 51
270.0
  0
ARC
  5
575F
  8
0
 10
133.0
 20
203.99999999999849
 30
0.0
 40
1.0000000000000011
 50
270.0
 51
0.0
  0
LINE
  5
5760
  8
0
 10
105.5
 20
192.79999999999851
 30
0.0
 11
107.0
 21
194.29999999999851
 31
0.0
  0
LINE
  5
5761
  8
0
 10
78.0
 20
194.29999999999851
 30
0.0
 11
79.5
 21
192.79999999999851
 31
0.0
  0
LINE
  5
5762
  8
0
 10
100.5
 20
192.49999999999849
 30
0.0
 11
100.5
 21
192.79999999999851
 31
0.0
  0
LINE
  5
5763
  8
0
 10
84.500000000000014
 20
192.79999999999851
 30
0.0
 11
84.500000000000014
 21
192.49999999999849
 31
0.0
  0
ARC
  5
5764
  8
0
 10
61.0
 20
216.35909090909081
 30
0.0
 40
29.640909090907769
 50
77.463027721169325
 51
102.5369722788306
  0
ARC
  5
5765
  8
0
 10
54.999999999999943
 20
243.3409339775661
 30
0.0
 40
1.9999999999999909
 50
102.5369722788306
 51
180.0
  0
ARC
  5
5766
  8
0
 10
67.000000000000057
 20
243.3409339775661
 30
0.0
 40
1.9999999999999949
 50
0.0
 51
77.463027721169325
  0
LINE
  5
5767
  8
0
 10
69.0
 20
225.54999999999859
 30
0.0
 11
69.0
 21
243.3409339775661
 31
0.0
  0
LINE
  5
5768
  8
0
 10
53.0
 20
243.3409339775661
 30
0.0
 11
53.0
 21
225.54999999999859
 31
0.0
  0
LINE
  5
5769
  8
0
 10
67.25
 20
223.79999999999859
 30
0.0
 11
69.0
 21
225.54999999999859
 31
0.0
  0
LINE
  5
576A
  8
0
 10
53.0
 20
225.54999999999859
 30
0.0
 11
54.75
 21
223.79999999999859
 31
0.0
  0
LINE
  5
576B
  8
0
 10
64.0
 20
222.99999999999861
 30
0.0
 11
64.0
 21
223.79999999999859
 31
0.0
  0
LINE
  5
576C
  8
0
 10
58.0
 20
223.79999999999859
 30
0.0
 11
58.0
 21
222.99999999999861
 31
0.0
  0
LINE
  5
576D
  8
0
 10
107.0
 20
201.27777777777629
 30
0.0
 11
107.0
 21
202.99999999999849
 31
0.0
  0
LINE
  5
576E
  8
0
 10
107.0
 20
194.29999999999851
 30
0.0
 11
107.0
 21
195.72222222222069
 31
0.0
  0
LINE
  5
576F
  8
0
 10
78.0
 20
202.99999999999849
 30
0.0
 11
78.0
 21
194.29999999999851
 31
0.0
  0
LINE
  5
5770
  8
0
 10
135.0
 20
217.51037695893581
 30
0.0
 11
133.94999999999999
 21
217.99999999999849
 31
0.0
  0
LINE
  5
5771
  8
0
 10
51.050000000000011
 20
217.99999999999849
 30
0.0
 11
50.0
 21
217.51037695893581
 31
0.0
  0
LINE
  5
5772
  8
0
 10
135.0
 20
207.51037695893569
 30
0.0
 11
133.94999999999999
 21
207.99999999999849
 31
0.0
  0
LINE
  5
5773
  8
0
 10
51.050000000000011
 20
207.99999999999849
 30
0.0
 11
50.0
 21
207.51037695893581
 31
0.0
  0
LINE
  5
5774
  8
0
 10
135.0
 20
212.51037695893581
 30
0.0
 11
133.94999999999999
 21
212.99999999999849
 31
0.0
  0
LINE
  5
5775
  8
0
 10
51.050000000000011
 20
212.99999999999861
 30
0.0
 11
50.0
 21
212.51037695893581
 31
0.0
  0
LINE
  5
5776
  8
0
 10
50.0
 20
217.51037695893581
 30
0.0
 11
50.0
 21
213.48962304106129
 31
0.0
  0
LINE
  5
5777
  8
0
 10
135.0
 20
213.48962304106129
 30
0.0
 11
135.0
 21
217.51037695893581
 31
0.0
  0
LINE
  5
5778
  8
0
 10
133.94999999999999
 20
212.99999999999849
 30
0.0
 11
135.0
 21
213.48962304106129
 31
0.0
  0
LINE
  5
5779
  8
0
 10
50.0
 20
213.48962304106129
 30
0.0
 11
51.050000000000011
 21
212.99999999999861
 31
0.0
  0
LINE
  5
577A
  8
0
 10
133.94999999999999
 20
217.99999999999849
 30
0.0
 11
135.0
 21
218.48962304106129
 31
0.0
  0
LINE
  5
577B
  8
0
 10
50.0
 20
218.48962304106129
 30
0.0
 11
51.050000000000011
 21
217.99999999999849
 31
0.0
  0
LINE
  5
577C
  8
0
 10
50.0
 20
221.39999999999861
 30
0.0
 11
50.0
 21
218.48962304106129
 31
0.0
  0
LINE
  5
577D
  8
0
 10
135.0
 20
218.48962304106129
 30
0.0
 11
135.0
 21
221.3999999999985
 31
0.0
  0
LINE
  5
577E
  8
0
 10
50.0
 20
207.51037695893581
 30
0.0
 11
50.0
 21
204.5999999999986
 31
0.0
  0
LINE
  5
577F
  8
0
 10
135.0
 20
204.59999999999849
 30
0.0
 11
135.0
 21
207.51037695893569
 31
0.0
  0
LINE
  5
5780
  8
0
 10
134.0
 20
203.99999999999849
 30
0.0
 11
135.0
 21
204.59999999999849
 31
0.0
  0
LINE
  5
5781
  8
0
 10
50.0
 20
204.5999999999986
 30
0.0
 11
51.0
 21
203.99999999999849
 31
0.0
  0
LINE
  5
5782
  8
0
 10
133.94999999999999
 20
207.99999999999849
 30
0.0
 11
135.0
 21
208.48962304106129
 31
0.0
  0
LINE
  5
5783
  8
0
 10
50.0
 20
208.48962304106129
 30
0.0
 11
51.050000000000011
 21
207.99999999999849
 31
0.0
  0
LINE
  5
5784
  8
0
 10
50.0
 20
212.51037695893581
 30
0.0
 11
50.0
 21
208.48962304106129
 31
0.0
  0
LINE
  5
5785
  8
0
 10
135.0
 20
208.48962304106129
 30
0.0
 11
135.0
 21
212.51037695893581
 31
0.0
  0
LINE
  5
5786
  8
0
 10
107.0
 20
200.5094999999985
 30
0.0
 11
106.8886163391772
 21
200.62088366082131
 31
0.0
  0
LINE
  5
5787
  8
0
 10
106.8886163391772
 20
196.37911633917571
 30
0.0
 11
107.0
 21
196.49049999999849
 31
0.0
  0
LINE
  5
5788
  8
0
 10
52.0
 20
222.99999999999861
 30
0.0
 11
133.0
 21
222.99999999999849
 31
0.0
  0
LINE
  5
5789
  8
0
 10
51.0
 20
221.99999999999849
 30
0.0
 11
134.0
 21
221.99999999999849
 31
0.0
  0
LINE
  5
578A
  8
0
 10
52.0
 20
202.99999999999861
 30
0.0
 11
133.0
 21
202.99999999999849
 31
0.0
  0
LINE
  5
578B
  8
0
 10
79.5
 20
192.79999999999851
 30
0.0
 11
105.5
 21
192.79999999999851
 31
0.0
  0
LINE
  5
578C
  8
0
 10
84.500000000000014
 20
192.49999999999849
 30
0.0
 11
100.5
 21
192.49999999999849
 31
0.0
  0
LINE
  5
578E
  8
0
 10
52.999999999999943
 20
243.3409339775661
 30
0.0
 11
69.000000000000057
 21
243.3409339775661
 31
0.0
  0
LINE
  5
578F
  8
0
 10
53.0
 20
225.54999999999859
 30
0.0
 11
69.0
 21
225.54999999999859
 31
0.0
  0
LINE
  5
5790
  8
0
 10
54.75
 20
223.79999999999859
 30
0.0
 11
67.25
 21
223.79999999999859
 31
0.0
  0
LINE
  5
5791
  8
0
 10
78.0
 20
194.29999999999851
 30
0.0
 11
107.0
 21
194.29999999999851
 31
0.0
  0
POLYLINE
  5
5792
  8
0
 66
     1
 10
0.0
 20
0.0
 30
0.0
  0
VERTEX
  5
6098
  8
0
 10
107.0
 20
195.72222222222069
 30
0.0
  0
VERTEX
  5
6099
  8
0
 10
106.9999476845806
 20
195.72249532164179
 30
0.0
  0
VERTEX
  5
609A
  8
0
 10
106.9995250393455
 20
195.72470258362591
 30
0.0
  0
VERTEX
  5
609B
  8
0
 10
106.9986706754474
 20
195.72916966636291
 30
0.0
  0
VERTEX
  5
609C
  8
0
 10
106.9980793827213
 20
195.7322653359806
 30
0.0
  0
VERTEX
  5
609D
  8
0
 10
106.9973778644575
 20
195.7359424160145
 30
0.0
  0
VERTEX
  5
609E
  8
0
 10
106.9956427943809
 20
195.7450572773626
 30
0.0
  0
VERTEX
  5
609F
  8
0
 10
106.99346456989019
 20
195.7565414853899
 30
0.0
  0
VERTEX
  5
60A0
  8
0
 10
106.9908451561306
 20
195.7704134522462
 30
0.0
  0
VERTEX
  5
60A1
  8
0
 10
106.9877892712787
 20
195.7866833299997
 30
0.0
  0
VERTEX
  5
60A2
  8
0
 10
106.9843043390931
 20
195.8053531641055
 30
0.0
  0
VERTEX
  5
60A3
  8
0
 10
106.9824040572769
 20
195.81558634689929
 30
0.0
  0
VERTEX
  5
60A4
  8
0
 10
106.9804005487504
 20
195.82641636843431
 30
0.0
  0
VERTEX
  5
60A5
  8
0
 10
106.9760907991526
 20
195.8498577004176
 30
0.0
  0
VERTEX
  5
60A6
  8
0
 10
106.9713905726486
 20
195.8756535120402
 30
0.0
  0
VERTEX
  5
60A7
  8
0
 10
106.96631776191759
 20
195.90377216494849
 30
0.0
  0
VERTEX
  5
60A8
  8
0
 10
106.9608924537297
 20
195.9341746082284
 30
0.0
  0
VERTEX
  5
60A9
  8
0
 10
106.95513526595759
 20
195.96682315266841
 30
0.0
  0
VERTEX
  5
60AA
  8
0
 10
106.9521390059739
 20
195.9839771005183
 30
0.0
  0
VERTEX
  5
60AB
  8
0
 10
106.94906842611201
 20
196.00167500809241
 30
0.0
  0
VERTEX
  5
60AC
  8
0
 10
106.942717381061
 20
196.03867216081909
 30
0.0
  0
VERTEX
  5
60AD
  8
0
 10
106.9361093284264
 20
196.07774858344479
 30
0.0
  0
VERTEX
  5
60AE
  8
0
 10
106.9327178387997
 20
196.09804379783239
 30
0.0
  0
VERTEX
  5
60AF
  8
0
 10
106.92927295622241
 20
196.11883065955081
 30
0.0
  0
VERTEX
  5
60B0
  8
0
 10
106.922238152932
 20
196.16183774673161
 30
0.0
  0
VERTEX
  5
60B1
  8
0
 10
106.9150356932934
 20
196.20668287808999
 30
0.0
  0
VERTEX
  5
60B2
  8
0
 10
106.9113813772705
 20
196.22976596275569
 30
0.0
  0
VERTEX
  5
60B3
  8
0
 10
106.90769696499601
 20
196.25327322135581
 30
0.0
  0
VERTEX
  5
60B4
  8
0
 10
106.9002539854678
 20
196.30150864711629
 30
0.0
  0
VERTEX
  5
60B5
  8
0
 10
106.8927392972673
 20
196.3512808787963
 30
0.0
  0
VERTEX
  5
60B6
  8
0
 10
106.88518565304889
 20
196.40247392020791
 30
0.0
  0
VERTEX
  5
60B7
  8
0
 10
106.87762567795831
 20
196.45496466578021
 30
0.0
  0
VERTEX
  5
60B8
  8
0
 10
106.87009152477771
 20
196.50862363848239
 30
0.0
  0
VERTEX
  5
60B9
  8
0
 10
106.8663439646915
 20
196.5358492179698
 30
0.0
  0
VERTEX
  5
60BA
  8
0
 10
106.8625953926974
 20
196.56345777297369
 30
0.0
  0
VERTEX
  5
60BB
  8
0
 10
106.8550533686937
 20
196.62021102227791
 30
0.0
  0
VERTEX
  5
60BC
  8
0
 10
106.84747764654971
 20
196.67896617248221
 30
0.0
  0
VERTEX
  5
60BD
  8
0
 10
106.839900398285
 20
196.73966116458911
 30
0.0
  0
VERTEX
  5
60BE
  8
0
 10
106.8323544034689
 20
196.80222730338889
 30
0.0
  0
VERTEX
  5
60BF
  8
0
 10
106.8248727046233
 20
196.8665902576559
 30
0.0
  0
VERTEX
  5
60C0
  8
0
 10
106.82116627982801
 20
196.89942104312061
 30
0.0
  0
VERTEX
  5
60C1
  8
0
 10
106.81748826641829
 20
196.93267117625311
 30
0.0
  0
VERTEX
  5
60C2
  8
0
 10
106.81023365419721
 20
197.00038784332821
 30
0.0
  0
VERTEX
  5
60C3
  8
0
 10
106.8031409214372
 20
197.06965402744169
 30
0.0
  0
VERTEX
  5
60C4
  8
0
 10
106.7962416168661
 20
197.14037734994781
 30
0.0
  0
VERTEX
  5
60C5
  8
0
 10
106.7895664980248
 20
197.2124596766734
 30
0.0
  0
VERTEX
  5
60C6
  8
0
 10
106.7831452012442
 20
197.28579811293781
 30
0.0
  0
VERTEX
  5
60C7
  8
0
 10
106.7800386145593
 20
197.32290517968011
 30
0.0
  0
VERTEX
  5
60C8
  8
0
 10
106.7770059336563
 20
197.36028608309891
 30
0.0
  0
VERTEX
  5
60C9
  8
0
 10
106.7711751930818
 20
197.43581450190601
 30
0.0
  0
VERTEX
  5
60CA
  8
0
 10
106.7656762603125
 20
197.51229126420569
 30
0.0
  0
VERTEX
  5
60CB
  8
0
 10
106.7605308143628
 20
197.589621787326
 30
0.0
  0
VERTEX
  5
60CC
  8
0
 10
106.75576000468671
 20
197.66768834325981
 30
0.0
  0
VERTEX
  5
60CD
  8
0
 10
106.75138275154271
 20
197.74636898040981
 30
0.0
  0
VERTEX
  5
60CE
  8
0
 10
106.7493469525037
 20
197.7859005982744
 30
0.0
  0
VERTEX
  5
60CF
  8
0
 10
106.7474155090526
 20
197.82553868138189
 30
0.0
  0
VERTEX
  5
60D0
  8
0
 10
106.7438720727212
 20
197.905070586736
 30
0.0
  0
VERTEX
  5
60D1
  8
0
 10
106.740763435837
 20
197.9848372895967
 30
0.0
  0
VERTEX
  5
60D2
  8
0
 10
106.73809771953211
 20
198.0647115282228
 30
0.0
  0
VERTEX
  5
60D3
  8
0
 10
106.73588022295721
 20
198.14456350060621
 30
0.0
  0
VERTEX
  5
60D4
  8
0
 10
106.73411336658459
 20
198.22425969554519
 30
0.0
  0
VERTEX
  5
60D5
  8
0
 10
106.7333988682082
 20
198.2640069402934
 30
0.0
  0
VERTEX
  5
60D6
  8
0
 10
106.7327965766558
 20
198.3036641265997
 30
0.0
  0
VERTEX
  5
60D7
  8
0
 10
106.7319262244787
 20
198.3826396927293
 30
0.0
  0
VERTEX
  5
60D8
  8
0
 10
106.7314956260562
 20
198.4610495548875
 30
0.0
  0
VERTEX
  5
60D9
  8
0
 10
106.73144232385749
 20
198.49999999999849
 30
0.0
  0
VERTEX
  5
60DA
  8
0
 10
106.7314956260562
 20
198.53895044510949
 30
0.0
  0
VERTEX
  5
60DB
  8
0
 10
106.7319262244787
 20
198.61736030726769
 30
0.0
  0
VERTEX
  5
60DC
  8
0
 10
106.7327965766558
 20
198.69633587339729
 30
0.0
  0
VERTEX
  5
60DD
  8
0
 10
106.7333988682082
 20
198.73599305970359
 30
0.0
  0
VERTEX
  5
60DE
  8
0
 10
106.73411336658459
 20
198.7757403044518
 30
0.0
  0
VERTEX
  5
60DF
  8
0
 10
106.73588022295721
 20
198.85543649939081
 30
0.0
  0
VERTEX
  5
60E0
  8
0
 10
106.73809771953211
 20
198.93528847177419
 30
0.0
  0
VERTEX
  5
60E1
  8
0
 10
106.740763435837
 20
199.0151627104004
 30
0.0
  0
VERTEX
  5
60E2
  8
0
 10
106.7438720727212
 20
199.0949294132611
 30
0.0
  0
VERTEX
  5
60E3
  8
0
 10
106.7474155090526
 20
199.1744613186151
 30
0.0
  0
VERTEX
  5
60E4
  8
0
 10
106.7493469525037
 20
199.21409940172259
 30
0.0
  0
VERTEX
  5
60E5
  8
0
 10
106.75138275154271
 20
199.2536310195872
 30
0.0
  0
VERTEX
  5
60E6
  8
0
 10
106.75576000468671
 20
199.3323116567372
 30
0.0
  0
VERTEX
  5
60E7
  8
0
 10
106.7605308143628
 20
199.41037821267099
 30
0.0
  0
VERTEX
  5
60E8
  8
0
 10
106.7656762603125
 20
199.4877087357913
 30
0.0
  0
VERTEX
  5
60E9
  8
0
 10
106.7711751930818
 20
199.56418549809101
 30
0.0
  0
VERTEX
  5
60EA
  8
0
 10
106.7770059336563
 20
199.6397139168981
 30
0.0
  0
VERTEX
  5
60EB
  8
0
 10
106.7800386145593
 20
199.67709482031691
 30
0.0
  0
VERTEX
  5
60EC
  8
0
 10
106.7831452012442
 20
199.7142018870592
 30
0.0
  0
VERTEX
  5
60ED
  8
0
 10
106.7895664980248
 20
199.78754032332361
 30
0.0
  0
VERTEX
  5
60EE
  8
0
 10
106.7962416168661
 20
199.8596226500492
 30
0.0
  0
VERTEX
  5
60EF
  8
0
 10
106.8031409214372
 20
199.9303459725553
 30
0.0
  0
VERTEX
  5
60F0
  8
0
 10
106.81023365419721
 20
199.9996121566688
 30
0.0
  0
VERTEX
  5
60F1
  8
0
 10
106.81748826641829
 20
200.06732882374391
 30
0.0
  0
VERTEX
  5
60F2
  8
0
 10
106.82116627982801
 20
200.10057895687649
 30
0.0
  0
VERTEX
  5
60F3
  8
0
 10
106.8248727046233
 20
200.13340974234109
 30
0.0
  0
VERTEX
  5
60F4
  8
0
 10
106.8323544034689
 20
200.1977726966081
 30
0.0
  0
VERTEX
  5
60F5
  8
0
 10
106.839900398285
 20
200.26033883540791
 30
0.0
  0
VERTEX
  5
60F6
  8
0
 10
106.84747764654971
 20
200.32103382751481
 30
0.0
  0
VERTEX
  5
60F7
  8
0
 10
106.8550533686937
 20
200.3797889777191
 30
0.0
  0
VERTEX
  5
60F8
  8
0
 10
106.8625953926974
 20
200.43654222702321
 30
0.0
  0
VERTEX
  5
60F9
  8
0
 10
106.8663439646915
 20
200.4641507820273
 30
0.0
  0
VERTEX
  5
60FA
  8
0
 10
106.87009152477771
 20
200.4913763615146
 30
0.0
  0
VERTEX
  5
60FB
  8
0
 10
106.87762567795831
 20
200.54503533421689
 30
0.0
  0
VERTEX
  5
60FC
  8
0
 10
106.88518565304889
 20
200.59752607978919
 30
0.0
  0
VERTEX
  5
60FD
  8
0
 10
106.8927392972673
 20
200.64871912120071
 30
0.0
  0
VERTEX
  5
60FE
  8
0
 10
106.9002539854678
 20
200.69849135288069
 30
0.0
  0
VERTEX
  5
60FF
  8
0
 10
106.90769696499601
 20
200.7467267786412
 30
0.0
  0
VERTEX
  5
6100
  8
0
 10
106.9113813772705
 20
200.77023403724141
 30
0.0
  0
VERTEX
  5
6101
  8
0
 10
106.9150356932934
 20
200.79331712190699
 30
0.0
  0
VERTEX
  5
6102
  8
0
 10
106.922238152932
 20
200.83816225326549
 30
0.0
  0
VERTEX
  5
6103
  8
0
 10
106.92927295622241
 20
200.88116934044629
 30
0.0
  0
VERTEX
  5
6104
  8
0
 10
106.9327178387997
 20
200.9019562021646
 30
0.0
  0
VERTEX
  5
6105
  8
0
 10
106.9361093284264
 20
200.9222514165522
 30
0.0
  0
VERTEX
  5
6106
  8
0
 10
106.942717381061
 20
200.96132783917801
 30
0.0
  0
VERTEX
  5
6107
  8
0
 10
106.94906842611201
 20
200.99832499190461
 30
0.0
  0
VERTEX
  5
6108
  8
0
 10
106.9521390059739
 20
201.01602289947871
 30
0.0
  0
VERTEX
  5
6109
  8
0
 10
106.95513526595759
 20
201.0331768473286
 30
0.0
  0
VERTEX
  5
610A
  8
0
 10
106.9608924537297
 20
201.06582539176861
 30
0.0
  0
VERTEX
  5
610B
  8
0
 10
106.96631776191759
 20
201.09622783504861
 30
0.0
  0
VERTEX
  5
610C
  8
0
 10
106.9713905726486
 20
201.12434648795681
 30
0.0
  0
VERTEX
  5
610D
  8
0
 10
106.9760907991526
 20
201.15014229957939
 30
0.0
  0
VERTEX
  5
610E
  8
0
 10
106.9804005487504
 20
201.17358363156271
 30
0.0
  0
VERTEX
  5
610F
  8
0
 10
106.9824040572769
 20
201.18441365309781
 30
0.0
  0
VERTEX
  5
6110
  8
0
 10
106.9843043390931
 20
201.1946468358916
 30
0.0
  0
VERTEX
  5
6111
  8
0
 10
106.9877892712787
 20
201.2133166699974
 30
0.0
  0
VERTEX
  5
6112
  8
0
 10
106.9908451561306
 20
201.22958654775081
 30
0.0
  0
VERTEX
  5
6113
  8
0
 10
106.99346456989019
 20
201.24345851460711
 30
0.0
  0
VERTEX
  5
6114
  8
0
 10
106.9956427943809
 20
201.25494272263441
 30
0.0
  0
VERTEX
  5
6115
  8
0
 10
106.9973778644575
 20
201.26405758398249
 30
0.0
  0
VERTEX
  5
6116
  8
0
 10
106.9980793827213
 20
201.26773466401639
 30
0.0
  0
VERTEX
  5
6117
  8
0
 10
106.9986706754474
 20
201.27083033363411
 30
0.0
  0
VERTEX
  5
6118
  8
0
 10
106.9995250393455
 20
201.2752974163711
 30
0.0
  0
VERTEX
  5
6119
  8
0
 10
106.9999476845806
 20
201.2775046783552
 30
0.0
  0
VERTEX
  5
611A
  8
0
 10
107.0
 20
201.27777777777629
 30
0.0
  0
SEQEND
  5
611B
  8
0
  0
LINE
  5
5793
  8
0
 10
50.879566289813063
 20
217.51037695893581
 30
0.0
 11
50.142103187952898
 21
217.51037695893581
 31
0.0
  0
LINE
  5
5794
  8
0
 10
50.879566289813063
 20
207.51037695893581
 30
0.0
 11
50.142103187952898
 21
207.51037695893581
 31
0.0
  0
LINE
  5
5795
  8
0
 10
50.079050640359867
 20
217.51037695893581
 30
0.0
 11
50.0
 21
217.51037695893581
 31
0.0
  0
LINE
  5
5796
  8
0
 10
52.527353946186047
 20
217.51037695893581
 30
0.0
 11
51.067440364551601
 21
217.51037695893581
 31
0.0
  0
LINE
  5
5797
  8
0
 10
54.988869404622392
 20
217.51037695893581
 30
0.0
 11
52.836224973692651
 21
217.51037695893581
 31
0.0
  0
LINE
  5
5798
  8
0
 10
58.214003308812657
 20
217.51037695893581
 30
0.0
 11
55.412449661487422
 21
217.51037695893581
 31
0.0
  0
LINE
  5
5799
  8
0
 10
62.137101232985742
 20
217.51037695893581
 30
0.0
 11
58.743669922510939
 21
217.51037695893581
 31
0.0
  0
LINE
  5
579A
  8
0
 10
66.678300216685614
 20
217.51037695893581
 30
0.0
 11
62.762071718694813
 21
217.51037695893581
 31
0.0
  0
LINE
  5
579B
  8
0
 10
71.745154544340664
 20
217.51037695893581
 30
0.0
 11
67.385851977582433
 21
217.51037695893581
 31
0.0
  0
LINE
  5
579C
  8
0
 10
77.234517673441076
 20
217.51037695893581
 30
0.0
 11
72.520883866984207
 21
217.51037695893581
 31
0.0
  0
LINE
  5
579D
  8
0
 10
83.034642000694475
 20
217.51037695893581
 30
0.0
 11
78.062632945840903
 21
217.51037695893581
 31
0.0
  0
LINE
  5
579E
  8
0
 10
89.027453720975245
 20
217.51037695893581
 30
0.0
 11
83.898285183991788
 21
217.51037695893581
 31
0.0
  0
LINE
  5
579F
  8
0
 10
95.090956469500441
 20
217.51037695893581
 30
0.0
 11
89.909043530499389
 21
217.51037695893581
 31
0.0
  0
LINE
  5
57A0
  8
0
 10
101.101714816008
 20
217.51037695893581
 30
0.0
 11
95.972546279024584
 21
217.51037695893581
 31
0.0
  0
LINE
  5
57A1
  8
0
 10
106.9373670541589
 20
217.51037695893581
 30
0.0
 11
101.9653579993054
 21
217.51037695893581
 31
0.0
  0
LINE
  5
57A2
  8
0
 10
112.47911613301569
 20
217.51037695893581
 30
0.0
 11
107.7654823265587
 21
217.51037695893581
 31
0.0
  0
LINE
  5
57A3
  8
0
 10
117.6141480224174
 20
217.51037695893581
 30
0.0
 11
113.25484545565909
 21
217.51037695893581
 31
0.0
  0
LINE
  5
57A4
  8
0
 10
122.2379282813052
 20
217.51037695893581
 30
0.0
 11
118.3216997833142
 21
217.51037695893581
 31
0.0
  0
LINE
  5
57A5
  8
0
 10
126.2563300774889
 20
217.51037695893581
 30
0.0
 11
122.8628987670142
 21
217.51037695893581
 31
0.0
  0
LINE
  5
57A6
  8
0
 10
129.58755033851261
 20
217.51037695893581
 30
0.0
 11
126.78599669118719
 21
217.51037695893581
 31
0.0
  0
LINE
  5
57A7
  8
0
 10
132.16377502630729
 20
217.51037695893581
 30
0.0
 11
130.01113059537749
 21
217.51037695893581
 31
0.0
  0
LINE
  5
57A8
  8
0
 10
133.9325596354484
 20
217.51037695893581
 30
0.0
 11
132.47264605381389
 21
217.51037695893581
 31
0.0
  0
LINE
  5
57A9
  8
0
 10
134.8578968120471
 20
217.51037695893581
 30
0.0
 11
134.120433710187
 21
217.51037695893581
 31
0.0
  0
LINE
  5
57AA
  8
0
 10
135.0
 20
217.51037695893581
 30
0.0
 11
134.9209493596401
 21
217.51037695893581
 31
0.0
  0
LINE
  5
57AB
  8
0
 10
50.142103187952898
 20
213.48962304106129
 30
0.0
 11
50.879566289813063
 21
213.48962304106129
 31
0.0
  0
LINE
  5
57AC
  8
0
 10
51.067440364551601
 20
213.48962304106129
 30
0.0
 11
52.527353946186047
 21
213.48962304106129
 31
0.0
  0
LINE
  5
57AD
  8
0
 10
52.836224973692651
 20
213.48962304106129
 30
0.0
 11
54.988869404622392
 21
213.48962304106129
 31
0.0
  0
LINE
  5
57AE
  8
0
 10
55.412449661487422
 20
213.48962304106129
 30
0.0
 11
58.214003308812657
 21
213.48962304106129
 31
0.0
  0
LINE
  5
57AF
  8
0
 10
58.743669922510939
 20
213.48962304106129
 30
0.0
 11
62.137101232985742
 21
213.48962304106129
 31
0.0
  0
LINE
  5
57B0
  8
0
 10
62.762071718694813
 20
213.48962304106129
 30
0.0
 11
66.678300216685614
 21
213.48962304106129
 31
0.0
  0
LINE
  5
57B1
  8
0
 10
67.385851977582433
 20
213.48962304106129
 30
0.0
 11
71.745154544340664
 21
213.48962304106129
 31
0.0
  0
LINE
  5
57B2
  8
0
 10
72.520883866984207
 20
213.48962304106129
 30
0.0
 11
77.234517673441076
 21
213.48962304106129
 31
0.0
  0
LINE
  5
57B3
  8
0
 10
78.062632945840903
 20
213.48962304106129
 30
0.0
 11
83.034642000694475
 21
213.48962304106129
 31
0.0
  0
LINE
  5
57B4
  8
0
 10
83.898285183991788
 20
213.48962304106129
 30
0.0
 11
89.027453720975245
 21
213.48962304106129
 31
0.0
  0
LINE
  5
57B5
  8
0
 10
89.909043530499389
 20
213.48962304106129
 30
0.0
 11
95.090956469500441
 21
213.48962304106129
 31
0.0
  0
LINE
  5
57B6
  8
0
 10
95.972546279024584
 20
213.48962304106129
 30
0.0
 11
101.101714816008
 21
213.48962304106129
 31
0.0
  0
LINE
  5
57B7
  8
0
 10
101.9653579993054
 20
213.48962304106129
 30
0.0
 11
106.9373670541589
 21
213.48962304106129
 31
0.0
  0
LINE
  5
57B8
  8
0
 10
107.7654823265587
 20
213.48962304106129
 30
0.0
 11
112.47911613301569
 21
213.48962304106129
 31
0.0
  0
LINE
  5
57B9
  8
0
 10
113.25484545565909
 20
213.48962304106129
 30
0.0
 11
117.6141480224174
 21
213.48962304106129
 31
0.0
  0
LINE
  5
57BA
  8
0
 10
118.3216997833142
 20
213.48962304106129
 30
0.0
 11
122.2379282813051
 21
213.48962304106129
 31
0.0
  0
LINE
  5
57BB
  8
0
 10
122.8628987670141
 20
213.48962304106129
 30
0.0
 11
126.2563300774889
 21
213.48962304106129
 31
0.0
  0
LINE
  5
57BC
  8
0
 10
126.78599669118719
 20
213.48962304106129
 30
0.0
 11
129.5875503385125
 21
213.48962304106129
 31
0.0
  0
LINE
  5
57BD
  8
0
 10
130.01113059537749
 20
213.48962304106129
 30
0.0
 11
132.16377502630729
 21
213.48962304106129
 31
0.0
  0
LINE
  5
57BE
  8
0
 10
132.47264605381389
 20
213.48962304106129
 30
0.0
 11
133.93255963544831
 21
213.48962304106129
 31
0.0
  0
LINE
  5
57BF
  8
0
 10
134.12043371018689
 20
213.48962304106129
 30
0.0
 11
134.8578968120471
 21
213.48962304106129
 31
0.0
  0
LINE
  5
57C0
  8
0
 10
134.9209493596401
 20
213.48962304106129
 30
0.0
 11
135.0
 21
213.48962304106129
 31
0.0
  0
LINE
  5
57C1
  8
0
 10
50.0
 20
213.48962304106129
 30
0.0
 11
50.079050640359867
 21
213.48962304106129
 31
0.0
  0
LINE
  5
57C2
  8
0
 10
51.050000000000011
 20
212.99999999999861
 30
0.0
 11
133.94999999999999
 21
212.99999999999849
 31
0.0
  0
LINE
  5
57C3
  8
0
 10
51.050000000000011
 20
217.99999999999849
 30
0.0
 11
133.94999999999999
 21
217.99999999999849
 31
0.0
  0
LINE
  5
57C4
  8
0
 10
50.142103187952898
 20
221.3999999999985
 30
0.0
 11
50.879566289813063
 21
221.3999999999985
 31
0.0
  0
LINE
  5
57C5
  8
0
 10
50.142103187952898
 20
218.48962304106129
 30
0.0
 11
50.879566289813063
 21
218.48962304106129
 31
0.0
  0
LINE
  5
57C6
  8
0
 10
50.0
 20
218.48962304106129
 30
0.0
 11
50.079050640359867
 21
218.48962304106129
 31
0.0
  0
LINE
  5
57C7
  8
0
 10
50.0
 20
221.3999999999985
 30
0.0
 11
50.079050640359867
 21
221.3999999999985
 31
0.0
  0
LINE
  5
57C8
  8
0
 10
51.067440364551601
 20
221.3999999999985
 30
0.0
 11
52.527353946186047
 21
221.3999999999985
 31
0.0
  0
LINE
  5
57C9
  8
0
 10
51.067440364551601
 20
218.48962304106129
 30
0.0
 11
52.527353946186047
 21
218.48962304106129
 31
0.0
  0
LINE
  5
57CA
  8
0
 10
52.836224973692651
 20
221.3999999999985
 30
0.0
 11
54.988869404622392
 21
221.3999999999985
 31
0.0
  0
LINE
  5
57CB
  8
0
 10
52.836224973692651
 20
218.48962304106129
 30
0.0
 11
54.988869404622392
 21
218.48962304106129
 31
0.0
  0
LINE
  5
57CC
  8
0
 10
55.412449661487422
 20
221.3999999999985
 30
0.0
 11
58.214003308812657
 21
221.3999999999985
 31
0.0
  0
LINE
  5
57CD
  8
0
 10
55.412449661487422
 20
218.48962304106129
 30
0.0
 11
58.214003308812657
 21
218.48962304106129
 31
0.0
  0
LINE
  5
57CE
  8
0
 10
58.743669922510939
 20
221.3999999999985
 30
0.0
 11
62.137101232985742
 21
221.3999999999985
 31
0.0
  0
LINE
  5
57CF
  8
0
 10
58.743669922510939
 20
218.48962304106129
 30
0.0
 11
62.137101232985742
 21
218.48962304106129
 31
0.0
  0
LINE
  5
57D0
  8
0
 10
62.762071718694813
 20
221.3999999999985
 30
0.0
 11
66.678300216685614
 21
221.3999999999985
 31
0.0
  0
LINE
  5
57D1
  8
0
 10
62.762071718694813
 20
218.48962304106129
 30
0.0
 11
66.678300216685614
 21
218.48962304106129
 31
0.0
  0
LINE
  5
57D2
  8
0
 10
67.385851977582433
 20
221.3999999999985
 30
0.0
 11
71.745154544340664
 21
221.3999999999985
 31
0.0
  0
LINE
  5
57D3
  8
0
 10
67.385851977582433
 20
218.48962304106129
 30
0.0
 11
71.745154544340664
 21
218.48962304106129
 31
0.0
  0
LINE
  5
57D4
  8
0
 10
72.52088386698415
 20
221.3999999999985
 30
0.0
 11
77.234517673441076
 21
221.3999999999985
 31
0.0
  0
LINE
  5
57D5
  8
0
 10
72.520883866984207
 20
218.48962304106129
 30
0.0
 11
77.234517673441076
 21
218.48962304106129
 31
0.0
  0
LINE
  5
57D6
  8
0
 10
78.062632945840903
 20
221.3999999999985
 30
0.0
 11
83.034642000694475
 21
221.3999999999985
 31
0.0
  0
LINE
  5
57D7
  8
0
 10
78.062632945840903
 20
218.48962304106129
 30
0.0
 11
83.034642000694475
 21
218.48962304106129
 31
0.0
  0
LINE
  5
57D8
  8
0
 10
83.898285183991732
 20
221.3999999999985
 30
0.0
 11
89.027453720975245
 21
221.3999999999985
 31
0.0
  0
LINE
  5
57D9
  8
0
 10
83.898285183991788
 20
218.48962304106129
 30
0.0
 11
89.027453720975245
 21
218.48962304106129
 31
0.0
  0
LINE
  5
57DA
  8
0
 10
89.909043530499389
 20
221.3999999999985
 30
0.0
 11
95.090956469500441
 21
221.3999999999985
 31
0.0
  0
LINE
  5
57DB
  8
0
 10
89.909043530499389
 20
218.48962304106129
 30
0.0
 11
95.090956469500441
 21
218.48962304106129
 31
0.0
  0
LINE
  5
57DC
  8
0
 10
95.972546279024584
 20
221.3999999999985
 30
0.0
 11
101.101714816008
 21
221.3999999999985
 31
0.0
  0
LINE
  5
57DD
  8
0
 10
95.972546279024584
 20
218.48962304106129
 30
0.0
 11
101.101714816008
 21
218.48962304106129
 31
0.0
  0
LINE
  5
57DE
  8
0
 10
101.9653579993053
 20
221.3999999999985
 30
0.0
 11
106.9373670541589
 21
221.3999999999985
 31
0.0
  0
LINE
  5
57DF
  8
0
 10
101.9653579993054
 20
218.48962304106129
 30
0.0
 11
106.9373670541589
 21
218.48962304106129
 31
0.0
  0
LINE
  5
57E0
  8
0
 10
107.7654823265587
 20
221.3999999999985
 30
0.0
 11
112.47911613301569
 21
221.3999999999985
 31
0.0
  0
LINE
  5
57E1
  8
0
 10
107.7654823265587
 20
218.48962304106129
 30
0.0
 11
112.47911613301569
 21
218.48962304106129
 31
0.0
  0
LINE
  5
57E2
  8
0
 10
113.25484545565909
 20
221.3999999999985
 30
0.0
 11
117.6141480224174
 21
221.3999999999985
 31
0.0
  0
LINE
  5
57E3
  8
0
 10
113.25484545565909
 20
218.48962304106129
 30
0.0
 11
117.6141480224174
 21
218.48962304106129
 31
0.0
  0
LINE
  5
57E4
  8
0
 10
118.3216997833142
 20
221.3999999999985
 30
0.0
 11
122.2379282813051
 21
221.3999999999985
 31
0.0
  0
LINE
  5
57E5
  8
0
 10
118.3216997833142
 20
218.48962304106129
 30
0.0
 11
122.2379282813052
 21
218.48962304106129
 31
0.0
  0
LINE
  5
57E6
  8
0
 10
122.8628987670142
 20
221.3999999999985
 30
0.0
 11
126.2563300774889
 21
221.3999999999985
 31
0.0
  0
LINE
  5
57E7
  8
0
 10
122.8628987670142
 20
218.48962304106129
 30
0.0
 11
126.2563300774889
 21
218.48962304106129
 31
0.0
  0
LINE
  5
57E8
  8
0
 10
126.78599669118719
 20
221.3999999999985
 30
0.0
 11
129.58755033851261
 21
221.3999999999985
 31
0.0
  0
LINE
  5
57E9
  8
0
 10
126.78599669118719
 20
218.48962304106129
 30
0.0
 11
129.58755033851261
 21
218.48962304106129
 31
0.0
  0
LINE
  5
57EA
  8
0
 10
130.01113059537749
 20
221.3999999999985
 30
0.0
 11
132.16377502630729
 21
221.3999999999985
 31
0.0
  0
LINE
  5
57EB
  8
0
 10
130.01113059537749
 20
218.48962304106129
 30
0.0
 11
132.16377502630729
 21
218.48962304106129
 31
0.0
  0
LINE
  5
57EC
  8
0
 10
132.47264605381389
 20
221.3999999999985
 30
0.0
 11
133.9325596354484
 21
221.3999999999985
 31
0.0
  0
LINE
  5
57ED
  8
0
 10
132.47264605381389
 20
218.48962304106129
 30
0.0
 11
133.9325596354484
 21
218.48962304106129
 31
0.0
  0
LINE
  5
57EE
  8
0
 10
134.120433710187
 20
221.3999999999985
 30
0.0
 11
134.8578968120471
 21
221.3999999999985
 31
0.0
  0
LINE
  5
57EF
  8
0
 10
134.120433710187
 20
218.48962304106129
 30
0.0
 11
134.8578968120471
 21
218.48962304106129
 31
0.0
  0
LINE
  5
57F0
  8
0
 10
134.9209493596401
 20
221.3999999999985
 30
0.0
 11
135.0
 21
221.3999999999985
 31
0.0
  0
LINE
  5
57F1
  8
0
 10
134.9209493596401
 20
218.48962304106129
 30
0.0
 11
135.0
 21
218.48962304106129
 31
0.0
  0
LINE
  5
57F2
  8
0
 10
50.079050640359867
 20
207.51037695893581
 30
0.0
 11
50.0
 21
207.51037695893581
 31
0.0
  0
LINE
  5
57F3
  8
0
 10
52.527353946186047
 20
207.51037695893581
 30
0.0
 11
51.067440364551601
 21
207.51037695893581
 31
0.0
  0
LINE
  5
57F4
  8
0
 10
54.988869404622392
 20
207.51037695893581
 30
0.0
 11
52.836224973692651
 21
207.51037695893581
 31
0.0
  0
LINE
  5
57F5
  8
0
 10
58.214003308812657
 20
207.51037695893581
 30
0.0
 11
55.412449661487422
 21
207.51037695893581
 31
0.0
  0
LINE
  5
57F6
  8
0
 10
62.137101232985742
 20
207.51037695893581
 30
0.0
 11
58.743669922510939
 21
207.51037695893581
 31
0.0
  0
LINE
  5
57F7
  8
0
 10
66.678300216685614
 20
207.51037695893581
 30
0.0
 11
62.762071718694813
 21
207.51037695893581
 31
0.0
  0
LINE
  5
57F8
  8
0
 10
71.745154544340664
 20
207.51037695893569
 30
0.0
 11
67.385851977582433
 21
207.51037695893581
 31
0.0
  0
LINE
  5
57F9
  8
0
 10
77.234517673441076
 20
207.51037695893569
 30
0.0
 11
72.520883866984207
 21
207.51037695893569
 31
0.0
  0
LINE
  5
57FA
  8
0
 10
83.034642000694475
 20
207.51037695893569
 30
0.0
 11
78.062632945840903
 21
207.51037695893569
 31
0.0
  0
LINE
  5
57FB
  8
0
 10
89.027453720975245
 20
207.51037695893569
 30
0.0
 11
83.898285183991788
 21
207.51037695893569
 31
0.0
  0
LINE
  5
57FC
  8
0
 10
95.090956469500441
 20
207.51037695893569
 30
0.0
 11
89.909043530499389
 21
207.51037695893569
 31
0.0
  0
LINE
  5
57FD
  8
0
 10
101.101714816008
 20
207.51037695893569
 30
0.0
 11
95.972546279024584
 21
207.51037695893569
 31
0.0
  0
LINE
  5
57FE
  8
0
 10
106.9373670541589
 20
207.51037695893569
 30
0.0
 11
101.9653579993054
 21
207.51037695893569
 31
0.0
  0
LINE
  5
57FF
  8
0
 10
112.47911613301569
 20
207.51037695893569
 30
0.0
 11
107.7654823265587
 21
207.51037695893569
 31
0.0
  0
LINE
  5
5800
  8
0
 10
117.6141480224174
 20
207.51037695893569
 30
0.0
 11
113.25484545565909
 21
207.51037695893569
 31
0.0
  0
LINE
  5
5801
  8
0
 10
122.2379282813051
 20
207.51037695893569
 30
0.0
 11
118.3216997833142
 21
207.51037695893569
 31
0.0
  0
LINE
  5
5802
  8
0
 10
126.2563300774889
 20
207.51037695893569
 30
0.0
 11
122.8628987670141
 21
207.51037695893569
 31
0.0
  0
LINE
  5
5803
  8
0
 10
129.5875503385125
 20
207.51037695893569
 30
0.0
 11
126.78599669118719
 21
207.51037695893569
 31
0.0
  0
LINE
  5
5804
  8
0
 10
132.16377502630729
 20
207.51037695893569
 30
0.0
 11
130.01113059537749
 21
207.51037695893569
 31
0.0
  0
LINE
  5
5805
  8
0
 10
133.93255963544831
 20
207.51037695893569
 30
0.0
 11
132.47264605381389
 21
207.51037695893569
 31
0.0
  0
LINE
  5
5806
  8
0
 10
134.8578968120471
 20
207.51037695893569
 30
0.0
 11
134.12043371018689
 21
207.51037695893569
 31
0.0
  0
LINE
  5
5807
  8
0
 10
135.0
 20
207.51037695893569
 30
0.0
 11
134.9209493596401
 21
207.51037695893569
 31
0.0
  0
LINE
  5
5808
  8
0
 10
50.142103187952898
 20
204.5999999999986
 30
0.0
 11
50.879566289813063
 21
204.5999999999986
 31
0.0
  0
LINE
  5
5809
  8
0
 10
51.067440364551601
 20
204.5999999999986
 30
0.0
 11
52.527353946186047
 21
204.5999999999986
 31
0.0
  0
LINE
  5
580A
  8
0
 10
52.836224973692651
 20
204.5999999999986
 30
0.0
 11
54.988869404622392
 21
204.5999999999986
 31
0.0
  0
LINE
  5
580B
  8
0
 10
55.412449661487422
 20
204.5999999999986
 30
0.0
 11
58.214003308812657
 21
204.5999999999986
 31
0.0
  0
LINE
  5
580C
  8
0
 10
58.743669922510939
 20
204.5999999999986
 30
0.0
 11
62.137101232985742
 21
204.5999999999986
 31
0.0
  0
LINE
  5
580D
  8
0
 10
62.762071718694813
 20
204.5999999999986
 30
0.0
 11
66.678300216685614
 21
204.5999999999986
 31
0.0
  0
LINE
  5
580E
  8
0
 10
67.385851977582433
 20
204.5999999999986
 30
0.0
 11
71.745154544340664
 21
204.5999999999986
 31
0.0
  0
LINE
  5
580F
  8
0
 10
72.52088386698415
 20
204.5999999999986
 30
0.0
 11
77.234517673441076
 21
204.5999999999986
 31
0.0
  0
LINE
  5
5810
  8
0
 10
78.062632945840903
 20
204.5999999999986
 30
0.0
 11
83.034642000694475
 21
204.5999999999986
 31
0.0
  0
LINE
  5
5811
  8
0
 10
83.898285183991732
 20
204.5999999999986
 30
0.0
 11
89.027453720975245
 21
204.5999999999986
 31
0.0
  0
LINE
  5
5812
  8
0
 10
89.909043530499389
 20
204.5999999999986
 30
0.0
 11
95.090956469500441
 21
204.5999999999986
 31
0.0
  0
LINE
  5
5813
  8
0
 10
95.972546279024584
 20
204.5999999999986
 30
0.0
 11
101.101714816008
 21
204.5999999999986
 31
0.0
  0
LINE
  5
5814
  8
0
 10
101.9653579993053
 20
204.5999999999986
 30
0.0
 11
106.9373670541589
 21
204.5999999999986
 31
0.0
  0
LINE
  5
5815
  8
0
 10
107.7654823265587
 20
204.5999999999986
 30
0.0
 11
112.47911613301569
 21
204.5999999999986
 31
0.0
  0
LINE
  5
5816
  8
0
 10
113.25484545565909
 20
204.5999999999986
 30
0.0
 11
117.6141480224174
 21
204.5999999999986
 31
0.0
  0
LINE
  5
5817
  8
0
 10
118.3216997833142
 20
204.5999999999986
 30
0.0
 11
122.2379282813051
 21
204.5999999999986
 31
0.0
  0
LINE
  5
5818
  8
0
 10
122.8628987670141
 20
204.5999999999986
 30
0.0
 11
126.2563300774889
 21
204.5999999999986
 31
0.0
  0
LINE
  5
5819
  8
0
 10
126.78599669118719
 20
204.5999999999986
 30
0.0
 11
129.5875503385125
 21
204.5999999999986
 31
0.0
  0
LINE
  5
581A
  8
0
 10
130.01113059537749
 20
204.5999999999986
 30
0.0
 11
132.16377502630729
 21
204.5999999999986
 31
0.0
  0
LINE
  5
581B
  8
0
 10
132.47264605381389
 20
204.5999999999986
 30
0.0
 11
133.93255963544831
 21
204.5999999999986
 31
0.0
  0
LINE
  5
581C
  8
0
 10
134.12043371018689
 20
204.5999999999986
 30
0.0
 11
134.8578968120471
 21
204.5999999999986
 31
0.0
  0
LINE
  5
581D
  8
0
 10
134.9209493596401
 20
204.5999999999986
 30
0.0
 11
135.0
 21
204.5999999999986
 31
0.0
  0
LINE
  5
581E
  8
0
 10
50.0
 20
204.5999999999986
 30
0.0
 11
50.079050640359867
 21
204.5999999999986
 31
0.0
  0
LINE
  5
581F
  8
0
 10
51.0
 20
203.99999999999849
 30
0.0
 11
134.0
 21
203.99999999999849
 31
0.0
  0
LINE
  5
5820
  8
0
 10
51.050000000000011
 20
207.99999999999849
 30
0.0
 11
133.94999999999999
 21
207.99999999999849
 31
0.0
  0
LINE
  5
5821
  8
0
 10
50.879566289813063
 20
212.51037695893581
 30
0.0
 11
50.142103187952898
 21
212.51037695893581
 31
0.0
  0
LINE
  5
5822
  8
0
 10
50.142103187952898
 20
208.48962304106129
 30
0.0
 11
50.879566289813063
 21
208.48962304106129
 31
0.0
  0
LINE
  5
5823
  8
0
 10
50.0
 20
208.48962304106129
 30
0.0
 11
50.079050640359867
 21
208.48962304106129
 31
0.0
  0
LINE
  5
5824
  8
0
 10
50.079050640359867
 20
212.51037695893581
 30
0.0
 11
50.0
 21
212.51037695893581
 31
0.0
  0
LINE
  5
5825
  8
0
 10
52.527353946186047
 20
212.51037695893581
 30
0.0
 11
51.067440364551601
 21
212.51037695893581
 31
0.0
  0
LINE
  5
5826
  8
0
 10
51.067440364551601
 20
208.48962304106129
 30
0.0
 11
52.527353946186047
 21
208.48962304106129
 31
0.0
  0
LINE
  5
5827
  8
0
 10
54.988869404622392
 20
212.51037695893581
 30
0.0
 11
52.836224973692651
 21
212.51037695893581
 31
0.0
  0
LINE
  5
5828
  8
0
 10
52.836224973692651
 20
208.48962304106129
 30
0.0
 11
54.988869404622392
 21
208.48962304106129
 31
0.0
  0
LINE
  5
5829
  8
0
 10
58.214003308812657
 20
212.51037695893581
 30
0.0
 11
55.412449661487422
 21
212.51037695893581
 31
0.0
  0
LINE
  5
582A
  8
0
 10
55.412449661487422
 20
208.48962304106129
 30
0.0
 11
58.214003308812657
 21
208.48962304106129
 31
0.0
  0
LINE
  5
582B
  8
0
 10
62.137101232985742
 20
212.51037695893581
 30
0.0
 11
58.743669922510939
 21
212.51037695893581
 31
0.0
  0
LINE
  5
582C
  8
0
 10
58.743669922510939
 20
208.48962304106129
 30
0.0
 11
62.137101232985742
 21
208.48962304106129
 31
0.0
  0
LINE
  5
582D
  8
0
 10
66.678300216685614
 20
212.51037695893581
 30
0.0
 11
62.762071718694813
 21
212.51037695893581
 31
0.0
  0
LINE
  5
582E
  8
0
 10
62.762071718694813
 20
208.48962304106129
 30
0.0
 11
66.678300216685614
 21
208.48962304106129
 31
0.0
  0
LINE
  5
582F
  8
0
 10
71.745154544340664
 20
212.51037695893581
 30
0.0
 11
67.385851977582433
 21
212.51037695893581
 31
0.0
  0
LINE
  5
5830
  8
0
 10
67.385851977582433
 20
208.48962304106129
 30
0.0
 11
71.745154544340664
 21
208.48962304106129
 31
0.0
  0
LINE
  5
5831
  8
0
 10
77.234517673441076
 20
212.51037695893581
 30
0.0
 11
72.520883866984207
 21
212.51037695893581
 31
0.0
  0
LINE
  5
5832
  8
0
 10
72.520883866984207
 20
208.48962304106129
 30
0.0
 11
77.234517673441076
 21
208.48962304106129
 31
0.0
  0
LINE
  5
5833
  8
0
 10
83.034642000694475
 20
212.51037695893581
 30
0.0
 11
78.062632945840903
 21
212.51037695893581
 31
0.0
  0
LINE
  5
5834
  8
0
 10
78.062632945840903
 20
208.48962304106129
 30
0.0
 11
83.034642000694475
 21
208.48962304106129
 31
0.0
  0
LINE
  5
5835
  8
0
 10
89.027453720975245
 20
212.51037695893581
 30
0.0
 11
83.898285183991788
 21
212.51037695893581
 31
0.0
  0
LINE
  5
5836
  8
0
 10
83.898285183991788
 20
208.48962304106129
 30
0.0
 11
89.027453720975245
 21
208.48962304106129
 31
0.0
  0
LINE
  5
5837
  8
0
 10
95.090956469500441
 20
212.51037695893581
 30
0.0
 11
89.909043530499389
 21
212.51037695893581
 31
0.0
  0
LINE
  5
5838
  8
0
 10
89.909043530499389
 20
208.48962304106129
 30
0.0
 11
95.090956469500441
 21
208.48962304106129
 31
0.0
  0
LINE
  5
5839
  8
0
 10
101.101714816008
 20
212.51037695893581
 30
0.0
 11
95.972546279024584
 21
212.51037695893581
 31
0.0
  0
LINE
  5
583A
  8
0
 10
95.972546279024584
 20
208.48962304106129
 30
0.0
 11
101.101714816008
 21
208.48962304106129
 31
0.0
  0
LINE
  5
583B
  8
0
 10
106.9373670541589
 20
212.51037695893581
 30
0.0
 11
101.9653579993054
 21
212.51037695893581
 31
0.0
  0
LINE
  5
583C
  8
0
 10
101.9653579993054
 20
208.48962304106129
 30
0.0
 11
106.9373670541589
 21
208.48962304106129
 31
0.0
  0
LINE
  5
583D
  8
0
 10
112.47911613301569
 20
212.51037695893581
 30
0.0
 11
107.7654823265587
 21
212.51037695893581
 31
0.0
  0
LINE
  5
583E
  8
0
 10
107.7654823265587
 20
208.48962304106129
 30
0.0
 11
112.47911613301569
 21
208.48962304106129
 31
0.0
  0
LINE
  5
583F
  8
0
 10
117.6141480224174
 20
212.51037695893581
 30
0.0
 11
113.25484545565909
 21
212.51037695893581
 31
0.0
  0
LINE
  5
5840
  8
0
 10
113.25484545565909
 20
208.48962304106129
 30
0.0
 11
117.6141480224174
 21
208.48962304106129
 31
0.0
  0
LINE
  5
5841
  8
0
 10
122.2379282813051
 20
212.51037695893581
 30
0.0
 11
118.3216997833142
 21
212.51037695893581
 31
0.0
  0
LINE
  5
5842
  8
0
 10
118.3216997833142
 20
208.48962304106129
 30
0.0
 11
122.2379282813051
 21
208.48962304106129
 31
0.0
  0
LINE
  5
5843
  8
0
 10
126.2563300774889
 20
212.51037695893581
 30
0.0
 11
122.8628987670141
 21
212.51037695893581
 31
0.0
  0
LINE
  5
5844
  8
0
 10
122.8628987670141
 20
208.48962304106129
 30
0.0
 11
126.2563300774889
 21
208.48962304106129
 31
0.0
  0
LINE
  5
5845
  8
0
 10
129.5875503385125
 20
212.51037695893581
 30
0.0
 11
126.78599669118719
 21
212.51037695893581
 31
0.0
  0
LINE
  5
5846
  8
0
 10
126.78599669118719
 20
208.48962304106129
 30
0.0
 11
129.5875503385125
 21
208.48962304106129
 31
0.0
  0
LINE
  5
5847
  8
0
 10
132.16377502630729
 20
212.51037695893581
 30
0.0
 11
130.01113059537749
 21
212.51037695893581
 31
0.0
  0
LINE
  5
5848
  8
0
 10
130.01113059537749
 20
208.48962304106129
 30
0.0
 11
132.16377502630729
 21
208.48962304106129
 31
0.0
  0
LINE
  5
5849
  8
0
 10
133.93255963544831
 20
212.51037695893581
 30
0.0
 11
132.47264605381389
 21
212.51037695893581
 31
0.0
  0
LINE
  5
584A
  8
0
 10
132.47264605381389
 20
208.48962304106129
 30
0.0
 11
133.93255963544831
 21
208.48962304106129
 31
0.0
  0
LINE
  5
584B
  8
0
 10
134.8578968120471
 20
212.51037695893581
 30
0.0
 11
134.12043371018689
 21
212.51037695893581
 31
0.0
  0
LINE
  5
584C
  8
0
 10
134.12043371018689
 20
208.48962304106129
 30
0.0
 11
134.8578968120471
 21
208.48962304106129
 31
0.0
  0
LINE
  5
584D
  8
0
 10
135.0
 20
212.51037695893581
 30
0.0
 11
134.9209493596401
 21
212.51037695893581
 31
0.0
  0
LINE
  5
584E
  8
0
 10
134.9209493596401
 20
208.48962304106129
 30
0.0
 11
135.0
 21
208.48962304106129
 31
0.0
  0
LINE
  5
584F
  8
0
 10
133.94413536205599
 20
208.046630765814
 30
0.0
 11
134.8578968120471
 21
208.48962304106129
 31
0.0
  0
LINE
  5
5850
  8
0
 10
134.8578968120471
 20
208.48962304106129
 30
0.0
 11
134.8578968120471
 21
212.51037695893581
 31
0.0
  0
LINE
  5
5851
  8
0
 10
134.8578968120471
 20
212.51037695893581
 30
0.0
 11
133.94413536205599
 21
212.95336923418299
 31
0.0
  0
LINE
  5
5852
  8
0
 10
133.10045228110161
 20
208.046630765814
 30
0.0
 11
133.93255963544831
 21
208.48962304106129
 31
0.0
  0
LINE
  5
5853
  8
0
 10
133.93255963544831
 20
208.48962304106129
 30
0.0
 11
133.93255963544831
 21
212.51037695893581
 31
0.0
  0
LINE
  5
5854
  8
0
 10
133.93255963544831
 20
212.51037695893581
 30
0.0
 11
133.10045228110161
 21
212.95336923418299
 31
0.0
  0
LINE
  5
5855
  8
0
 10
131.43026107374001
 20
208.046630765814
 30
0.0
 11
132.16377502630729
 21
208.48962304106129
 31
0.0
  0
LINE
  5
5856
  8
0
 10
132.16377502630729
 20
208.48962304106129
 30
0.0
 11
132.16377502630729
 21
212.51037695893581
 31
0.0
  0
LINE
  5
5857
  8
0
 10
132.16377502630729
 20
212.51037695893581
 30
0.0
 11
131.43026107374001
 21
212.95336923418299
 31
0.0
  0
LINE
  5
5858
  8
0
 10
128.96756201651939
 20
208.046630765814
 30
0.0
 11
129.5875503385125
 21
208.48962304106129
 31
0.0
  0
LINE
  5
5859
  8
0
 10
129.5875503385125
 20
208.48962304106129
 30
0.0
 11
129.5875503385125
 21
212.51037695893581
 31
0.0
  0
LINE
  5
585A
  8
0
 10
129.5875503385125
 20
212.51037695893581
 30
0.0
 11
128.96756201651939
 21
212.95336923418299
 31
0.0
  0
LINE
  5
585B
  8
0
 10
125.76248856040711
 20
208.046630765814
 30
0.0
 11
126.2563300774889
 21
208.48962304106129
 31
0.0
  0
LINE
  5
585C
  8
0
 10
126.2563300774889
 20
208.48962304106129
 30
0.0
 11
126.2563300774889
 21
212.51037695893581
 31
0.0
  0
LINE
  5
585D
  8
0
 10
126.2563300774889
 20
212.51037695893581
 30
0.0
 11
125.76248856040711
 21
212.95336923418299
 31
0.0
  0
LINE
  5
585E
  8
0
 10
121.880286758301
 20
208.046630765814
 30
0.0
 11
122.2379282813051
 21
208.48962304106129
 31
0.0
  0
LINE
  5
585F
  8
0
 10
122.2379282813051
 20
208.48962304106129
 30
0.0
 11
122.2379282813051
 21
212.51037695893581
 31
0.0
  0
LINE
  5
5860
  8
0
 10
122.2379282813051
 20
212.51037695893581
 30
0.0
 11
121.880286758301
 21
212.95336923418299
 31
0.0
  0
LINE
  5
5861
  8
0
 10
117.3999870435464
 20
208.046630765814
 30
0.0
 11
117.6141480224174
 21
208.48962304106129
 31
0.0
  0
LINE
  5
5862
  8
0
 10
117.6141480224174
 20
208.48962304106129
 30
0.0
 11
117.6141480224174
 21
212.51037695893581
 31
0.0
  0
LINE
  5
5863
  8
0
 10
117.6141480224174
 20
212.51037695893581
 30
0.0
 11
117.3999870435464
 21
212.95336923418299
 31
0.0
  0
LINE
  5
5864
  8
0
 10
112.41279539821829
 20
208.046630765814
 30
0.0
 11
112.47911613301569
 21
208.48962304106129
 31
0.0
  0
LINE
  5
5865
  8
0
 10
112.47911613301569
 20
208.48962304106129
 30
0.0
 11
112.47911613301569
 21
212.51037695893581
 31
0.0
  0
LINE
  5
5866
  8
0
 10
112.47911613301569
 20
212.51037695893581
 30
0.0
 11
112.41279539821829
 21
212.95336923418299
 31
0.0
  0
LINE
  5
5867
  8
0
 10
107.0202366623425
 20
208.046630765814
 30
0.0
 11
106.9373670541589
 21
208.48962304106129
 31
0.0
  0
LINE
  5
5868
  8
0
 10
106.9373670541589
 20
208.48962304106129
 30
0.0
 11
106.9373670541589
 21
212.51037695893581
 31
0.0
  0
LINE
  5
5869
  8
0
 10
106.9373670541589
 20
212.51037695893581
 30
0.0
 11
107.0202366623425
 21
212.95336923418299
 31
0.0
  0
LINE
  5
586A
  8
0
 10
101.3320877809261
 20
208.046630765814
 30
0.0
 11
101.101714816008
 21
208.48962304106129
 31
0.0
  0
LINE
  5
586B
  8
0
 10
101.101714816008
 20
208.48962304106129
 30
0.0
 11
101.101714816008
 21
212.51037695893581
 31
0.0
  0
LINE
  5
586C
  8
0
 10
101.101714816008
 20
212.51037695893581
 30
0.0
 11
101.3320877809261
 21
212.95336923418299
 31
0.0
  0
LINE
  5
586D
  8
0
 10
95.464143061928041
 20
208.046630765814
 30
0.0
 11
95.090956469500441
 21
208.48962304106129
 31
0.0
  0
LINE
  5
586E
  8
0
 10
95.090956469500441
 20
208.48962304106129
 30
0.0
 11
95.090956469500441
 21
212.51037695893581
 31
0.0
  0
LINE
  5
586F
  8
0
 10
95.090956469500441
 20
212.51037695893581
 30
0.0
 11
95.464143061928041
 21
212.95336923418299
 31
0.0
  0
LINE
  5
5870
  8
0
 10
89.535856938071845
 20
208.046630765814
 30
0.0
 11
89.027453720975245
 21
208.48962304106129
 31
0.0
  0
LINE
  5
5871
  8
0
 10
89.027453720975245
 20
208.48962304106129
 30
0.0
 11
89.027453720975245
 21
212.51037695893581
 31
0.0
  0
LINE
  5
5872
  8
0
 10
89.027453720975245
 20
212.51037695893581
 30
0.0
 11
89.535856938071845
 21
212.95336923418299
 31
0.0
  0
LINE
  5
5873
  8
0
 10
83.667912219073756
 20
208.046630765814
 30
0.0
 11
83.034642000694475
 21
208.48962304106129
 31
0.0
  0
LINE
  5
5874
  8
0
 10
83.034642000694475
 20
208.48962304106129
 30
0.0
 11
83.034642000694475
 21
212.51037695893581
 31
0.0
  0
LINE
  5
5875
  8
0
 10
83.034642000694475
 20
212.51037695893581
 30
0.0
 11
83.667912219073756
 21
212.95336923418299
 31
0.0
  0
LINE
  5
5876
  8
0
 10
77.979763337657403
 20
208.046630765814
 30
0.0
 11
77.234517673441076
 21
208.48962304106129
 31
0.0
  0
LINE
  5
5877
  8
0
 10
77.234517673441076
 20
208.48962304106129
 30
0.0
 11
77.234517673441076
 21
212.51037695893581
 31
0.0
  0
LINE
  5
5878
  8
0
 10
77.234517673441076
 20
212.51037695893581
 30
0.0
 11
77.979763337657403
 21
212.95336923418299
 31
0.0
  0
LINE
  5
5879
  8
0
 10
72.587204601781593
 20
208.046630765814
 30
0.0
 11
71.745154544340664
 21
208.48962304106129
 31
0.0
  0
LINE
  5
587A
  8
0
 10
71.745154544340664
 20
208.48962304106129
 30
0.0
 11
71.745154544340664
 21
212.51037695893581
 31
0.0
  0
LINE
  5
587B
  8
0
 10
71.745154544340664
 20
212.51037695893581
 30
0.0
 11
72.587204601781593
 21
212.95336923418299
 31
0.0
  0
LINE
  5
587C
  8
0
 10
67.600012956453483
 20
208.04663076581409
 30
0.0
 11
66.678300216685614
 21
208.48962304106129
 31
0.0
  0
LINE
  5
587D
  8
0
 10
66.678300216685614
 20
208.48962304106129
 30
0.0
 11
66.678300216685614
 21
212.51037695893581
 31
0.0
  0
LINE
  5
587E
  8
0
 10
66.678300216685614
 20
212.51037695893581
 30
0.0
 11
67.600012956453483
 21
212.95336923418299
 31
0.0
  0
LINE
  5
587F
  8
0
 10
63.119713241698882
 20
208.04663076581409
 30
0.0
 11
62.137101232985742
 21
208.48962304106129
 31
0.0
  0
LINE
  5
5880
  8
0
 10
62.137101232985742
 20
208.48962304106129
 30
0.0
 11
62.137101232985742
 21
212.51037695893581
 31
0.0
  0
LINE
  5
5881
  8
0
 10
62.137101232985742
 20
212.51037695893581
 30
0.0
 11
63.119713241698882
 21
212.95336923418299
 31
0.0
  0
LINE
  5
5882
  8
0
 10
59.237511439592822
 20
208.04663076581409
 30
0.0
 11
58.214003308812657
 21
208.48962304106129
 31
0.0
  0
LINE
  5
5883
  8
0
 10
58.214003308812657
 20
208.48962304106129
 30
0.0
 11
58.214003308812657
 21
212.51037695893581
 31
0.0
  0
LINE
  5
5884
  8
0
 10
58.214003308812657
 20
212.51037695893581
 30
0.0
 11
59.237511439592822
 21
212.95336923418299
 31
0.0
  0
LINE
  5
5885
  8
0
 10
56.03243798348052
 20
208.04663076581409
 30
0.0
 11
54.988869404622392
 21
208.48962304106129
 31
0.0
  0
LINE
  5
5886
  8
0
 10
54.988869404622392
 20
208.48962304106129
 30
0.0
 11
54.988869404622392
 21
212.51037695893581
 31
0.0
  0
LINE
  5
5887
  8
0
 10
54.988869404622392
 20
212.51037695893581
 30
0.0
 11
56.03243798348052
 21
212.9533692341831
 31
0.0
  0
LINE
  5
5888
  8
0
 10
53.569738926259902
 20
208.04663076581409
 30
0.0
 11
52.527353946186047
 21
208.48962304106129
 31
0.0
  0
LINE
  5
5889
  8
0
 10
52.527353946186047
 20
208.48962304106129
 30
0.0
 11
52.527353946186047
 21
212.51037695893581
 31
0.0
  0
LINE
  5
588A
  8
0
 10
52.527353946186047
 20
212.51037695893581
 30
0.0
 11
53.569738926259902
 21
212.9533692341831
 31
0.0
  0
LINE
  5
588B
  8
0
 10
51.899547718898361
 20
208.04663076581409
 30
0.0
 11
50.879566289813063
 21
208.48962304106129
 31
0.0
  0
LINE
  5
588C
  8
0
 10
50.879566289813063
 20
208.48962304106129
 30
0.0
 11
50.879566289813063
 21
212.51037695893581
 31
0.0
  0
LINE
  5
588D
  8
0
 10
50.879566289813063
 20
212.51037695893581
 30
0.0
 11
51.899547718898361
 21
212.9533692341831
 31
0.0
  0
LINE
  5
588E
  8
0
 10
51.055864637944012
 20
208.04663076581409
 30
0.0
 11
50.079050640359867
 21
208.48962304106129
 31
0.0
  0
LINE
  5
588F
  8
0
 10
50.079050640359867
 20
208.48962304106129
 30
0.0
 11
50.079050640359867
 21
212.51037695893581
 31
0.0
  0
LINE
  5
5890
  8
0
 10
50.079050640359867
 20
212.51037695893581
 30
0.0
 11
51.055864637944012
 21
212.9533692341831
 31
0.0
  0
LINE
  5
5891
  8
0
 10
134.8578968120471
 20
204.59999999999849
 30
0.0
 11
134.8578968120471
 21
207.51037695893569
 31
0.0
  0
LINE
  5
5892
  8
0
 10
134.8578968120471
 20
207.51037695893569
 30
0.0
 11
133.94413536205599
 21
207.95336923418299
 31
0.0
  0
LINE
  5
5893
  8
0
 10
133.94413536205599
 20
204.02999999999849
 30
0.0
 11
134.8578968120471
 21
204.5999999999986
 31
0.0
  0
LINE
  5
5894
  8
0
 10
133.94413536205599
 20
218.046630765814
 30
0.0
 11
134.8578968120471
 21
218.48962304106129
 31
0.0
  0
LINE
  5
5895
  8
0
 10
134.8578968120471
 20
218.48962304106129
 30
0.0
 11
134.8578968120471
 21
221.3999999999985
 31
0.0
  0
LINE
  5
5896
  8
0
 10
134.8578968120471
 20
221.3999999999985
 30
0.0
 11
133.94413536205599
 21
221.96999999999849
 31
0.0
  0
LINE
  5
5897
  8
0
 10
134.8578968120471
 20
213.48962304106129
 30
0.0
 11
134.8578968120471
 21
217.51037695893581
 31
0.0
  0
LINE
  5
5898
  8
0
 10
134.8578968120471
 20
217.51037695893581
 30
0.0
 11
133.94413536205599
 21
217.95336923418299
 31
0.0
  0
LINE
  5
5899
  8
0
 10
133.94413536205599
 20
213.046630765814
 30
0.0
 11
134.8578968120471
 21
213.48962304106129
 31
0.0
  0
LINE
  5
589A
  8
0
 10
134.9209493596401
 20
212.51037695893581
 30
0.0
 11
134.9209493596401
 21
208.48962304106129
 31
0.0
  0
LINE
  5
589B
  8
0
 10
134.9209493596401
 20
208.48962304106129
 30
0.0
 11
133.94413536205599
 21
208.046630765814
 31
0.0
  0
LINE
  5
589C
  8
0
 10
133.94413536205599
 20
212.95336923418299
 30
0.0
 11
134.9209493596401
 21
212.51037695893581
 31
0.0
  0
LINE
  5
589D
  8
0
 10
133.94413536205599
 20
217.95336923418299
 30
0.0
 11
134.9209493596401
 21
217.51037695893581
 31
0.0
  0
LINE
  5
589E
  8
0
 10
134.9209493596401
 20
217.51037695893581
 30
0.0
 11
134.9209493596401
 21
213.48962304106129
 31
0.0
  0
LINE
  5
589F
  8
0
 10
134.9209493596401
 20
213.48962304106129
 30
0.0
 11
133.94413536205599
 21
213.046630765814
 31
0.0
  0
LINE
  5
58A0
  8
0
 10
134.9209493596401
 20
221.3999999999985
 30
0.0
 11
134.9209493596401
 21
218.48962304106129
 31
0.0
  0
LINE
  5
58A1
  8
0
 10
134.9209493596401
 20
218.48962304106129
 30
0.0
 11
133.94413536205599
 21
218.046630765814
 31
0.0
  0
LINE
  5
58A2
  8
0
 10
133.94413536205599
 20
221.96999999999849
 30
0.0
 11
134.9209493596401
 21
221.3999999999985
 31
0.0
  0
LINE
  5
58A3
  8
0
 10
133.94413536205599
 20
207.95336923418299
 30
0.0
 11
134.9209493596401
 21
207.51037695893569
 31
0.0
  0
LINE
  5
58A4
  8
0
 10
134.9209493596401
 20
207.51037695893569
 30
0.0
 11
134.9209493596401
 21
204.59999999999849
 31
0.0
  0
LINE
  5
58A5
  8
0
 10
134.9209493596401
 20
204.5999999999986
 30
0.0
 11
133.94413536205599
 21
204.02999999999849
 31
0.0
  0
LINE
  5
58A6
  8
0
 10
133.93255963544831
 20
204.59999999999849
 30
0.0
 11
133.93255963544831
 21
207.51037695893569
 31
0.0
  0
LINE
  5
58A7
  8
0
 10
133.93255963544831
 20
207.51037695893569
 30
0.0
 11
133.10045228110161
 21
207.95336923418299
 31
0.0
  0
LINE
  5
58A8
  8
0
 10
133.10045228110161
 20
204.02999999999849
 30
0.0
 11
133.93255963544831
 21
204.5999999999986
 31
0.0
  0
LINE
  5
58A9
  8
0
 10
133.1004522811017
 20
218.046630765814
 30
0.0
 11
133.9325596354484
 21
218.48962304106129
 31
0.0
  0
LINE
  5
58AA
  8
0
 10
133.9325596354484
 20
218.48962304106129
 30
0.0
 11
133.9325596354484
 21
221.3999999999985
 31
0.0
  0
LINE
  5
58AB
  8
0
 10
133.9325596354484
 20
221.3999999999985
 30
0.0
 11
133.1004522811017
 21
221.96999999999849
 31
0.0
  0
LINE
  5
58AC
  8
0
 10
133.93255963544831
 20
213.48962304106129
 30
0.0
 11
133.9325596354484
 21
217.51037695893581
 31
0.0
  0
LINE
  5
58AD
  8
0
 10
133.9325596354484
 20
217.51037695893581
 30
0.0
 11
133.1004522811017
 21
217.95336923418299
 31
0.0
  0
LINE
  5
58AE
  8
0
 10
133.10045228110161
 20
213.046630765814
 30
0.0
 11
133.93255963544831
 21
213.48962304106129
 31
0.0
  0
LINE
  5
58AF
  8
0
 10
134.12043371018689
 20
212.51037695893581
 30
0.0
 11
134.12043371018689
 21
208.48962304106129
 31
0.0
  0
LINE
  5
58B0
  8
0
 10
134.12043371018689
 20
208.48962304106129
 30
0.0
 11
133.10045228110161
 21
208.046630765814
 31
0.0
  0
LINE
  5
58B1
  8
0
 10
133.10045228110161
 20
212.95336923418299
 30
0.0
 11
134.12043371018689
 21
212.51037695893581
 31
0.0
  0
LINE
  5
58B2
  8
0
 10
133.1004522811017
 20
217.95336923418299
 30
0.0
 11
134.120433710187
 21
217.51037695893581
 31
0.0
  0
LINE
  5
58B3
  8
0
 10
134.120433710187
 20
217.51037695893581
 30
0.0
 11
134.12043371018689
 21
213.48962304106129
 31
0.0
  0
LINE
  5
58B4
  8
0
 10
134.12043371018689
 20
213.48962304106129
 30
0.0
 11
133.10045228110161
 21
213.046630765814
 31
0.0
  0
LINE
  5
58B5
  8
0
 10
134.120433710187
 20
221.3999999999985
 30
0.0
 11
134.120433710187
 21
218.48962304106129
 31
0.0
  0
LINE
  5
58B6
  8
0
 10
134.120433710187
 20
218.48962304106129
 30
0.0
 11
133.1004522811017
 21
218.046630765814
 31
0.0
  0
LINE
  5
58B7
  8
0
 10
133.1004522811017
 20
221.96999999999849
 30
0.0
 11
134.120433710187
 21
221.3999999999985
 31
0.0
  0
LINE
  5
58B8
  8
0
 10
133.10045228110161
 20
207.95336923418299
 30
0.0
 11
134.12043371018689
 21
207.51037695893569
 31
0.0
  0
LINE
  5
58B9
  8
0
 10
134.12043371018689
 20
207.51037695893569
 30
0.0
 11
134.12043371018689
 21
204.59999999999849
 31
0.0
  0
LINE
  5
58BA
  8
0
 10
134.12043371018689
 20
204.59999999999849
 30
0.0
 11
133.10045228110161
 21
204.02999999999849
 31
0.0
  0
LINE
  5
58BB
  8
0
 10
132.16377502630729
 20
204.59999999999849
 30
0.0
 11
132.16377502630729
 21
207.51037695893569
 31
0.0
  0
LINE
  5
58BC
  8
0
 10
132.16377502630729
 20
207.51037695893569
 30
0.0
 11
131.43026107374001
 21
207.95336923418299
 31
0.0
  0
LINE
  5
58BD
  8
0
 10
131.43026107374001
 20
204.02999999999849
 30
0.0
 11
132.16377502630729
 21
204.5999999999986
 31
0.0
  0
LINE
  5
58BE
  8
0
 10
131.43026107374001
 20
218.046630765814
 30
0.0
 11
132.16377502630729
 21
218.48962304106129
 31
0.0
  0
LINE
  5
58BF
  8
0
 10
132.16377502630729
 20
218.48962304106129
 30
0.0
 11
132.16377502630729
 21
221.3999999999985
 31
0.0
  0
LINE
  5
58C0
  8
0
 10
132.16377502630729
 20
221.3999999999985
 30
0.0
 11
131.43026107374001
 21
221.96999999999849
 31
0.0
  0
LINE
  5
58C1
  8
0
 10
132.16377502630729
 20
213.48962304106129
 30
0.0
 11
132.16377502630729
 21
217.51037695893581
 31
0.0
  0
LINE
  5
58C2
  8
0
 10
132.16377502630729
 20
217.51037695893581
 30
0.0
 11
131.43026107374001
 21
217.95336923418299
 31
0.0
  0
LINE
  5
58C3
  8
0
 10
131.43026107374001
 20
213.046630765814
 30
0.0
 11
132.16377502630729
 21
213.48962304106129
 31
0.0
  0
LINE
  5
58C4
  8
0
 10
132.47264605381389
 20
212.51037695893581
 30
0.0
 11
132.47264605381389
 21
208.48962304106129
 31
0.0
  0
LINE
  5
58C5
  8
0
 10
132.47264605381389
 20
208.48962304106129
 30
0.0
 11
131.43026107374001
 21
208.046630765814
 31
0.0
  0
LINE
  5
58C6
  8
0
 10
131.43026107374001
 20
212.95336923418299
 30
0.0
 11
132.47264605381389
 21
212.51037695893581
 31
0.0
  0
LINE
  5
58C7
  8
0
 10
131.43026107374001
 20
217.95336923418299
 30
0.0
 11
132.47264605381389
 21
217.51037695893581
 31
0.0
  0
LINE
  5
58C8
  8
0
 10
132.47264605381389
 20
217.51037695893581
 30
0.0
 11
132.47264605381389
 21
213.48962304106129
 31
0.0
  0
LINE
  5
58C9
  8
0
 10
132.47264605381389
 20
213.48962304106129
 30
0.0
 11
131.43026107374001
 21
213.046630765814
 31
0.0
  0
LINE
  5
58CA
  8
0
 10
132.47264605381389
 20
221.3999999999985
 30
0.0
 11
132.47264605381389
 21
218.48962304106129
 31
0.0
  0
LINE
  5
58CB
  8
0
 10
132.47264605381389
 20
218.48962304106129
 30
0.0
 11
131.43026107374001
 21
218.046630765814
 31
0.0
  0
LINE
  5
58CC
  8
0
 10
131.43026107374001
 20
221.96999999999849
 30
0.0
 11
132.47264605381389
 21
221.3999999999985
 31
0.0
  0
LINE
  5
58CD
  8
0
 10
131.43026107374001
 20
207.95336923418299
 30
0.0
 11
132.47264605381389
 21
207.51037695893569
 31
0.0
  0
LINE
  5
58CE
  8
0
 10
132.47264605381389
 20
207.51037695893569
 30
0.0
 11
132.47264605381389
 21
204.59999999999849
 31
0.0
  0
LINE
  5
58CF
  8
0
 10
132.47264605381389
 20
204.5999999999986
 30
0.0
 11
131.43026107374001
 21
204.02999999999849
 31
0.0
  0
LINE
  5
58D0
  8
0
 10
129.5875503385125
 20
204.59999999999849
 30
0.0
 11
129.5875503385125
 21
207.51037695893569
 31
0.0
  0
LINE
  5
58D1
  8
0
 10
129.5875503385125
 20
207.51037695893569
 30
0.0
 11
128.96756201651939
 21
207.95336923418299
 31
0.0
  0
LINE
  5
58D2
  8
0
 10
128.96756201651939
 20
204.02999999999849
 30
0.0
 11
129.5875503385125
 21
204.5999999999986
 31
0.0
  0
LINE
  5
58D3
  8
0
 10
128.96756201651951
 20
218.046630765814
 30
0.0
 11
129.58755033851261
 21
218.48962304106129
 31
0.0
  0
LINE
  5
58D4
  8
0
 10
129.58755033851261
 20
218.48962304106129
 30
0.0
 11
129.58755033851261
 21
221.3999999999985
 31
0.0
  0
LINE
  5
58D5
  8
0
 10
129.58755033851261
 20
221.3999999999985
 30
0.0
 11
128.96756201651951
 21
221.96999999999849
 31
0.0
  0
LINE
  5
58D6
  8
0
 10
129.5875503385125
 20
213.48962304106129
 30
0.0
 11
129.58755033851261
 21
217.51037695893581
 31
0.0
  0
LINE
  5
58D7
  8
0
 10
129.58755033851261
 20
217.51037695893581
 30
0.0
 11
128.96756201651951
 21
217.95336923418299
 31
0.0
  0
LINE
  5
58D8
  8
0
 10
128.96756201651939
 20
213.046630765814
 30
0.0
 11
129.5875503385125
 21
213.48962304106129
 31
0.0
  0
LINE
  5
58D9
  8
0
 10
130.01113059537749
 20
212.51037695893581
 30
0.0
 11
130.01113059537749
 21
208.48962304106129
 31
0.0
  0
LINE
  5
58DA
  8
0
 10
130.01113059537749
 20
208.48962304106129
 30
0.0
 11
128.96756201651939
 21
208.046630765814
 31
0.0
  0
LINE
  5
58DB
  8
0
 10
128.96756201651939
 20
212.95336923418299
 30
0.0
 11
130.01113059537749
 21
212.51037695893581
 31
0.0
  0
LINE
  5
58DC
  8
0
 10
128.96756201651951
 20
217.95336923418299
 30
0.0
 11
130.01113059537749
 21
217.51037695893581
 31
0.0
  0
LINE
  5
58DD
  8
0
 10
130.01113059537749
 20
217.51037695893581
 30
0.0
 11
130.01113059537749
 21
213.48962304106129
 31
0.0
  0
LINE
  5
58DE
  8
0
 10
130.01113059537749
 20
213.48962304106129
 30
0.0
 11
128.96756201651939
 21
213.046630765814
 31
0.0
  0
LINE
  5
58DF
  8
0
 10
130.01113059537749
 20
221.3999999999985
 30
0.0
 11
130.01113059537749
 21
218.48962304106129
 31
0.0
  0
LINE
  5
58E0
  8
0
 10
130.01113059537749
 20
218.48962304106129
 30
0.0
 11
128.96756201651951
 21
218.046630765814
 31
0.0
  0
LINE
  5
58E1
  8
0
 10
128.96756201651951
 20
221.96999999999849
 30
0.0
 11
130.01113059537749
 21
221.3999999999985
 31
0.0
  0
LINE
  5
58E2
  8
0
 10
128.96756201651939
 20
207.95336923418299
 30
0.0
 11
130.01113059537749
 21
207.51037695893569
 31
0.0
  0
LINE
  5
58E3
  8
0
 10
130.01113059537749
 20
207.51037695893569
 30
0.0
 11
130.01113059537749
 21
204.59999999999849
 31
0.0
  0
LINE
  5
58E4
  8
0
 10
130.01113059537749
 20
204.59999999999849
 30
0.0
 11
128.96756201651939
 21
204.02999999999849
 31
0.0
  0
LINE
  5
58E5
  8
0
 10
126.2563300774889
 20
204.59999999999849
 30
0.0
 11
126.2563300774889
 21
207.51037695893569
 31
0.0
  0
LINE
  5
58E6
  8
0
 10
126.2563300774889
 20
207.51037695893569
 30
0.0
 11
125.76248856040711
 21
207.95336923418299
 31
0.0
  0
LINE
  5
58E7
  8
0
 10
125.76248856040711
 20
204.02999999999849
 30
0.0
 11
126.2563300774889
 21
204.5999999999986
 31
0.0
  0
LINE
  5
58E8
  8
0
 10
125.76248856040711
 20
218.046630765814
 30
0.0
 11
126.2563300774889
 21
218.48962304106129
 31
0.0
  0
LINE
  5
58E9
  8
0
 10
126.2563300774889
 20
218.48962304106129
 30
0.0
 11
126.2563300774889
 21
221.3999999999985
 31
0.0
  0
LINE
  5
58EA
  8
0
 10
126.2563300774889
 20
221.3999999999985
 30
0.0
 11
125.76248856040711
 21
221.96999999999849
 31
0.0
  0
LINE
  5
58EB
  8
0
 10
126.2563300774889
 20
213.48962304106129
 30
0.0
 11
126.2563300774889
 21
217.51037695893581
 31
0.0
  0
LINE
  5
58EC
  8
0
 10
126.2563300774889
 20
217.51037695893581
 30
0.0
 11
125.76248856040711
 21
217.95336923418299
 31
0.0
  0
LINE
  5
58ED
  8
0
 10
125.76248856040711
 20
213.046630765814
 30
0.0
 11
126.2563300774889
 21
213.48962304106129
 31
0.0
  0
LINE
  5
58EE
  8
0
 10
126.78599669118719
 20
212.51037695893581
 30
0.0
 11
126.78599669118719
 21
208.48962304106129
 31
0.0
  0
LINE
  5
58EF
  8
0
 10
126.78599669118719
 20
208.48962304106129
 30
0.0
 11
125.76248856040711
 21
208.046630765814
 31
0.0
  0
LINE
  5
58F0
  8
0
 10
125.76248856040711
 20
212.95336923418299
 30
0.0
 11
126.78599669118719
 21
212.51037695893581
 31
0.0
  0
LINE
  5
58F1
  8
0
 10
125.76248856040711
 20
217.95336923418299
 30
0.0
 11
126.78599669118719
 21
217.51037695893581
 31
0.0
  0
LINE
  5
58F2
  8
0
 10
126.78599669118719
 20
217.51037695893581
 30
0.0
 11
126.78599669118719
 21
213.48962304106129
 31
0.0
  0
LINE
  5
58F3
  8
0
 10
126.78599669118719
 20
213.48962304106129
 30
0.0
 11
125.76248856040711
 21
213.046630765814
 31
0.0
  0
LINE
  5
58F4
  8
0
 10
126.78599669118729
 20
221.3999999999985
 30
0.0
 11
126.78599669118729
 21
218.48962304106129
 31
0.0
  0
LINE
  5
58F5
  8
0
 10
126.78599669118729
 20
218.48962304106129
 30
0.0
 11
125.76248856040711
 21
218.046630765814
 31
0.0
  0
LINE
  5
58F6
  8
0
 10
125.76248856040711
 20
221.96999999999849
 30
0.0
 11
126.78599669118719
 21
221.3999999999985
 31
0.0
  0
LINE
  5
58F7
  8
0
 10
125.76248856040711
 20
207.95336923418299
 30
0.0
 11
126.78599669118719
 21
207.51037695893569
 31
0.0
  0
LINE
  5
58F8
  8
0
 10
126.78599669118729
 20
207.51037695893569
 30
0.0
 11
126.78599669118729
 21
204.59999999999849
 31
0.0
  0
LINE
  5
58F9
  8
0
 10
126.78599669118729
 20
204.5999999999986
 30
0.0
 11
125.76248856040711
 21
204.02999999999849
 31
0.0
  0
LINE
  5
58FA
  8
0
 10
122.2379282813051
 20
204.59999999999849
 30
0.0
 11
122.2379282813051
 21
207.51037695893569
 31
0.0
  0
LINE
  5
58FB
  8
0
 10
122.2379282813051
 20
207.51037695893569
 30
0.0
 11
121.880286758301
 21
207.95336923418299
 31
0.0
  0
LINE
  5
58FC
  8
0
 10
121.880286758301
 20
204.02999999999849
 30
0.0
 11
122.2379282813051
 21
204.5999999999986
 31
0.0
  0
LINE
  5
58FD
  8
0
 10
121.880286758301
 20
218.046630765814
 30
0.0
 11
122.2379282813052
 21
218.48962304106129
 31
0.0
  0
LINE
  5
58FE
  8
0
 10
122.2379282813052
 20
218.48962304106129
 30
0.0
 11
122.2379282813052
 21
221.3999999999985
 31
0.0
  0
LINE
  5
58FF
  8
0
 10
122.2379282813052
 20
221.3999999999985
 30
0.0
 11
121.880286758301
 21
221.96999999999849
 31
0.0
  0
LINE
  5
5900
  8
0
 10
122.2379282813051
 20
213.48962304106129
 30
0.0
 11
122.2379282813052
 21
217.51037695893581
 31
0.0
  0
LINE
  5
5901
  8
0
 10
122.2379282813052
 20
217.51037695893581
 30
0.0
 11
121.880286758301
 21
217.95336923418299
 31
0.0
  0
LINE
  5
5902
  8
0
 10
121.880286758301
 20
213.046630765814
 30
0.0
 11
122.2379282813051
 21
213.48962304106129
 31
0.0
  0
LINE
  5
5903
  8
0
 10
122.8628987670141
 20
212.51037695893581
 30
0.0
 11
122.8628987670141
 21
208.48962304106129
 31
0.0
  0
LINE
  5
5904
  8
0
 10
122.8628987670141
 20
208.48962304106129
 30
0.0
 11
121.880286758301
 21
208.046630765814
 31
0.0
  0
LINE
  5
5905
  8
0
 10
121.880286758301
 20
212.95336923418299
 30
0.0
 11
122.8628987670141
 21
212.51037695893581
 31
0.0
  0
LINE
  5
5906
  8
0
 10
121.880286758301
 20
217.95336923418299
 30
0.0
 11
122.8628987670142
 21
217.51037695893581
 31
0.0
  0
LINE
  5
5907
  8
0
 10
122.8628987670142
 20
217.51037695893581
 30
0.0
 11
122.8628987670141
 21
213.48962304106129
 31
0.0
  0
LINE
  5
5908
  8
0
 10
122.8628987670141
 20
213.48962304106129
 30
0.0
 11
121.880286758301
 21
213.046630765814
 31
0.0
  0
LINE
  5
5909
  8
0
 10
122.8628987670142
 20
221.3999999999985
 30
0.0
 11
122.8628987670142
 21
218.48962304106129
 31
0.0
  0
LINE
  5
590A
  8
0
 10
122.8628987670142
 20
218.48962304106121
 30
0.0
 11
121.880286758301
 21
218.046630765814
 31
0.0
  0
LINE
  5
590B
  8
0
 10
121.880286758301
 20
221.96999999999849
 30
0.0
 11
122.8628987670142
 21
221.3999999999985
 31
0.0
  0
LINE
  5
590C
  8
0
 10
121.880286758301
 20
207.95336923418299
 30
0.0
 11
122.8628987670141
 21
207.51037695893569
 31
0.0
  0
LINE
  5
590D
  8
0
 10
122.8628987670141
 20
207.51037695893569
 30
0.0
 11
122.8628987670141
 21
204.59999999999849
 31
0.0
  0
LINE
  5
590E
  8
0
 10
122.8628987670141
 20
204.59999999999849
 30
0.0
 11
121.880286758301
 21
204.02999999999849
 31
0.0
  0
LINE
  5
590F
  8
0
 10
117.6141480224174
 20
204.59999999999849
 30
0.0
 11
117.6141480224174
 21
207.51037695893569
 31
0.0
  0
LINE
  5
5910
  8
0
 10
117.6141480224174
 20
207.51037695893569
 30
0.0
 11
117.3999870435464
 21
207.95336923418299
 31
0.0
  0
LINE
  5
5911
  8
0
 10
117.3999870435464
 20
204.02999999999849
 30
0.0
 11
117.6141480224174
 21
204.5999999999986
 31
0.0
  0
LINE
  5
5912
  8
0
 10
117.3999870435464
 20
218.046630765814
 30
0.0
 11
117.6141480224174
 21
218.48962304106129
 31
0.0
  0
LINE
  5
5913
  8
0
 10
117.6141480224174
 20
218.48962304106129
 30
0.0
 11
117.6141480224174
 21
221.3999999999985
 31
0.0
  0
LINE
  5
5914
  8
0
 10
117.6141480224174
 20
221.3999999999985
 30
0.0
 11
117.3999870435464
 21
221.96999999999849
 31
0.0
  0
LINE
  5
5915
  8
0
 10
117.6141480224174
 20
213.48962304106129
 30
0.0
 11
117.6141480224174
 21
217.51037695893581
 31
0.0
  0
LINE
  5
5916
  8
0
 10
117.6141480224174
 20
217.51037695893581
 30
0.0
 11
117.3999870435464
 21
217.95336923418299
 31
0.0
  0
LINE
  5
5917
  8
0
 10
117.3999870435464
 20
213.046630765814
 30
0.0
 11
117.6141480224174
 21
213.48962304106129
 31
0.0
  0
LINE
  5
5918
  8
0
 10
118.3216997833142
 20
212.51037695893581
 30
0.0
 11
118.3216997833142
 21
208.48962304106129
 31
0.0
  0
LINE
  5
5919
  8
0
 10
118.3216997833142
 20
208.48962304106129
 30
0.0
 11
117.3999870435464
 21
208.046630765814
 31
0.0
  0
LINE
  5
591A
  8
0
 10
117.3999870435464
 20
212.95336923418299
 30
0.0
 11
118.3216997833142
 21
212.51037695893581
 31
0.0
  0
LINE
  5
591B
  8
0
 10
117.3999870435464
 20
217.95336923418299
 30
0.0
 11
118.3216997833142
 21
217.51037695893581
 31
0.0
  0
LINE
  5
591C
  8
0
 10
118.3216997833142
 20
217.51037695893581
 30
0.0
 11
118.3216997833142
 21
213.48962304106129
 31
0.0
  0
LINE
  5
591D
  8
0
 10
118.3216997833142
 20
213.48962304106129
 30
0.0
 11
117.3999870435464
 21
213.046630765814
 31
0.0
  0
LINE
  5
591E
  8
0
 10
118.3216997833142
 20
221.3999999999985
 30
0.0
 11
118.3216997833142
 21
218.48962304106129
 31
0.0
  0
LINE
  5
591F
  8
0
 10
118.3216997833142
 20
218.48962304106129
 30
0.0
 11
117.3999870435464
 21
218.046630765814
 31
0.0
  0
LINE
  5
5920
  8
0
 10
117.3999870435464
 20
221.96999999999849
 30
0.0
 11
118.3216997833142
 21
221.3999999999985
 31
0.0
  0
LINE
  5
5921
  8
0
 10
117.3999870435464
 20
207.95336923418299
 30
0.0
 11
118.3216997833142
 21
207.51037695893569
 31
0.0
  0
LINE
  5
5922
  8
0
 10
118.3216997833142
 20
207.51037695893569
 30
0.0
 11
118.3216997833142
 21
204.59999999999849
 31
0.0
  0
LINE
  5
5923
  8
0
 10
118.3216997833142
 20
204.5999999999986
 30
0.0
 11
117.3999870435464
 21
204.02999999999849
 31
0.0
  0
LINE
  5
5924
  8
0
 10
112.47911613301569
 20
204.59999999999849
 30
0.0
 11
112.47911613301569
 21
207.51037695893569
 31
0.0
  0
LINE
  5
5925
  8
0
 10
112.47911613301569
 20
207.51037695893569
 30
0.0
 11
112.41279539821829
 21
207.95336923418299
 31
0.0
  0
LINE
  5
5926
  8
0
 10
112.41279539821829
 20
204.02999999999849
 30
0.0
 11
112.47911613301569
 21
204.5999999999986
 31
0.0
  0
LINE
  5
5927
  8
0
 10
112.41279539821829
 20
218.046630765814
 30
0.0
 11
112.47911613301569
 21
218.48962304106129
 31
0.0
  0
LINE
  5
5928
  8
0
 10
112.47911613301569
 20
218.48962304106129
 30
0.0
 11
112.47911613301569
 21
221.3999999999985
 31
0.0
  0
LINE
  5
5929
  8
0
 10
112.47911613301569
 20
221.3999999999985
 30
0.0
 11
112.41279539821829
 21
221.96999999999849
 31
0.0
  0
LINE
  5
592A
  8
0
 10
112.47911613301569
 20
213.48962304106129
 30
0.0
 11
112.47911613301569
 21
217.51037695893581
 31
0.0
  0
LINE
  5
592B
  8
0
 10
112.47911613301569
 20
217.51037695893581
 30
0.0
 11
112.41279539821829
 21
217.95336923418299
 31
0.0
  0
LINE
  5
592C
  8
0
 10
112.41279539821829
 20
213.046630765814
 30
0.0
 11
112.47911613301569
 21
213.48962304106129
 31
0.0
  0
LINE
  5
592D
  8
0
 10
113.25484545565909
 20
212.51037695893581
 30
0.0
 11
113.25484545565909
 21
208.48962304106129
 31
0.0
  0
LINE
  5
592E
  8
0
 10
113.25484545565909
 20
208.48962304106129
 30
0.0
 11
112.41279539821829
 21
208.046630765814
 31
0.0
  0
LINE
  5
592F
  8
0
 10
112.41279539821829
 20
212.95336923418299
 30
0.0
 11
113.25484545565909
 21
212.51037695893581
 31
0.0
  0
LINE
  5
5930
  8
0
 10
112.41279539821829
 20
217.95336923418299
 30
0.0
 11
113.25484545565909
 21
217.51037695893581
 31
0.0
  0
LINE
  5
5931
  8
0
 10
113.25484545565909
 20
217.51037695893581
 30
0.0
 11
113.25484545565909
 21
213.48962304106129
 31
0.0
  0
LINE
  5
5932
  8
0
 10
113.25484545565909
 20
213.48962304106129
 30
0.0
 11
112.41279539821829
 21
213.046630765814
 31
0.0
  0
LINE
  5
5933
  8
0
 10
113.25484545565909
 20
221.3999999999985
 30
0.0
 11
113.25484545565909
 21
218.48962304106129
 31
0.0
  0
LINE
  5
5934
  8
0
 10
113.25484545565909
 20
218.48962304106129
 30
0.0
 11
112.41279539821829
 21
218.046630765814
 31
0.0
  0
LINE
  5
5935
  8
0
 10
112.41279539821829
 20
221.96999999999849
 30
0.0
 11
113.25484545565909
 21
221.3999999999985
 31
0.0
  0
LINE
  5
5936
  8
0
 10
112.41279539821829
 20
207.95336923418299
 30
0.0
 11
113.25484545565909
 21
207.51037695893569
 31
0.0
  0
LINE
  5
5937
  8
0
 10
113.25484545565909
 20
207.51037695893569
 30
0.0
 11
113.25484545565909
 21
204.59999999999849
 31
0.0
  0
LINE
  5
5938
  8
0
 10
113.25484545565909
 20
204.5999999999986
 30
0.0
 11
112.41279539821829
 21
204.02999999999849
 31
0.0
  0
LINE
  5
5939
  8
0
 10
106.9373670541589
 20
204.5999999999986
 30
0.0
 11
106.9373670541589
 21
207.51037695893569
 31
0.0
  0
LINE
  5
593A
  8
0
 10
106.9373670541589
 20
207.51037695893569
 30
0.0
 11
107.0202366623425
 21
207.95336923418299
 31
0.0
  0
LINE
  5
593B
  8
0
 10
107.0202366623425
 20
204.02999999999849
 30
0.0
 11
106.9373670541589
 21
204.5999999999986
 31
0.0
  0
LINE
  5
593C
  8
0
 10
107.0202366623425
 20
218.046630765814
 30
0.0
 11
106.9373670541589
 21
218.48962304106129
 31
0.0
  0
LINE
  5
593D
  8
0
 10
106.9373670541589
 20
218.48962304106129
 30
0.0
 11
106.9373670541589
 21
221.3999999999985
 31
0.0
  0
LINE
  5
593E
  8
0
 10
106.9373670541589
 20
221.3999999999985
 30
0.0
 11
107.0202366623425
 21
221.96999999999849
 31
0.0
  0
LINE
  5
593F
  8
0
 10
106.9373670541589
 20
213.48962304106129
 30
0.0
 11
106.9373670541589
 21
217.51037695893581
 31
0.0
  0
LINE
  5
5940
  8
0
 10
106.9373670541589
 20
217.51037695893581
 30
0.0
 11
107.0202366623425
 21
217.95336923418299
 31
0.0
  0
LINE
  5
5941
  8
0
 10
107.0202366623425
 20
213.046630765814
 30
0.0
 11
106.9373670541589
 21
213.48962304106129
 31
0.0
  0
LINE
  5
5942
  8
0
 10
107.7654823265587
 20
212.51037695893581
 30
0.0
 11
107.7654823265587
 21
208.48962304106129
 31
0.0
  0
LINE
  5
5943
  8
0
 10
107.7654823265587
 20
208.48962304106129
 30
0.0
 11
107.0202366623425
 21
208.046630765814
 31
0.0
  0
LINE
  5
5944
  8
0
 10
107.0202366623425
 20
208.046630765814
 30
0.0
 11
107.0202366623425
 21
212.95336923418299
 31
0.0
  0
LINE
  5
5945
  8
0
 10
107.0202366623425
 20
212.95336923418299
 30
0.0
 11
107.7654823265587
 21
212.51037695893581
 31
0.0
  0
LINE
  5
5946
  8
0
 10
107.0202366623425
 20
213.046630765814
 30
0.0
 11
107.0202366623425
 21
217.95336923418299
 31
0.0
  0
LINE
  5
5947
  8
0
 10
107.0202366623425
 20
217.95336923418299
 30
0.0
 11
107.7654823265587
 21
217.51037695893581
 31
0.0
  0
LINE
  5
5948
  8
0
 10
107.7654823265587
 20
217.51037695893581
 30
0.0
 11
107.7654823265587
 21
213.48962304106129
 31
0.0
  0
LINE
  5
5949
  8
0
 10
107.7654823265587
 20
213.48962304106129
 30
0.0
 11
107.0202366623425
 21
213.046630765814
 31
0.0
  0
LINE
  5
594A
  8
0
 10
107.7654823265587
 20
221.3999999999985
 30
0.0
 11
107.7654823265587
 21
218.48962304106129
 31
0.0
  0
LINE
  5
594B
  8
0
 10
107.7654823265587
 20
218.48962304106129
 30
0.0
 11
107.0202366623425
 21
218.046630765814
 31
0.0
  0
LINE
  5
594C
  8
0
 10
107.0202366623425
 20
218.046630765814
 30
0.0
 11
107.0202366623425
 21
221.96999999999849
 31
0.0
  0
LINE
  5
594D
  8
0
 10
107.0202366623425
 20
221.96999999999849
 30
0.0
 11
107.7654823265587
 21
221.3999999999985
 31
0.0
  0
LINE
  5
594E
  8
0
 10
107.0202366623425
 20
204.02999999999849
 30
0.0
 11
107.0202366623425
 21
207.95336923418299
 31
0.0
  0
LINE
  5
594F
  8
0
 10
107.0202366623425
 20
207.95336923418299
 30
0.0
 11
107.7654823265587
 21
207.51037695893569
 31
0.0
  0
LINE
  5
5950
  8
0
 10
107.7654823265587
 20
207.51037695893569
 30
0.0
 11
107.7654823265587
 21
204.59999999999849
 31
0.0
  0
LINE
  5
5951
  8
0
 10
107.7654823265587
 20
204.5999999999986
 30
0.0
 11
107.0202366623425
 21
204.02999999999849
 31
0.0
  0
LINE
  5
5952
  8
0
 10
101.101714816008
 20
204.5999999999986
 30
0.0
 11
101.101714816008
 21
207.51037695893569
 31
0.0
  0
LINE
  5
5953
  8
0
 10
101.101714816008
 20
207.51037695893569
 30
0.0
 11
101.3320877809261
 21
207.95336923418299
 31
0.0
  0
LINE
  5
5954
  8
0
 10
101.3320877809261
 20
204.02999999999849
 30
0.0
 11
101.101714816008
 21
204.59999999999849
 31
0.0
  0
LINE
  5
5955
  8
0
 10
101.3320877809261
 20
218.046630765814
 30
0.0
 11
101.101714816008
 21
218.48962304106129
 31
0.0
  0
LINE
  5
5956
  8
0
 10
101.101714816008
 20
218.48962304106129
 30
0.0
 11
101.101714816008
 21
221.3999999999985
 31
0.0
  0
LINE
  5
5957
  8
0
 10
101.101714816008
 20
221.3999999999985
 30
0.0
 11
101.3320877809261
 21
221.96999999999849
 31
0.0
  0
LINE
  5
5958
  8
0
 10
101.101714816008
 20
213.48962304106129
 30
0.0
 11
101.101714816008
 21
217.51037695893581
 31
0.0
  0
LINE
  5
5959
  8
0
 10
101.101714816008
 20
217.51037695893581
 30
0.0
 11
101.3320877809261
 21
217.95336923418299
 31
0.0
  0
LINE
  5
595A
  8
0
 10
101.3320877809261
 20
213.046630765814
 30
0.0
 11
101.101714816008
 21
213.48962304106129
 31
0.0
  0
LINE
  5
595B
  8
0
 10
101.9653579993054
 20
212.51037695893581
 30
0.0
 11
101.9653579993054
 21
208.48962304106129
 31
0.0
  0
LINE
  5
595C
  8
0
 10
101.9653579993054
 20
208.48962304106129
 30
0.0
 11
101.3320877809261
 21
208.046630765814
 31
0.0
  0
LINE
  5
595D
  8
0
 10
101.3320877809261
 20
208.046630765814
 30
0.0
 11
101.3320877809261
 21
212.95336923418299
 31
0.0
  0
LINE
  5
595E
  8
0
 10
101.3320877809261
 20
212.95336923418299
 30
0.0
 11
101.9653579993054
 21
212.51037695893581
 31
0.0
  0
LINE
  5
595F
  8
0
 10
101.3320877809261
 20
213.046630765814
 30
0.0
 11
101.3320877809261
 21
217.95336923418299
 31
0.0
  0
LINE
  5
5960
  8
0
 10
101.3320877809261
 20
217.95336923418299
 30
0.0
 11
101.9653579993054
 21
217.51037695893581
 31
0.0
  0
LINE
  5
5961
  8
0
 10
101.9653579993054
 20
217.51037695893581
 30
0.0
 11
101.9653579993054
 21
213.48962304106129
 31
0.0
  0
LINE
  5
5962
  8
0
 10
101.9653579993054
 20
213.48962304106129
 30
0.0
 11
101.3320877809261
 21
213.046630765814
 31
0.0
  0
LINE
  5
5963
  8
0
 10
101.9653579993054
 20
221.3999999999985
 30
0.0
 11
101.9653579993054
 21
218.48962304106129
 31
0.0
  0
LINE
  5
5964
  8
0
 10
101.9653579993054
 20
218.48962304106129
 30
0.0
 11
101.3320877809261
 21
218.046630765814
 31
0.0
  0
LINE
  5
5965
  8
0
 10
101.3320877809261
 20
218.046630765814
 30
0.0
 11
101.3320877809261
 21
221.96999999999849
 31
0.0
  0
LINE
  5
5966
  8
0
 10
101.3320877809261
 20
221.96999999999849
 30
0.0
 11
101.9653579993054
 21
221.3999999999985
 31
0.0
  0
LINE
  5
5967
  8
0
 10
101.3320877809261
 20
204.02999999999849
 30
0.0
 11
101.3320877809261
 21
207.95336923418299
 31
0.0
  0
LINE
  5
5968
  8
0
 10
101.3320877809261
 20
207.95336923418299
 30
0.0
 11
101.9653579993054
 21
207.51037695893569
 31
0.0
  0
LINE
  5
5969
  8
0
 10
101.9653579993054
 20
207.51037695893569
 30
0.0
 11
101.9653579993054
 21
204.59999999999849
 31
0.0
  0
LINE
  5
596A
  8
0
 10
101.9653579993054
 20
204.5999999999986
 30
0.0
 11
101.3320877809261
 21
204.02999999999849
 31
0.0
  0
LINE
  5
596B
  8
0
 10
95.090956469500441
 20
204.5999999999986
 30
0.0
 11
95.090956469500441
 21
207.51037695893569
 31
0.0
  0
LINE
  5
596C
  8
0
 10
95.090956469500441
 20
207.51037695893569
 30
0.0
 11
95.464143061928041
 21
207.95336923418299
 31
0.0
  0
LINE
  5
596D
  8
0
 10
95.464143061928041
 20
204.02999999999849
 30
0.0
 11
95.090956469500441
 21
204.5999999999986
 31
0.0
  0
LINE
  5
596E
  8
0
 10
95.464143061928041
 20
218.046630765814
 30
0.0
 11
95.090956469500441
 21
218.48962304106129
 31
0.0
  0
LINE
  5
596F
  8
0
 10
95.090956469500441
 20
218.48962304106129
 30
0.0
 11
95.090956469500441
 21
221.3999999999985
 31
0.0
  0
LINE
  5
5970
  8
0
 10
95.090956469500441
 20
221.3999999999985
 30
0.0
 11
95.464143061928041
 21
221.96999999999849
 31
0.0
  0
LINE
  5
5971
  8
0
 10
95.090956469500441
 20
213.48962304106129
 30
0.0
 11
95.090956469500441
 21
217.51037695893581
 31
0.0
  0
LINE
  5
5972
  8
0
 10
95.090956469500441
 20
217.51037695893581
 30
0.0
 11
95.464143061928041
 21
217.95336923418299
 31
0.0
  0
LINE
  5
5973
  8
0
 10
95.464143061928041
 20
213.046630765814
 30
0.0
 11
95.090956469500441
 21
213.48962304106129
 31
0.0
  0
LINE
  5
5974
  8
0
 10
95.972546279024584
 20
212.51037695893581
 30
0.0
 11
95.972546279024584
 21
208.48962304106129
 31
0.0
  0
LINE
  5
5975
  8
0
 10
95.972546279024584
 20
208.48962304106129
 30
0.0
 11
95.464143061928041
 21
208.046630765814
 31
0.0
  0
LINE
  5
5976
  8
0
 10
95.464143061928041
 20
208.046630765814
 30
0.0
 11
95.464143061928041
 21
212.95336923418299
 31
0.0
  0
LINE
  5
5977
  8
0
 10
95.464143061928041
 20
212.95336923418299
 30
0.0
 11
95.972546279024584
 21
212.51037695893581
 31
0.0
  0
LINE
  5
5978
  8
0
 10
95.464143061928041
 20
213.046630765814
 30
0.0
 11
95.464143061928041
 21
217.95336923418299
 31
0.0
  0
LINE
  5
5979
  8
0
 10
95.464143061928041
 20
217.95336923418299
 30
0.0
 11
95.972546279024584
 21
217.51037695893581
 31
0.0
  0
LINE
  5
597A
  8
0
 10
95.972546279024584
 20
217.51037695893581
 30
0.0
 11
95.972546279024584
 21
213.48962304106129
 31
0.0
  0
LINE
  5
597B
  8
0
 10
95.972546279024584
 20
213.48962304106129
 30
0.0
 11
95.464143061928041
 21
213.046630765814
 31
0.0
  0
LINE
  5
597C
  8
0
 10
95.972546279024584
 20
221.3999999999985
 30
0.0
 11
95.972546279024584
 21
218.48962304106129
 31
0.0
  0
LINE
  5
597D
  8
0
 10
95.972546279024584
 20
218.48962304106129
 30
0.0
 11
95.464143061928041
 21
218.046630765814
 31
0.0
  0
LINE
  5
597E
  8
0
 10
95.464143061928041
 20
218.046630765814
 30
0.0
 11
95.464143061928041
 21
221.96999999999849
 31
0.0
  0
LINE
  5
597F
  8
0
 10
95.464143061928041
 20
221.96999999999849
 30
0.0
 11
95.972546279024584
 21
221.3999999999985
 31
0.0
  0
LINE
  5
5980
  8
0
 10
95.464143061928041
 20
204.02999999999849
 30
0.0
 11
95.464143061928041
 21
207.95336923418299
 31
0.0
  0
LINE
  5
5981
  8
0
 10
95.464143061928041
 20
207.95336923418299
 30
0.0
 11
95.972546279024584
 21
207.51037695893569
 31
0.0
  0
LINE
  5
5982
  8
0
 10
95.972546279024584
 20
207.51037695893569
 30
0.0
 11
95.972546279024584
 21
204.59999999999849
 31
0.0
  0
LINE
  5
5983
  8
0
 10
95.972546279024584
 20
204.5999999999986
 30
0.0
 11
95.464143061928041
 21
204.02999999999849
 31
0.0
  0
LINE
  5
5984
  8
0
 10
89.027453720975245
 20
204.5999999999986
 30
0.0
 11
89.027453720975245
 21
207.51037695893569
 31
0.0
  0
LINE
  5
5985
  8
0
 10
89.027453720975245
 20
207.51037695893569
 30
0.0
 11
89.535856938071845
 21
207.95336923418299
 31
0.0
  0
LINE
  5
5986
  8
0
 10
89.535856938071845
 20
204.02999999999849
 30
0.0
 11
89.027453720975245
 21
204.5999999999986
 31
0.0
  0
LINE
  5
5987
  8
0
 10
89.535856938071845
 20
218.046630765814
 30
0.0
 11
89.027453720975245
 21
218.48962304106129
 31
0.0
  0
LINE
  5
5988
  8
0
 10
89.027453720975245
 20
218.48962304106129
 30
0.0
 11
89.027453720975245
 21
221.3999999999985
 31
0.0
  0
LINE
  5
5989
  8
0
 10
89.027453720975245
 20
221.3999999999985
 30
0.0
 11
89.535856938071845
 21
221.96999999999849
 31
0.0
  0
LINE
  5
598A
  8
0
 10
89.027453720975245
 20
213.48962304106129
 30
0.0
 11
89.027453720975245
 21
217.51037695893581
 31
0.0
  0
LINE
  5
598B
  8
0
 10
89.027453720975245
 20
217.51037695893581
 30
0.0
 11
89.535856938071845
 21
217.95336923418299
 31
0.0
  0
LINE
  5
598C
  8
0
 10
89.535856938071845
 20
213.046630765814
 30
0.0
 11
89.027453720975245
 21
213.48962304106129
 31
0.0
  0
LINE
  5
598D
  8
0
 10
89.909043530499389
 20
212.51037695893581
 30
0.0
 11
89.909043530499389
 21
208.48962304106129
 31
0.0
  0
LINE
  5
598E
  8
0
 10
89.909043530499389
 20
208.48962304106129
 30
0.0
 11
89.535856938071845
 21
208.046630765814
 31
0.0
  0
LINE
  5
598F
  8
0
 10
89.535856938071845
 20
208.046630765814
 30
0.0
 11
89.535856938071845
 21
212.95336923418299
 31
0.0
  0
LINE
  5
5990
  8
0
 10
89.535856938071845
 20
212.95336923418299
 30
0.0
 11
89.909043530499389
 21
212.51037695893581
 31
0.0
  0
LINE
  5
5991
  8
0
 10
89.535856938071845
 20
213.046630765814
 30
0.0
 11
89.535856938071845
 21
217.95336923418299
 31
0.0
  0
LINE
  5
5992
  8
0
 10
89.535856938071845
 20
217.95336923418299
 30
0.0
 11
89.909043530499389
 21
217.51037695893581
 31
0.0
  0
LINE
  5
5993
  8
0
 10
89.909043530499389
 20
217.51037695893581
 30
0.0
 11
89.909043530499389
 21
213.48962304106129
 31
0.0
  0
LINE
  5
5994
  8
0
 10
89.909043530499389
 20
213.48962304106129
 30
0.0
 11
89.535856938071845
 21
213.046630765814
 31
0.0
  0
LINE
  5
5995
  8
0
 10
89.909043530499389
 20
221.3999999999985
 30
0.0
 11
89.909043530499389
 21
218.48962304106129
 31
0.0
  0
LINE
  5
5996
  8
0
 10
89.909043530499389
 20
218.48962304106129
 30
0.0
 11
89.535856938071845
 21
218.046630765814
 31
0.0
  0
LINE
  5
5997
  8
0
 10
89.535856938071845
 20
218.046630765814
 30
0.0
 11
89.535856938071845
 21
221.96999999999849
 31
0.0
  0
LINE
  5
5998
  8
0
 10
89.535856938071845
 20
221.96999999999849
 30
0.0
 11
89.909043530499389
 21
221.3999999999985
 31
0.0
  0
LINE
  5
5999
  8
0
 10
89.535856938071845
 20
204.02999999999849
 30
0.0
 11
89.535856938071845
 21
207.95336923418299
 31
0.0
  0
LINE
  5
599A
  8
0
 10
89.535856938071845
 20
207.95336923418299
 30
0.0
 11
89.909043530499389
 21
207.51037695893569
 31
0.0
  0
LINE
  5
599B
  8
0
 10
89.909043530499389
 20
207.51037695893569
 30
0.0
 11
89.909043530499389
 21
204.5999999999986
 31
0.0
  0
LINE
  5
599C
  8
0
 10
89.909043530499389
 20
204.5999999999986
 30
0.0
 11
89.535856938071845
 21
204.02999999999849
 31
0.0
  0
LINE
  5
599D
  8
0
 10
83.034642000694475
 20
204.5999999999986
 30
0.0
 11
83.034642000694475
 21
207.51037695893569
 31
0.0
  0
LINE
  5
599E
  8
0
 10
83.034642000694475
 20
207.51037695893569
 30
0.0
 11
83.667912219073756
 21
207.95336923418299
 31
0.0
  0
LINE
  5
599F
  8
0
 10
83.667912219073756
 20
204.02999999999849
 30
0.0
 11
83.034642000694475
 21
204.5999999999986
 31
0.0
  0
LINE
  5
59A0
  8
0
 10
83.667912219073756
 20
218.046630765814
 30
0.0
 11
83.034642000694475
 21
218.48962304106129
 31
0.0
  0
LINE
  5
59A1
  8
0
 10
83.034642000694475
 20
218.48962304106129
 30
0.0
 11
83.034642000694475
 21
221.3999999999985
 31
0.0
  0
LINE
  5
59A2
  8
0
 10
83.034642000694475
 20
221.3999999999985
 30
0.0
 11
83.667912219073756
 21
221.96999999999849
 31
0.0
  0
LINE
  5
59A3
  8
0
 10
83.034642000694475
 20
213.48962304106129
 30
0.0
 11
83.034642000694475
 21
217.51037695893581
 31
0.0
  0
LINE
  5
59A4
  8
0
 10
83.034642000694475
 20
217.51037695893581
 30
0.0
 11
83.667912219073756
 21
217.95336923418299
 31
0.0
  0
LINE
  5
59A5
  8
0
 10
83.667912219073756
 20
213.046630765814
 30
0.0
 11
83.034642000694475
 21
213.48962304106129
 31
0.0
  0
LINE
  5
59A6
  8
0
 10
83.898285183991788
 20
212.51037695893581
 30
0.0
 11
83.898285183991788
 21
208.48962304106129
 31
0.0
  0
LINE
  5
59A7
  8
0
 10
83.898285183991788
 20
208.48962304106129
 30
0.0
 11
83.667912219073756
 21
208.046630765814
 31
0.0
  0
LINE
  5
59A8
  8
0
 10
83.667912219073756
 20
208.046630765814
 30
0.0
 11
83.667912219073756
 21
212.95336923418299
 31
0.0
  0
LINE
  5
59A9
  8
0
 10
83.667912219073756
 20
212.95336923418299
 30
0.0
 11
83.898285183991788
 21
212.51037695893581
 31
0.0
  0
LINE
  5
59AA
  8
0
 10
83.667912219073756
 20
213.046630765814
 30
0.0
 11
83.667912219073756
 21
217.95336923418299
 31
0.0
  0
LINE
  5
59AB
  8
0
 10
83.667912219073756
 20
217.95336923418299
 30
0.0
 11
83.898285183991788
 21
217.51037695893581
 31
0.0
  0
LINE
  5
59AC
  8
0
 10
83.898285183991788
 20
217.51037695893581
 30
0.0
 11
83.898285183991788
 21
213.48962304106129
 31
0.0
  0
LINE
  5
59AD
  8
0
 10
83.898285183991788
 20
213.48962304106129
 30
0.0
 11
83.667912219073756
 21
213.046630765814
 31
0.0
  0
LINE
  5
59AE
  8
0
 10
83.898285183991788
 20
221.3999999999985
 30
0.0
 11
83.898285183991788
 21
218.48962304106129
 31
0.0
  0
LINE
  5
59AF
  8
0
 10
83.898285183991788
 20
218.48962304106129
 30
0.0
 11
83.667912219073756
 21
218.046630765814
 31
0.0
  0
LINE
  5
59B0
  8
0
 10
83.667912219073756
 20
218.046630765814
 30
0.0
 11
83.667912219073756
 21
221.96999999999849
 31
0.0
  0
LINE
  5
59B1
  8
0
 10
83.667912219073756
 20
221.96999999999849
 30
0.0
 11
83.898285183991788
 21
221.3999999999985
 31
0.0
  0
LINE
  5
59B2
  8
0
 10
83.667912219073756
 20
204.02999999999849
 30
0.0
 11
83.667912219073756
 21
207.95336923418299
 31
0.0
  0
LINE
  5
59B3
  8
0
 10
83.667912219073756
 20
207.95336923418299
 30
0.0
 11
83.898285183991788
 21
207.51037695893569
 31
0.0
  0
LINE
  5
59B4
  8
0
 10
83.898285183991788
 20
207.51037695893569
 30
0.0
 11
83.898285183991788
 21
204.5999999999986
 31
0.0
  0
LINE
  5
59B5
  8
0
 10
83.898285183991788
 20
204.5999999999986
 30
0.0
 11
83.667912219073756
 21
204.02999999999849
 31
0.0
  0
LINE
  5
59B6
  8
0
 10
77.234517673441076
 20
204.5999999999986
 30
0.0
 11
77.234517673441076
 21
207.51037695893569
 31
0.0
  0
LINE
  5
59B7
  8
0
 10
77.234517673441076
 20
207.51037695893569
 30
0.0
 11
77.979763337657403
 21
207.9533692341831
 31
0.0
  0
LINE
  5
59B8
  8
0
 10
77.979763337657403
 20
204.02999999999849
 30
0.0
 11
77.234517673441076
 21
204.5999999999986
 31
0.0
  0
LINE
  5
59B9
  8
0
 10
77.979763337657403
 20
218.046630765814
 30
0.0
 11
77.234517673441076
 21
218.48962304106129
 31
0.0
  0
LINE
  5
59BA
  8
0
 10
77.234517673441076
 20
218.48962304106129
 30
0.0
 11
77.234517673441076
 21
221.3999999999985
 31
0.0
  0
LINE
  5
59BB
  8
0
 10
77.234517673441076
 20
221.3999999999985
 30
0.0
 11
77.979763337657403
 21
221.96999999999849
 31
0.0
  0
LINE
  5
59BC
  8
0
 10
77.234517673441076
 20
213.48962304106129
 30
0.0
 11
77.234517673441076
 21
217.51037695893581
 31
0.0
  0
LINE
  5
59BD
  8
0
 10
77.234517673441076
 20
217.51037695893581
 30
0.0
 11
77.979763337657403
 21
217.95336923418299
 31
0.0
  0
LINE
  5
59BE
  8
0
 10
77.979763337657403
 20
213.046630765814
 30
0.0
 11
77.234517673441076
 21
213.48962304106129
 31
0.0
  0
LINE
  5
59BF
  8
0
 10
78.062632945840903
 20
212.51037695893581
 30
0.0
 11
78.062632945840903
 21
208.48962304106129
 31
0.0
  0
LINE
  5
59C0
  8
0
 10
78.062632945840903
 20
208.48962304106129
 30
0.0
 11
77.979763337657403
 21
208.046630765814
 31
0.0
  0
LINE
  5
59C1
  8
0
 10
77.979763337657403
 20
208.046630765814
 30
0.0
 11
77.979763337657403
 21
212.95336923418299
 31
0.0
  0
LINE
  5
59C2
  8
0
 10
77.979763337657403
 20
212.95336923418299
 30
0.0
 11
78.062632945840903
 21
212.51037695893581
 31
0.0
  0
LINE
  5
59C3
  8
0
 10
77.979763337657403
 20
213.046630765814
 30
0.0
 11
77.979763337657403
 21
217.95336923418299
 31
0.0
  0
LINE
  5
59C4
  8
0
 10
77.979763337657403
 20
217.95336923418299
 30
0.0
 11
78.062632945840903
 21
217.51037695893581
 31
0.0
  0
LINE
  5
59C5
  8
0
 10
78.062632945840903
 20
217.51037695893581
 30
0.0
 11
78.062632945840903
 21
213.48962304106129
 31
0.0
  0
LINE
  5
59C6
  8
0
 10
78.062632945840903
 20
213.48962304106129
 30
0.0
 11
77.979763337657403
 21
213.046630765814
 31
0.0
  0
LINE
  5
59C7
  8
0
 10
78.062632945840903
 20
221.3999999999985
 30
0.0
 11
78.062632945840903
 21
218.48962304106129
 31
0.0
  0
LINE
  5
59C8
  8
0
 10
78.062632945840903
 20
218.48962304106129
 30
0.0
 11
77.979763337657403
 21
218.046630765814
 31
0.0
  0
LINE
  5
59C9
  8
0
 10
77.979763337657403
 20
218.046630765814
 30
0.0
 11
77.979763337657403
 21
221.96999999999849
 31
0.0
  0
LINE
  5
59CA
  8
0
 10
77.979763337657403
 20
221.96999999999849
 30
0.0
 11
78.062632945840903
 21
221.3999999999985
 31
0.0
  0
LINE
  5
59CB
  8
0
 10
77.979763337657403
 20
204.02999999999849
 30
0.0
 11
77.979763337657403
 21
207.9533692341831
 31
0.0
  0
LINE
  5
59CC
  8
0
 10
77.979763337657403
 20
207.9533692341831
 30
0.0
 11
78.062632945840903
 21
207.51037695893569
 31
0.0
  0
LINE
  5
59CD
  8
0
 10
78.062632945840903
 20
207.51037695893569
 30
0.0
 11
78.062632945840903
 21
204.5999999999986
 31
0.0
  0
LINE
  5
59CE
  8
0
 10
78.062632945840903
 20
204.5999999999986
 30
0.0
 11
77.979763337657403
 21
204.02999999999849
 31
0.0
  0
LINE
  5
59CF
  8
0
 10
71.745154544340664
 20
204.5999999999986
 30
0.0
 11
71.745154544340664
 21
207.51037695893569
 31
0.0
  0
LINE
  5
59D0
  8
0
 10
71.745154544340664
 20
207.51037695893569
 30
0.0
 11
72.587204601781593
 21
207.9533692341831
 31
0.0
  0
LINE
  5
59D1
  8
0
 10
72.587204601781593
 20
204.02999999999849
 30
0.0
 11
71.745154544340664
 21
204.5999999999986
 31
0.0
  0
LINE
  5
59D2
  8
0
 10
72.587204601781593
 20
218.046630765814
 30
0.0
 11
71.745154544340664
 21
218.48962304106129
 31
0.0
  0
LINE
  5
59D3
  8
0
 10
71.745154544340664
 20
218.48962304106129
 30
0.0
 11
71.745154544340664
 21
221.39999999999861
 31
0.0
  0
LINE
  5
59D4
  8
0
 10
71.745154544340664
 20
221.3999999999985
 30
0.0
 11
72.587204601781593
 21
221.96999999999849
 31
0.0
  0
LINE
  5
59D5
  8
0
 10
71.745154544340664
 20
213.48962304106129
 30
0.0
 11
71.745154544340664
 21
217.51037695893581
 31
0.0
  0
LINE
  5
59D6
  8
0
 10
71.745154544340664
 20
217.51037695893581
 30
0.0
 11
72.587204601781593
 21
217.95336923418299
 31
0.0
  0
LINE
  5
59D7
  8
0
 10
72.587204601781593
 20
213.046630765814
 30
0.0
 11
71.745154544340664
 21
213.48962304106129
 31
0.0
  0
LINE
  5
59D8
  8
0
 10
72.520883866984207
 20
212.51037695893581
 30
0.0
 11
72.520883866984207
 21
208.48962304106129
 31
0.0
  0
LINE
  5
59D9
  8
0
 10
72.520883866984207
 20
208.48962304106129
 30
0.0
 11
72.587204601781593
 21
208.046630765814
 31
0.0
  0
LINE
  5
59DA
  8
0
 10
72.587204601781593
 20
212.95336923418299
 30
0.0
 11
72.520883866984207
 21
212.51037695893581
 31
0.0
  0
LINE
  5
59DB
  8
0
 10
72.587204601781593
 20
217.95336923418299
 30
0.0
 11
72.520883866984207
 21
217.51037695893581
 31
0.0
  0
LINE
  5
59DC
  8
0
 10
72.520883866984207
 20
217.51037695893581
 30
0.0
 11
72.520883866984207
 21
213.48962304106129
 31
0.0
  0
LINE
  5
59DD
  8
0
 10
72.520883866984207
 20
213.48962304106129
 30
0.0
 11
72.587204601781593
 21
213.046630765814
 31
0.0
  0
LINE
  5
59DE
  8
0
 10
72.520883866984207
 20
221.3999999999985
 30
0.0
 11
72.520883866984207
 21
218.48962304106129
 31
0.0
  0
LINE
  5
59DF
  8
0
 10
72.520883866984207
 20
218.48962304106129
 30
0.0
 11
72.587204601781593
 21
218.046630765814
 31
0.0
  0
LINE
  5
59E0
  8
0
 10
72.587204601781593
 20
221.96999999999849
 30
0.0
 11
72.520883866984207
 21
221.3999999999985
 31
0.0
  0
LINE
  5
59E1
  8
0
 10
72.587204601781593
 20
207.9533692341831
 30
0.0
 11
72.520883866984207
 21
207.51037695893569
 31
0.0
  0
LINE
  5
59E2
  8
0
 10
72.520883866984207
 20
207.51037695893569
 30
0.0
 11
72.520883866984207
 21
204.5999999999986
 31
0.0
  0
LINE
  5
59E3
  8
0
 10
72.520883866984207
 20
204.5999999999986
 30
0.0
 11
72.587204601781593
 21
204.02999999999849
 31
0.0
  0
LINE
  5
59E4
  8
0
 10
66.678300216685614
 20
204.5999999999986
 30
0.0
 11
66.678300216685614
 21
207.51037695893581
 31
0.0
  0
LINE
  5
59E5
  8
0
 10
66.678300216685614
 20
207.51037695893581
 30
0.0
 11
67.600012956453483
 21
207.9533692341831
 31
0.0
  0
LINE
  5
59E6
  8
0
 10
67.60001295645344
 20
204.02999999999849
 30
0.0
 11
66.678300216685614
 21
204.5999999999986
 31
0.0
  0
LINE
  5
59E7
  8
0
 10
67.600012956453483
 20
218.04663076581409
 30
0.0
 11
66.678300216685614
 21
218.48962304106129
 31
0.0
  0
LINE
  5
59E8
  8
0
 10
66.678300216685614
 20
218.48962304106129
 30
0.0
 11
66.678300216685614
 21
221.39999999999861
 31
0.0
  0
LINE
  5
59E9
  8
0
 10
66.678300216685614
 20
221.3999999999985
 30
0.0
 11
67.600012956453483
 21
221.96999999999861
 31
0.0
  0
LINE
  5
59EA
  8
0
 10
66.678300216685614
 20
213.48962304106129
 30
0.0
 11
66.678300216685614
 21
217.51037695893581
 31
0.0
  0
LINE
  5
59EB
  8
0
 10
66.678300216685614
 20
217.51037695893581
 30
0.0
 11
67.600012956453483
 21
217.9533692341831
 31
0.0
  0
LINE
  5
59EC
  8
0
 10
67.600012956453483
 20
213.046630765814
 30
0.0
 11
66.678300216685614
 21
213.48962304106129
 31
0.0
  0
LINE
  5
59ED
  8
0
 10
67.385851977582433
 20
212.51037695893581
 30
0.0
 11
67.385851977582433
 21
208.48962304106129
 31
0.0
  0
LINE
  5
59EE
  8
0
 10
67.385851977582433
 20
208.48962304106129
 30
0.0
 11
67.60001295645344
 21
208.04663076581409
 31
0.0
  0
LINE
  5
59EF
  8
0
 10
67.600012956453483
 20
212.95336923418299
 30
0.0
 11
67.385851977582433
 21
212.51037695893581
 31
0.0
  0
LINE
  5
59F0
  8
0
 10
67.600012956453483
 20
217.9533692341831
 30
0.0
 11
67.385851977582433
 21
217.51037695893581
 31
0.0
  0
LINE
  5
59F1
  8
0
 10
67.385851977582433
 20
217.51037695893581
 30
0.0
 11
67.385851977582433
 21
213.48962304106129
 31
0.0
  0
LINE
  5
59F2
  8
0
 10
67.385851977582433
 20
213.48962304106129
 30
0.0
 11
67.600012956453483
 21
213.046630765814
 31
0.0
  0
LINE
  5
59F3
  8
0
 10
67.385851977582433
 20
221.3999999999985
 30
0.0
 11
67.385851977582433
 21
218.48962304106129
 31
0.0
  0
LINE
  5
59F4
  8
0
 10
67.385851977582433
 20
218.48962304106129
 30
0.0
 11
67.600012956453483
 21
218.04663076581409
 31
0.0
  0
LINE
  5
59F5
  8
0
 10
67.600012956453483
 20
221.96999999999861
 30
0.0
 11
67.385851977582433
 21
221.3999999999985
 31
0.0
  0
LINE
  5
59F6
  8
0
 10
67.60001295645344
 20
207.9533692341831
 30
0.0
 11
67.385851977582433
 21
207.51037695893581
 31
0.0
  0
LINE
  5
59F7
  8
0
 10
67.385851977582433
 20
207.51037695893581
 30
0.0
 11
67.385851977582433
 21
204.5999999999986
 31
0.0
  0
LINE
  5
59F8
  8
0
 10
67.385851977582433
 20
204.59999999999849
 30
0.0
 11
67.60001295645344
 21
204.02999999999849
 31
0.0
  0
LINE
  5
59F9
  8
0
 10
62.137101232985742
 20
204.5999999999986
 30
0.0
 11
62.137101232985742
 21
207.51037695893581
 31
0.0
  0
LINE
  5
59FA
  8
0
 10
62.137101232985742
 20
207.51037695893581
 30
0.0
 11
63.119713241698882
 21
207.9533692341831
 31
0.0
  0
LINE
  5
59FB
  8
0
 10
63.119713241698882
 20
204.02999999999849
 30
0.0
 11
62.137101232985742
 21
204.5999999999986
 31
0.0
  0
LINE
  5
59FC
  8
0
 10
63.119713241698882
 20
218.04663076581409
 30
0.0
 11
62.137101232985742
 21
218.48962304106129
 31
0.0
  0
LINE
  5
59FD
  8
0
 10
62.137101232985742
 20
218.48962304106129
 30
0.0
 11
62.137101232985742
 21
221.39999999999861
 31
0.0
  0
LINE
  5
59FE
  8
0
 10
62.137101232985742
 20
221.3999999999985
 30
0.0
 11
63.119713241698882
 21
221.96999999999861
 31
0.0
  0
LINE
  5
59FF
  8
0
 10
62.137101232985742
 20
213.48962304106129
 30
0.0
 11
62.137101232985742
 21
217.51037695893581
 31
0.0
  0
LINE
  5
5A00
  8
0
 10
62.137101232985742
 20
217.51037695893581
 30
0.0
 11
63.119713241698882
 21
217.9533692341831
 31
0.0
  0
LINE
  5
5A01
  8
0
 10
63.119713241698882
 20
213.046630765814
 30
0.0
 11
62.137101232985742
 21
213.48962304106129
 31
0.0
  0
LINE
  5
5A02
  8
0
 10
62.762071718694763
 20
212.51037695893581
 30
0.0
 11
62.762071718694763
 21
208.48962304106129
 31
0.0
  0
LINE
  5
5A03
  8
0
 10
62.762071718694813
 20
208.48962304106129
 30
0.0
 11
63.119713241698882
 21
208.04663076581409
 31
0.0
  0
LINE
  5
5A04
  8
0
 10
63.119713241698882
 20
212.95336923418299
 30
0.0
 11
62.762071718694813
 21
212.51037695893581
 31
0.0
  0
LINE
  5
5A05
  8
0
 10
63.119713241698882
 20
217.9533692341831
 30
0.0
 11
62.762071718694813
 21
217.51037695893581
 31
0.0
  0
LINE
  5
5A06
  8
0
 10
62.762071718694763
 20
217.51037695893581
 30
0.0
 11
62.762071718694763
 21
213.48962304106129
 31
0.0
  0
LINE
  5
5A07
  8
0
 10
62.762071718694813
 20
213.48962304106129
 30
0.0
 11
63.119713241698882
 21
213.046630765814
 31
0.0
  0
LINE
  5
5A08
  8
0
 10
62.762071718694763
 20
221.39999999999861
 30
0.0
 11
62.762071718694763
 21
218.48962304106129
 31
0.0
  0
LINE
  5
5A09
  8
0
 10
62.762071718694813
 20
218.48962304106129
 30
0.0
 11
63.119713241698882
 21
218.04663076581409
 31
0.0
  0
LINE
  5
5A0A
  8
0
 10
63.119713241698882
 20
221.96999999999861
 30
0.0
 11
62.762071718694813
 21
221.3999999999985
 31
0.0
  0
LINE
  5
5A0B
  8
0
 10
63.119713241698882
 20
207.9533692341831
 30
0.0
 11
62.762071718694813
 21
207.51037695893581
 31
0.0
  0
LINE
  5
5A0C
  8
0
 10
62.762071718694763
 20
207.51037695893581
 30
0.0
 11
62.762071718694763
 21
204.5999999999986
 31
0.0
  0
LINE
  5
5A0D
  8
0
 10
62.762071718694763
 20
204.5999999999986
 30
0.0
 11
63.119713241698882
 21
204.02999999999849
 31
0.0
  0
LINE
  5
5A0E
  8
0
 10
58.214003308812657
 20
204.5999999999986
 30
0.0
 11
58.214003308812657
 21
207.51037695893581
 31
0.0
  0
LINE
  5
5A0F
  8
0
 10
58.214003308812657
 20
207.51037695893581
 30
0.0
 11
59.237511439592822
 21
207.9533692341831
 31
0.0
  0
LINE
  5
5A10
  8
0
 10
59.237511439592822
 20
204.02999999999849
 30
0.0
 11
58.214003308812657
 21
204.5999999999986
 31
0.0
  0
LINE
  5
5A11
  8
0
 10
59.237511439592822
 20
218.04663076581409
 30
0.0
 11
58.214003308812657
 21
218.48962304106129
 31
0.0
  0
LINE
  5
5A12
  8
0
 10
58.214003308812657
 20
218.48962304106129
 30
0.0
 11
58.214003308812657
 21
221.39999999999861
 31
0.0
  0
LINE
  5
5A13
  8
0
 10
58.214003308812657
 20
221.3999999999985
 30
0.0
 11
59.237511439592822
 21
221.96999999999861
 31
0.0
  0
LINE
  5
5A14
  8
0
 10
58.214003308812657
 20
213.48962304106129
 30
0.0
 11
58.214003308812657
 21
217.51037695893581
 31
0.0
  0
LINE
  5
5A15
  8
0
 10
58.214003308812657
 20
217.51037695893581
 30
0.0
 11
59.237511439592822
 21
217.9533692341831
 31
0.0
  0
LINE
  5
5A16
  8
0
 10
59.237511439592822
 20
213.046630765814
 30
0.0
 11
58.214003308812657
 21
213.48962304106129
 31
0.0
  0
LINE
  5
5A17
  8
0
 10
58.743669922510939
 20
212.51037695893581
 30
0.0
 11
58.743669922510939
 21
208.48962304106129
 31
0.0
  0
LINE
  5
5A18
  8
0
 10
58.743669922510939
 20
208.48962304106129
 30
0.0
 11
59.237511439592822
 21
208.04663076581409
 31
0.0
  0
LINE
  5
5A19
  8
0
 10
59.237511439592822
 20
212.95336923418299
 30
0.0
 11
58.743669922510939
 21
212.51037695893581
 31
0.0
  0
LINE
  5
5A1A
  8
0
 10
59.237511439592822
 20
217.9533692341831
 30
0.0
 11
58.743669922510939
 21
217.51037695893581
 31
0.0
  0
LINE
  5
5A1B
  8
0
 10
58.743669922510939
 20
217.51037695893581
 30
0.0
 11
58.743669922510939
 21
213.48962304106129
 31
0.0
  0
LINE
  5
5A1C
  8
0
 10
58.743669922510939
 20
213.48962304106129
 30
0.0
 11
59.237511439592822
 21
213.046630765814
 31
0.0
  0
LINE
  5
5A1D
  8
0
 10
58.743669922510939
 20
221.39999999999861
 30
0.0
 11
58.743669922510939
 21
218.48962304106129
 31
0.0
  0
LINE
  5
5A1E
  8
0
 10
58.743669922510939
 20
218.48962304106129
 30
0.0
 11
59.237511439592822
 21
218.04663076581409
 31
0.0
  0
LINE
  5
5A1F
  8
0
 10
59.237511439592822
 20
221.96999999999861
 30
0.0
 11
58.743669922510939
 21
221.3999999999985
 31
0.0
  0
LINE
  5
5A20
  8
0
 10
59.237511439592822
 20
207.9533692341831
 30
0.0
 11
58.743669922510939
 21
207.51037695893581
 31
0.0
  0
LINE
  5
5A21
  8
0
 10
58.743669922510939
 20
207.51037695893581
 30
0.0
 11
58.743669922510939
 21
204.5999999999986
 31
0.0
  0
LINE
  5
5A22
  8
0
 10
58.743669922510939
 20
204.5999999999986
 30
0.0
 11
59.237511439592822
 21
204.02999999999849
 31
0.0
  0
LINE
  5
5A23
  8
0
 10
54.988869404622392
 20
204.5999999999986
 30
0.0
 11
54.988869404622392
 21
207.51037695893581
 31
0.0
  0
LINE
  5
5A24
  8
0
 10
54.988869404622392
 20
207.51037695893581
 30
0.0
 11
56.03243798348052
 21
207.9533692341831
 31
0.0
  0
LINE
  5
5A25
  8
0
 10
56.03243798348052
 20
204.02999999999849
 30
0.0
 11
54.988869404622392
 21
204.5999999999986
 31
0.0
  0
LINE
  5
5A26
  8
0
 10
56.03243798348052
 20
218.04663076581409
 30
0.0
 11
54.988869404622392
 21
218.48962304106129
 31
0.0
  0
LINE
  5
5A27
  8
0
 10
54.988869404622392
 20
218.48962304106129
 30
0.0
 11
54.988869404622392
 21
221.39999999999861
 31
0.0
  0
LINE
  5
5A28
  8
0
 10
54.988869404622392
 20
221.3999999999985
 30
0.0
 11
56.03243798348052
 21
221.96999999999861
 31
0.0
  0
LINE
  5
5A29
  8
0
 10
54.988869404622392
 20
213.48962304106129
 30
0.0
 11
54.988869404622392
 21
217.51037695893581
 31
0.0
  0
LINE
  5
5A2A
  8
0
 10
54.988869404622392
 20
217.51037695893581
 30
0.0
 11
56.03243798348052
 21
217.9533692341831
 31
0.0
  0
LINE
  5
5A2B
  8
0
 10
56.03243798348052
 20
213.046630765814
 30
0.0
 11
54.988869404622392
 21
213.48962304106129
 31
0.0
  0
LINE
  5
5A2C
  8
0
 10
55.412449661487422
 20
212.51037695893581
 30
0.0
 11
55.412449661487422
 21
208.48962304106129
 31
0.0
  0
LINE
  5
5A2D
  8
0
 10
55.412449661487422
 20
208.48962304106129
 30
0.0
 11
56.03243798348052
 21
208.04663076581409
 31
0.0
  0
LINE
  5
5A2E
  8
0
 10
56.03243798348052
 20
212.9533692341831
 30
0.0
 11
55.412449661487422
 21
212.51037695893581
 31
0.0
  0
LINE
  5
5A2F
  8
0
 10
56.03243798348052
 20
217.9533692341831
 30
0.0
 11
55.412449661487422
 21
217.51037695893581
 31
0.0
  0
LINE
  5
5A30
  8
0
 10
55.412449661487422
 20
217.51037695893581
 30
0.0
 11
55.412449661487422
 21
213.48962304106129
 31
0.0
  0
LINE
  5
5A31
  8
0
 10
55.412449661487422
 20
213.48962304106129
 30
0.0
 11
56.03243798348052
 21
213.046630765814
 31
0.0
  0
LINE
  5
5A32
  8
0
 10
55.412449661487422
 20
221.39999999999861
 30
0.0
 11
55.412449661487422
 21
218.48962304106129
 31
0.0
  0
LINE
  5
5A33
  8
0
 10
55.412449661487422
 20
218.48962304106129
 30
0.0
 11
56.03243798348052
 21
218.04663076581409
 31
0.0
  0
LINE
  5
5A34
  8
0
 10
56.03243798348052
 20
221.96999999999861
 30
0.0
 11
55.412449661487422
 21
221.3999999999985
 31
0.0
  0
LINE
  5
5A35
  8
0
 10
56.03243798348052
 20
207.9533692341831
 30
0.0
 11
55.412449661487422
 21
207.51037695893581
 31
0.0
  0
LINE
  5
5A36
  8
0
 10
55.412449661487422
 20
207.51037695893581
 30
0.0
 11
55.412449661487422
 21
204.5999999999986
 31
0.0
  0
LINE
  5
5A37
  8
0
 10
55.412449661487422
 20
204.5999999999986
 30
0.0
 11
56.03243798348052
 21
204.02999999999849
 31
0.0
  0
LINE
  5
5A38
  8
0
 10
52.527353946186047
 20
204.5999999999986
 30
0.0
 11
52.527353946186047
 21
207.51037695893581
 31
0.0
  0
LINE
  5
5A39
  8
0
 10
52.527353946186047
 20
207.51037695893581
 30
0.0
 11
53.569738926259902
 21
207.9533692341831
 31
0.0
  0
LINE
  5
5A3A
  8
0
 10
53.569738926259902
 20
204.02999999999849
 30
0.0
 11
52.527353946186047
 21
204.5999999999986
 31
0.0
  0
LINE
  5
5A3B
  8
0
 10
53.569738926259902
 20
218.04663076581409
 30
0.0
 11
52.527353946186047
 21
218.48962304106129
 31
0.0
  0
LINE
  5
5A3C
  8
0
 10
52.527353946186047
 20
218.48962304106129
 30
0.0
 11
52.527353946186047
 21
221.39999999999861
 31
0.0
  0
LINE
  5
5A3D
  8
0
 10
52.527353946186047
 20
221.3999999999985
 30
0.0
 11
53.569738926259902
 21
221.96999999999861
 31
0.0
  0
LINE
  5
5A3E
  8
0
 10
52.527353946186047
 20
213.48962304106129
 30
0.0
 11
52.527353946186047
 21
217.51037695893581
 31
0.0
  0
LINE
  5
5A3F
  8
0
 10
52.527353946186047
 20
217.51037695893581
 30
0.0
 11
53.569738926259902
 21
217.9533692341831
 31
0.0
  0
LINE
  5
5A40
  8
0
 10
53.569738926259902
 20
213.046630765814
 30
0.0
 11
52.527353946186047
 21
213.48962304106129
 31
0.0
  0
LINE
  5
5A41
  8
0
 10
52.836224973692651
 20
212.51037695893581
 30
0.0
 11
52.836224973692651
 21
208.48962304106129
 31
0.0
  0
LINE
  5
5A42
  8
0
 10
52.836224973692651
 20
208.48962304106129
 30
0.0
 11
53.569738926259902
 21
208.04663076581409
 31
0.0
  0
LINE
  5
5A43
  8
0
 10
53.569738926259902
 20
212.9533692341831
 30
0.0
 11
52.836224973692651
 21
212.51037695893581
 31
0.0
  0
LINE
  5
5A44
  8
0
 10
53.569738926259902
 20
217.9533692341831
 30
0.0
 11
52.836224973692651
 21
217.51037695893581
 31
0.0
  0
LINE
  5
5A45
  8
0
 10
52.836224973692651
 20
217.51037695893581
 30
0.0
 11
52.836224973692651
 21
213.48962304106129
 31
0.0
  0
LINE
  5
5A46
  8
0
 10
52.836224973692651
 20
213.48962304106129
 30
0.0
 11
53.569738926259902
 21
213.046630765814
 31
0.0
  0
LINE
  5
5A47
  8
0
 10
52.836224973692651
 20
221.39999999999861
 30
0.0
 11
52.836224973692651
 21
218.48962304106129
 31
0.0
  0
LINE
  5
5A48
  8
0
 10
52.836224973692651
 20
218.48962304106129
 30
0.0
 11
53.569738926259902
 21
218.04663076581409
 31
0.0
  0
LINE
  5
5A49
  8
0
 10
53.569738926259902
 20
221.96999999999861
 30
0.0
 11
52.836224973692588
 21
221.3999999999985
 31
0.0
  0
LINE
  5
5A4A
  8
0
 10
53.569738926259902
 20
207.9533692341831
 30
0.0
 11
52.836224973692651
 21
207.51037695893581
 31
0.0
  0
LINE
  5
5A4B
  8
0
 10
52.836224973692651
 20
207.51037695893581
 30
0.0
 11
52.836224973692651
 21
204.5999999999986
 31
0.0
  0
LINE
  5
5A4C
  8
0
 10
52.836224973692651
 20
204.5999999999986
 30
0.0
 11
53.569738926259902
 21
204.02999999999849
 31
0.0
  0
LINE
  5
5A4D
  8
0
 10
50.879566289813063
 20
204.5999999999986
 30
0.0
 11
50.879566289813063
 21
207.51037695893581
 31
0.0
  0
LINE
  5
5A4E
  8
0
 10
50.879566289813063
 20
207.51037695893581
 30
0.0
 11
51.899547718898361
 21
207.9533692341831
 31
0.0
  0
LINE
  5
5A4F
  8
0
 10
51.899547718898361
 20
204.02999999999849
 30
0.0
 11
50.879566289813063
 21
204.5999999999986
 31
0.0
  0
LINE
  5
5A50
  8
0
 10
51.899547718898361
 20
218.04663076581409
 30
0.0
 11
50.879566289813063
 21
218.48962304106129
 31
0.0
  0
LINE
  5
5A51
  8
0
 10
50.879566289813063
 20
218.48962304106129
 30
0.0
 11
50.879566289813063
 21
221.39999999999861
 31
0.0
  0
LINE
  5
5A52
  8
0
 10
50.879566289813063
 20
221.3999999999985
 30
0.0
 11
51.899547718898361
 21
221.96999999999861
 31
0.0
  0
LINE
  5
5A53
  8
0
 10
50.879566289813063
 20
213.48962304106129
 30
0.0
 11
50.879566289813063
 21
217.51037695893581
 31
0.0
  0
LINE
  5
5A54
  8
0
 10
50.879566289813063
 20
217.51037695893581
 30
0.0
 11
51.899547718898361
 21
217.9533692341831
 31
0.0
  0
LINE
  5
5A55
  8
0
 10
51.899547718898361
 20
213.046630765814
 30
0.0
 11
50.879566289813063
 21
213.48962304106129
 31
0.0
  0
LINE
  5
5A56
  8
0
 10
51.067440364551651
 20
212.51037695893581
 30
0.0
 11
51.067440364551651
 21
208.48962304106129
 31
0.0
  0
LINE
  5
5A57
  8
0
 10
51.067440364551601
 20
208.48962304106129
 30
0.0
 11
51.899547718898361
 21
208.04663076581409
 31
0.0
  0
LINE
  5
5A58
  8
0
 10
51.899547718898361
 20
212.9533692341831
 30
0.0
 11
51.067440364551601
 21
212.51037695893581
 31
0.0
  0
LINE
  5
5A59
  8
0
 10
51.899547718898361
 20
217.9533692341831
 30
0.0
 11
51.067440364551601
 21
217.51037695893581
 31
0.0
  0
LINE
  5
5A5A
  8
0
 10
51.067440364551651
 20
217.51037695893581
 30
0.0
 11
51.067440364551651
 21
213.48962304106129
 31
0.0
  0
LINE
  5
5A5B
  8
0
 10
51.067440364551601
 20
213.48962304106129
 30
0.0
 11
51.899547718898361
 21
213.046630765814
 31
0.0
  0
LINE
  5
5A5C
  8
0
 10
51.067440364551651
 20
221.39999999999861
 30
0.0
 11
51.067440364551651
 21
218.48962304106129
 31
0.0
  0
LINE
  5
5A5D
  8
0
 10
51.067440364551601
 20
218.48962304106129
 30
0.0
 11
51.899547718898361
 21
218.04663076581409
 31
0.0
  0
LINE
  5
5A5E
  8
0
 10
51.899547718898361
 20
221.96999999999861
 30
0.0
 11
51.067440364551601
 21
221.3999999999985
 31
0.0
  0
LINE
  5
5A5F
  8
0
 10
51.899547718898361
 20
207.9533692341831
 30
0.0
 11
51.067440364551601
 21
207.51037695893581
 31
0.0
  0
LINE
  5
5A60
  8
0
 10
51.067440364551601
 20
207.51037695893581
 30
0.0
 11
51.067440364551601
 21
204.5999999999986
 31
0.0
  0
LINE
  5
5A61
  8
0
 10
51.067440364551601
 20
204.5999999999986
 30
0.0
 11
51.899547718898361
 21
204.02999999999849
 31
0.0
  0
LINE
  5
5A62
  8
0
 10
50.079050640359867
 20
204.5999999999986
 30
0.0
 11
50.079050640359867
 21
207.51037695893581
 31
0.0
  0
LINE
  5
5A63
  8
0
 10
50.079050640359867
 20
207.51037695893581
 30
0.0
 11
51.055864637944012
 21
207.9533692341831
 31
0.0
  0
LINE
  5
5A64
  8
0
 10
51.055864637944012
 20
204.02999999999849
 30
0.0
 11
50.079050640359867
 21
204.5999999999986
 31
0.0
  0
LINE
  5
5A65
  8
0
 10
51.055864637944012
 20
218.04663076581409
 30
0.0
 11
50.079050640359867
 21
218.48962304106129
 31
0.0
  0
LINE
  5
5A66
  8
0
 10
50.079050640359867
 20
218.48962304106129
 30
0.0
 11
50.079050640359867
 21
221.39999999999861
 31
0.0
  0
LINE
  5
5A67
  8
0
 10
50.07905064035981
 20
221.3999999999985
 30
0.0
 11
51.055864637944012
 21
221.96999999999861
 31
0.0
  0
LINE
  5
5A68
  8
0
 10
50.079050640359867
 20
213.48962304106129
 30
0.0
 11
50.079050640359867
 21
217.51037695893581
 31
0.0
  0
LINE
  5
5A69
  8
0
 10
50.079050640359867
 20
217.51037695893581
 30
0.0
 11
51.055864637944012
 21
217.9533692341831
 31
0.0
  0
LINE
  5
5A6A
  8
0
 10
51.055864637944012
 20
213.046630765814
 30
0.0
 11
50.079050640359867
 21
213.48962304106129
 31
0.0
  0
LINE
  5
5A6B
  8
0
 10
50.142103187952898
 20
212.51037695893581
 30
0.0
 11
50.142103187952898
 21
208.48962304106129
 31
0.0
  0
LINE
  5
5A6C
  8
0
 10
50.142103187952841
 20
208.48962304106129
 30
0.0
 11
51.055864637943948
 21
208.04663076581409
 31
0.0
  0
LINE
  5
5A6D
  8
0
 10
51.055864637944012
 20
212.9533692341831
 30
0.0
 11
50.142103187952841
 21
212.51037695893581
 31
0.0
  0
LINE
  5
5A6E
  8
0
 10
51.055864637944012
 20
217.9533692341831
 30
0.0
 11
50.142103187952841
 21
217.51037695893581
 31
0.0
  0
LINE
  5
5A6F
  8
0
 10
50.142103187952898
 20
217.51037695893581
 30
0.0
 11
50.142103187952898
 21
213.48962304106129
 31
0.0
  0
LINE
  5
5A70
  8
0
 10
50.142103187952841
 20
213.48962304106129
 30
0.0
 11
51.055864637944012
 21
213.046630765814
 31
0.0
  0
LINE
  5
5A71
  8
0
 10
50.142103187952898
 20
221.39999999999861
 30
0.0
 11
50.142103187952898
 21
218.48962304106129
 31
0.0
  0
LINE
  5
5A72
  8
0
 10
50.142103187952841
 20
218.48962304106129
 30
0.0
 11
51.055864637944012
 21
218.04663076581409
 31
0.0
  0
LINE
  5
5A73
  8
0
 10
51.055864637944012
 20
221.96999999999861
 30
0.0
 11
50.142103187952841
 21
221.3999999999985
 31
0.0
  0
LINE
  5
5A74
  8
0
 10
51.055864637944012
 20
207.9533692341831
 30
0.0
 11
50.142103187952841
 21
207.51037695893581
 31
0.0
  0
LINE
  5
5A75
  8
0
 10
50.142103187952898
 20
207.51037695893581
 30
0.0
 11
50.142103187952898
 21
204.5999999999986
 31
0.0
  0
LINE
  5
5A76
  8
0
 10
50.142103187952898
 20
204.5999999999986
 30
0.0
 11
51.055864637943948
 21
204.02999999999849
 31
0.0
  0
LINE
  5
5A77
  8
0
 10
107.0
 20
196.49049999999849
 30
0.0
 11
107.0
 21
200.5094999999985
 31
0.0
  0
LINE
  5
5A78
  8
2
 10
97.5
 20
200.5094999999985
 30
0.0
 11
106.87263623000869
 21
200.5094999999985
 31
0.0
  0
LINE
  5
5A79
  8
2
 10
97.5
 20
196.49049999999849
 30
0.0
 11
106.87263623000869
 21
196.49049999999849
 31
0.0
  0
LINE
  5
5B1A
  8
1
 10
61.00000000000005
 20
335.99999999999852
 30
0.0
 11
61.00000000000005
 21
355.99999999999852
 31
0.0
  0
LINE
  5
5B1B
  8
1
 10
45.000000000000163
 20
345.99999999999852
 30
0.0
 11
140.0
 21
345.99999999999852
 31
0.0
  0
LINE
  5
5B1C
  8
1
 10
92.500000000000057
 20
298.4999999999971
 30
0.0
 11
92.5
 21
393.4999999999971
 31
0.0
  0
CIRCLE
  5
5B1D
  8
0
 10
92.500000000000057
 20
345.99999999999852
 30
0.0
 40
13.321796769724489
  0
CIRCLE
  5
5B1E
  8
0
 10
92.500000000000057
 20
345.99999999999852
 30
0.0
 40
20.25
  0
CIRCLE
  5
5B1F
  8
0
 10
92.500000000000057
 20
345.99999999999852
 30
0.0
 40
40.499999999999993
  0
CIRCLE
  5
5B20
  8
0
 10
92.500000000000057
 20
345.99999999999852
 30
0.0
 40
41.5
  0
CIRCLE
  5
5B22
  8
0
 10
61.00000000000005
 20
345.99999999999852
 30
0.0
 40
8.0000000000000266
  0
ARC
  5
5B23
  8
0
 10
92.499999999996305
 20
345.99999999999812
 30
0.0
 40
42.499999999996241
 50
184.68668925421721
 51
191.6769471094205
  0
ARC
  5
5B24
  8
0
 10
92.499999999998565
 20
345.99999999999852
 30
0.0
 40
42.499999999998522
 50
176.5048710723992
 51
183.4951289276006
  0
ARC
  5
5B25
  8
0
 10
92.500000000003297
 20
345.99999999999937
 30
0.0
 40
42.500000000003332
 50
192.86850743603651
 51
199.85876529123411
  0
ARC
  5
5B26
  8
0
 10
92.500000000000171
 20
345.99999999999852
 30
0.0
 40
42.500000000000099
 50
168.32305289057939
 51
175.3133107457827
  0
ARC
  5
5B27
  8
0
 10
92.499999999999844
 20
345.99999999999841
 30
0.0
 40
42.499999999999773
 50
201.05032561785339
 51
208.04058347305431
  0
ARC
  5
5B28
  8
0
 10
92.499999999998707
 20
345.99999999999892
 30
0.0
 40
42.4999999999986
 50
160.14123470876149
 51
167.13149256396329
  0
ARC
  5
5B29
  8
0
 10
92.499999999998465
 20
345.99999999999761
 30
0.0
 40
42.499999999998138
 50
209.23214379967371
 51
216.22240165487091
  0
ARC
  5
5B2A
  8
0
 10
92.499999999998749
 20
345.99999999999909
 30
0.0
 40
42.499999999998572
 50
151.95941652694569
 51
158.94967438214661
  0
ARC
  5
5B2B
  8
0
 10
92.499999999997669
 20
345.99999999999648
 30
0.0
 40
42.499999999996852
 50
217.41396198149181
 51
224.40421983668929
  0
ARC
  5
5B2C
  8
0
 10
92.500000000001535
 20
345.9999999999975
 30
0.0
 40
42.500000000001762
 50
143.77759834512909
 51
150.76785620032621
  0
ARC
  5
5B2D
  8
0
 10
92.500000000001975
 20
346.00000000000068
 30
0.0
 40
42.500000000002899
 50
225.59578016330701
 51
232.58603801850779
  0
ARC
  5
5B2E
  8
0
 10
92.499999999996476
 20
346.00000000000159
 30
0.0
 40
42.499999999995246
 50
135.5957801633096
 51
142.58603801850819
  0
ARC
  5
5B2F
  8
0
 10
92.500000000001421
 20
346.0000000000008
 30
0.0
 40
42.500000000002608
 50
233.77759834512909
 51
240.76785620032629
  0
ARC
  5
5B30
  8
0
 10
92.500000000002046
 20
345.99999999999631
 30
0.0
 40
42.50000000000297
 50
127.41396198149221
 51
134.40421983669179
  0
ARC
  5
5B31
  8
0
 10
92.499999999997769
 20
345.99999999999352
 30
0.0
 40
42.499999999994508
 50
241.95941652694489
 51
248.94967438214621
  0
ARC
  5
5B32
  8
0
 10
92.50000000000415
 20
345.99999999999233
 30
0.0
 40
42.500000000007518
 50
119.23214379967369
 51
126.22240165487089
  0
ARC
  5
5B33
  8
0
 10
92.500000000001194
 20
346.00000000000261
 30
0.0
 40
42.500000000004199
 50
250.1412347087622
 51
257.13149256396338
  0
ARC
  5
5B34
  8
0
 10
92.499999999999375
 20
345.99999999999989
 30
0.0
 40
42.499999999998472
 50
111.0503256178538
 51
118.04058347305509
  0
ARC
  5
5B35
  8
0
 10
92.499999999999474
 20
345.99999999999471
 30
0.0
 40
42.499999999996042
 50
258.3230528905795
 51
265.3133107457827
  0
ARC
  5
5B36
  8
0
 10
92.499999999999943
 20
345.99999999999892
 30
0.0
 40
42.49999999999968
 50
102.86850743603659
 51
109.8587652912378
  0
ARC
  5
5B37
  8
0
 10
92.500000000000114
 20
345.9999999999971
 30
0.0
 40
42.499999999998543
 50
266.50487107239923
 51
273.49512892760077
  0
ARC
  5
5B38
  8
0
 10
92.5
 20
345.99999999999869
 30
0.0
 40
42.499999999999709
 50
94.686689254217328
 51
101.6769471094172
  0
ARC
  5
5B39
  8
0
 10
92.499999999999716
 20
346.00000000000102
 30
0.0
 40
42.500000000002473
 50
274.68668925421741
 51
281.6769471094172
  0
ARC
  5
5B3A
  8
0
 10
92.500000000000057
 20
345.99999999999631
 30
0.0
 40
42.500000000002288
 50
86.504871072399197
 51
93.495128927600788
  0
ARC
  5
5B3B
  8
0
 10
92.499999999999844
 20
345.9999999999992
 30
0.0
 40
42.500000000000682
 50
282.86850743603651
 51
289.85876529123777
  0
ARC
  5
5B3C
  8
0
 10
92.499999999999943
 20
345.9999999999979
 30
0.0
 40
42.500000000000711
 50
78.323052890582815
 51
85.313310745782658
  0
ARC
  5
5B3D
  8
0
 10
92.500000000000696
 20
345.99999999999733
 30
0.0
 40
42.499999999998572
 50
291.05032561785379
 51
298.04058347305511
  0
ARC
  5
5B3E
  8
0
 10
92.499999999999275
 20
345.99999999999568
 30
0.0
 40
42.500000000002927
 50
70.141234708762212
 51
77.131492563963405
  0
ARC
  5
5B3F
  8
0
 10
92.500000000000696
 20
345.99999999999761
 30
0.0
 40
42.49999999999892
 50
299.23214379967368
 51
306.222401654875
  0
ARC
  5
5B40
  8
0
 10
92.500000000001819
 20
346.0000000000025
 30
0.0
 40
42.49999999999568
 50
61.959416526944857
 51
68.949674382146213
  0
ARC
  5
5B41
  8
0
 10
92.500000000000284
 20
345.99999999999829
 30
0.0
 40
42.499999999999631
 50
307.41396198149221
 51
314.40421983669302
  0
ARC
  5
5B42
  8
0
 10
92.499999999997669
 20
345.99999999999488
 30
0.0
 40
42.500000000004363
 50
53.777598345129107
 51
60.76785620032625
  0
ARC
  5
5B43
  8
0
 10
92.500000000001265
 20
345.9999999999975
 30
0.0
 40
42.499999999998423
 50
315.59578016331068
 51
322.58603801850819
  0
ARC
  5
5B44
  8
0
 10
92.499999999999886
 20
345.99999999999829
 30
0.0
 40
42.500000000000291
 50
45.595780163306998
 51
52.58603801850775
  0
ARC
  5
5B45
  8
0
 10
92.500000000002316
 20
345.9999999999971
 30
0.0
 40
42.499999999997243
 50
323.77759834512909
 51
330.76785620032632
  0
ARC
  5
5B46
  8
0
 10
92.500000000000895
 20
345.99999999999932
 30
0.0
 40
42.499999999998849
 50
37.413961981491781
 51
44.404219836689229
  0
ARC
  5
5B47
  8
0
 10
92.500000000004718
 20
345.99999999999648
 30
0.0
 40
42.499999999994913
 50
331.95941652694557
 51
338.94967438214661
  0
ARC
  5
5B48
  8
0
 10
92.499999999997954
 20
345.9999999999971
 30
0.0
 40
42.500000000002551
 50
29.23214379967375
 51
36.222401654870879
  0
ARC
  5
5B49
  8
0
 10
92.499999999996817
 20
345.99999999999949
 30
0.0
 40
42.500000000003361
 50
340.14123470876189
 51
347.13149256396332
  0
ARC
  5
5B4A
  8
0
 10
92.499999999997726
 20
345.9999999999975
 30
0.0
 40
42.500000000002579
 50
21.050325617853389
 51
28.040583473054259
  0
ARC
  5
5B4B
  8
0
 10
92.499999999998636
 20
345.99999999999869
 30
0.0
 40
42.500000000001428
 50
348.32305289057939
 51
355.31331074578259
  0
ARC
  5
5B4C
  8
0
 10
92.499999999998295
 20
345.99999999999812
 30
0.0
 40
42.50000000000184
 50
12.868507436036589
 51
19.858765291238051
  0
ARC
  5
5B4D
  8
0
 10
92.500000000001265
 20
345.99999999999869
 30
0.0
 40
42.49999999999882
 50
356.50487107239928
 51
3.4951289276007729
  0
ARC
  5
5B4E
  8
0
 10
92.499999999999133
 20
345.99999999999841
 30
0.0
 40
42.500000000000881
 50
4.6866892542172973
 51
11.67694710942059
  0
LINE
  5
5B4F
  8
0
 10
50.142103187952962
 20
349.47254627902339
 30
0.0
 11
51.055864637944069
 21
348.96414306192679
 31
0.0
  0
LINE
  5
5B50
  8
0
 10
51.055864637944069
 20
348.96414306192679
 30
0.0
 11
50.079050640359917
 21
348.59095646949919
 31
0.0
  0
LINE
  5
5B51
  8
0
 10
51.067440364551722
 20
355.46535799930422
 30
0.0
 11
51.899547718898482
 21
354.83208778092478
 31
0.0
  0
LINE
  5
5B52
  8
0
 10
51.899547718898482
 20
354.83208778092478
 30
0.0
 11
50.879566289813113
 21
354.6017148160069
 31
0.0
  0
LINE
  5
5B53
  8
0
 10
52.836224973692822
 20
361.2654823265575
 30
0.0
 11
53.569738926260072
 21
360.52023666234118
 31
0.0
  0
LINE
  5
5B54
  8
0
 10
53.569738926260072
 20
360.52023666234118
 30
0.0
 11
52.527353946186167
 21
360.43736705415768
 31
0.0
  0
LINE
  5
5B55
  8
0
 10
55.412449661487592
 20
366.75484545565791
 30
0.0
 11
56.03243798348069
 21
365.91279539821699
 31
0.0
  0
LINE
  5
5B56
  8
0
 10
56.03243798348069
 20
365.91279539821699
 30
0.0
 11
54.988869404622562
 21
365.97911613301437
 31
0.0
  0
LINE
  5
5B57
  8
0
 10
58.743669922511167
 20
371.82169978331302
 30
0.0
 11
59.237511439592993
 21
370.89998704354502
 31
0.0
  0
LINE
  5
5B58
  8
0
 10
59.237511439592993
 20
370.89998704354502
 30
0.0
 11
58.214003308812828
 21
371.11414802241609
 31
0.0
  0
LINE
  5
5B59
  8
0
 10
62.76207171869504
 20
376.36289876701289
 30
0.0
 11
63.119713241699174
 21
375.38028675829969
 31
0.0
  0
LINE
  5
5B5A
  8
0
 10
63.119713241699174
 20
375.38028675829969
 30
0.0
 11
62.137101232985962
 21
375.73792828130382
 31
0.0
  0
LINE
  5
5B5B
  8
0
 10
67.385851977582718
 20
380.28599669118591
 30
0.0
 11
67.600012956453725
 21
379.26248856040581
 31
0.0
  0
LINE
  5
5B5C
  8
0
 10
67.600012956453725
 20
379.26248856040581
 30
0.0
 11
66.678300216685884
 21
379.75633007748758
 31
0.0
  0
LINE
  5
5B5D
  8
0
 10
72.520883866984491
 20
383.51113059537607
 30
0.0
 11
72.587204601781877
 21
382.467562016518
 31
0.0
  0
LINE
  5
5B5E
  8
0
 10
72.587204601781877
 20
382.467562016518
 30
0.0
 11
71.745154544340949
 21
383.08755033851122
 31
0.0
  0
LINE
  5
5B5F
  8
0
 10
78.062632945841244
 20
385.97264605381253
 30
0.0
 11
77.979763337657687
 21
384.93026107373862
 31
0.0
  0
LINE
  5
5B60
  8
0
 10
77.979763337657687
 20
384.93026107373862
 30
0.0
 11
77.23451767344136
 21
385.66377502630593
 31
0.0
  0
LINE
  5
5B61
  8
0
 10
83.898285183992115
 20
387.62043371018558
 30
0.0
 11
83.667912219074026
 21
386.60045228110022
 31
0.0
  0
LINE
  5
5B62
  8
0
 10
83.667912219074026
 20
386.60045228110022
 30
0.0
 11
83.034642000694745
 21
387.43255963544698
 31
0.0
  0
LINE
  5
5B63
  8
0
 10
89.909043530499545
 20
388.42094935963871
 30
0.0
 11
89.535856938072016
 21
387.44413536205468
 31
0.0
  0
LINE
  5
5B64
  8
0
 10
89.535856938072016
 20
387.44413536205468
 30
0.0
 11
89.027453720975544
 21
388.35789681204579
 31
0.0
  0
LINE
  5
5B65
  8
0
 10
95.972546279024755
 20
388.35789681204562
 30
0.0
 11
95.464143061928155
 21
387.44413536205462
 31
0.0
  0
LINE
  5
5B66
  8
0
 10
95.464143061928155
 20
387.44413536205462
 30
0.0
 11
95.090956469500611
 21
388.42094935963871
 31
0.0
  0
LINE
  5
5B67
  8
0
 10
101.9653579993055
 20
387.43255963544692
 30
0.0
 11
101.3320877809262
 21
386.60045228110022
 31
0.0
  0
LINE
  5
5B68
  8
0
 10
101.3320877809262
 20
386.60045228110022
 30
0.0
 11
101.1017148160082
 21
387.62043371018552
 31
0.0
  0
LINE
  5
5B69
  8
0
 10
107.7654823265588
 20
385.66377502630593
 30
0.0
 11
107.0202366623426
 21
384.93026107373862
 31
0.0
  0
LINE
  5
5B6A
  8
0
 10
107.0202366623426
 20
384.93026107373862
 30
0.0
 11
106.9373670541591
 21
385.97264605381253
 31
0.0
  0
LINE
  5
5B6B
  8
0
 10
113.25484545565929
 20
383.08755033851111
 30
0.0
 11
112.41279539821841
 21
382.467562016518
 31
0.0
  0
LINE
  5
5B6C
  8
0
 10
112.41279539821841
 20
382.467562016518
 30
0.0
 11
112.47911613301579
 21
383.51113059537607
 31
0.0
  0
LINE
  5
5B6D
  8
0
 10
118.3216997833143
 20
379.75633007748752
 30
0.0
 11
117.3999870435465
 21
379.2624885604057
 31
0.0
  0
LINE
  5
5B6E
  8
0
 10
117.3999870435465
 20
379.2624885604057
 30
0.0
 11
117.6141480224175
 21
380.2859966911858
 31
0.0
  0
LINE
  5
5B6F
  8
0
 10
122.8628987670142
 20
375.73792828130371
 30
0.0
 11
121.8802867583011
 21
375.38028675829958
 31
0.0
  0
LINE
  5
5B70
  8
0
 10
121.8802867583011
 20
375.38028675829958
 30
0.0
 11
122.2379282813052
 21
376.36289876701272
 31
0.0
  0
LINE
  5
5B71
  8
0
 10
126.78599669118729
 20
371.11414802241597
 30
0.0
 11
125.76248856040721
 21
370.89998704354491
 31
0.0
  0
LINE
  5
5B72
  8
0
 10
125.76248856040721
 20
370.89998704354491
 30
0.0
 11
126.256330077489
 21
371.82169978331279
 31
0.0
  0
LINE
  5
5B73
  8
0
 10
130.01113059537749
 20
365.97911613301432
 30
0.0
 11
128.96756201651951
 21
365.91279539821687
 31
0.0
  0
LINE
  5
5B74
  8
0
 10
128.96756201651951
 20
365.91279539821687
 30
0.0
 11
129.58755033851261
 21
366.75484545565769
 31
0.0
  0
LINE
  5
5B75
  8
0
 10
132.47264605381389
 20
360.43736705415739
 30
0.0
 11
131.4302610737401
 21
360.52023666234101
 31
0.0
  0
LINE
  5
5B76
  8
0
 10
131.4302610737401
 20
360.52023666234101
 30
0.0
 11
132.16377502630741
 21
361.26548232655728
 31
0.0
  0
LINE
  5
5B77
  8
0
 10
134.120433710187
 20
354.60171481600662
 30
0.0
 11
133.1004522811017
 21
354.83208778092461
 31
0.0
  0
LINE
  5
5B78
  8
0
 10
133.1004522811017
 20
354.83208778092461
 30
0.0
 11
133.9325596354484
 21
355.46535799930388
 31
0.0
  0
LINE
  5
5B79
  8
0
 10
134.9209493596401
 20
348.59095646949902
 30
0.0
 11
133.9441353620561
 21
348.96414306192662
 31
0.0
  0
LINE
  5
5B7A
  8
0
 10
133.9441353620561
 20
348.96414306192662
 30
0.0
 11
134.8578968120471
 21
349.47254627902322
 31
0.0
  0
LINE
  5
5B7B
  8
0
 10
134.8578968120471
 20
342.52745372097382
 30
0.0
 11
133.94413536205599
 21
343.03585693807031
 31
0.0
  0
LINE
  5
5B7C
  8
0
 10
133.94413536205599
 20
343.03585693807031
 30
0.0
 11
134.9209493596401
 21
343.40904353049791
 31
0.0
  0
LINE
  5
5B7D
  8
0
 10
133.9325596354484
 20
336.534642000693
 30
0.0
 11
133.1004522811017
 21
337.16791221907232
 31
0.0
  0
LINE
  5
5B7E
  8
0
 10
133.1004522811017
 20
337.16791221907232
 30
0.0
 11
134.120433710187
 21
337.39828518399031
 31
0.0
  0
LINE
  5
5B7F
  8
0
 10
132.16377502630729
 20
330.73451767343971
 30
0.0
 11
131.43026107374001
 21
331.47976333765598
 31
0.0
  0
LINE
  5
5B80
  8
0
 10
131.43026107374001
 20
331.47976333765598
 30
0.0
 11
132.47264605381389
 21
331.56263294583948
 31
0.0
  0
LINE
  5
5B81
  8
0
 10
129.58755033851261
 20
325.24515454433919
 30
0.0
 11
128.96756201651951
 21
326.08720460178012
 31
0.0
  0
LINE
  5
5B82
  8
0
 10
128.96756201651951
 20
326.08720460178012
 30
0.0
 11
130.01113059537749
 21
326.02088386698267
 31
0.0
  0
LINE
  5
5B83
  8
0
 10
126.2563300774889
 20
320.17830021668419
 30
0.0
 11
125.76248856040711
 21
321.10001295645202
 31
0.0
  0
LINE
  5
5B84
  8
0
 10
125.76248856040711
 20
321.10001295645202
 30
0.0
 11
126.78599669118719
 21
320.88585197758101
 31
0.0
  0
LINE
  5
5B85
  8
0
 10
122.2379282813051
 20
315.63710123298421
 30
0.0
 11
121.880286758301
 21
316.61971324169753
 31
0.0
  0
LINE
  5
5B86
  8
0
 10
121.880286758301
 20
316.61971324169753
 30
0.0
 11
122.8628987670142
 21
316.26207171869328
 31
0.0
  0
LINE
  5
5B87
  8
0
 10
117.6141480224174
 20
311.7140033088113
 30
0.0
 11
117.3999870435464
 21
312.73751143959129
 31
0.0
  0
LINE
  5
5B88
  8
0
 10
117.3999870435464
 20
312.73751143959129
 30
0.0
 11
118.3216997833143
 21
312.24366992250953
 31
0.0
  0
LINE
  5
5B89
  8
0
 10
112.47911613301569
 20
308.48886940462091
 30
0.0
 11
112.41279539821829
 21
309.53243798347899
 31
0.0
  0
LINE
  5
5B8A
  8
0
 10
112.41279539821829
 20
309.53243798347899
 30
0.0
 11
113.25484545565919
 21
308.91244966148599
 31
0.0
  0
LINE
  5
5B8B
  8
0
 10
106.937367054159
 20
306.02735394618458
 30
0.0
 11
107.0202366623425
 21
307.06973892625842
 31
0.0
  0
LINE
  5
5B8C
  8
0
 10
107.0202366623425
 20
307.06973892625842
 30
0.0
 11
107.7654823265588
 21
306.33622497369117
 31
0.0
  0
LINE
  5
5B8D
  8
0
 10
101.101714816008
 20
304.37956628981158
 30
0.0
 11
101.3320877809261
 21
305.39954771889688
 31
0.0
  0
LINE
  5
5B8E
  8
0
 10
101.3320877809261
 20
305.39954771889688
 30
0.0
 11
101.9653579993054
 21
304.56744036455018
 31
0.0
  0
LINE
  5
5B8F
  8
0
 10
95.090956469500441
 20
303.57905064035828
 30
0.0
 11
95.464143061928041
 21
304.55586463794248
 31
0.0
  0
LINE
  5
5B90
  8
0
 10
95.464143061928041
 20
304.55586463794248
 30
0.0
 11
95.972546279024584
 21
303.64210318795142
 31
0.0
  0
LINE
  5
5B91
  8
0
 10
89.027453720975302
 20
303.64210318795142
 30
0.0
 11
89.535856938071845
 21
304.55586463794248
 31
0.0
  0
LINE
  5
5B92
  8
0
 10
89.535856938071845
 20
304.55586463794248
 30
0.0
 11
89.909043530499446
 21
303.57905064035828
 31
0.0
  0
LINE
  5
5B93
  8
0
 10
83.034642000694546
 20
304.56744036455018
 30
0.0
 11
83.667912219073798
 21
305.39954771889688
 31
0.0
  0
LINE
  5
5B94
  8
0
 10
83.667912219073798
 20
305.39954771889688
 30
0.0
 11
83.898285183991845
 21
304.37956628981158
 31
0.0
  0
LINE
  5
5B95
  8
0
 10
77.234517673441076
 20
306.33622497369117
 30
0.0
 11
77.979763337657403
 21
307.06973892625842
 31
0.0
  0
LINE
  5
5B96
  8
0
 10
77.979763337657403
 20
307.06973892625842
 30
0.0
 11
78.062632945840903
 21
306.02735394618469
 31
0.0
  0
LINE
  5
5B97
  8
0
 10
71.745154544340664
 20
308.91244966148599
 30
0.0
 11
72.587204601781593
 21
309.5324379834791
 31
0.0
  0
LINE
  5
5B98
  8
0
 10
72.587204601781593
 20
309.5324379834791
 30
0.0
 11
72.520883866984207
 21
308.48886940462103
 31
0.0
  0
LINE
  5
5B99
  8
0
 10
66.678300216685614
 20
312.24366992250958
 30
0.0
 11
67.600012956453554
 21
312.73751143959151
 31
0.0
  0
LINE
  5
5B9A
  8
0
 10
67.600012956453554
 20
312.73751143959151
 30
0.0
 11
67.38585197758249
 21
311.71400330881141
 31
0.0
  0
LINE
  5
5B9B
  8
0
 10
62.137101232985799
 20
316.26207171869351
 30
0.0
 11
63.119713241698882
 21
316.61971324169758
 31
0.0
  0
LINE
  5
5B9C
  8
0
 10
63.119713241698882
 20
316.61971324169758
 30
0.0
 11
62.762071718694813
 21
315.63710123298438
 31
0.0
  0
LINE
  5
5B9D
  8
0
 10
58.214003308812657
 20
320.88585197758118
 30
0.0
 11
59.237511439592879
 21
321.10001295645208
 31
0.0
  0
LINE
  5
5B9E
  8
0
 10
59.237511439592879
 20
321.10001295645208
 30
0.0
 11
58.743669922510939
 21
320.17830021668431
 31
0.0
  0
LINE
  5
5B9F
  8
0
 10
54.988869404622449
 20
326.0208838669829
 30
0.0
 11
56.03243798348057
 21
326.08720460178029
 31
0.0
  0
LINE
  5
5BA0
  8
0
 10
56.03243798348057
 20
326.08720460178029
 30
0.0
 11
55.412449661487472
 21
325.24515454433941
 31
0.0
  0
LINE
  5
5BA1
  8
0
 10
52.527353946186111
 20
331.56263294583971
 30
0.0
 11
53.569738926259959
 21
331.4797633376561
 31
0.0
  0
LINE
  5
5BA2
  8
0
 10
53.569738926259959
 20
331.4797633376561
 30
0.0
 11
52.836224973692651
 21
330.73451767343971
 31
0.0
  0
LINE
  5
5BA3
  8
0
 10
50.879566289813113
 20
337.39828518399048
 30
0.0
 11
51.899547718898418
 21
337.16791221907249
 31
0.0
  0
LINE
  5
5BA4
  8
0
 10
51.899547718898418
 20
337.16791221907249
 30
0.0
 11
51.067440364551651
 21
336.53464200069322
 31
0.0
  0
LINE
  5
5BA5
  8
0
 10
50.079050640359917
 20
343.40904353049808
 30
0.0
 11
51.055864637944069
 21
343.03585693807048
 31
0.0
  0
LINE
  5
5BA6
  8
0
 10
51.055864637944069
 20
343.03585693807048
 30
0.0
 11
50.142103187952898
 21
342.52745372097399
 31
0.0
  0
LINE
  5
5BF3
  8
3
 10
106.87263623000869
 20
200.5094999999985
 30
0.0
 11
107.0
 21
200.5094999999985
 31
0.0
  0
LINE
  5
5BF4
  8
3
 10
107.0
 20
196.49049999999849
 30
0.0
 11
106.87263623000869
 21
196.49049999999849
 31
0.0
  0
LINE
  5
5BF5
  8
2
 10
84.499999999999929
 20
222.99999999999849
 30
0.0
 11
84.500000000000014
 21
192.79999999999859
 31
0.0
  0
LINE
  5
5BF6
  8
2
 10
100.5
 20
195.99999999999849
 30
0.0
 11
100.5
 21
192.79999999999859
 31
0.0
  0
LINE
  5
5C42
  8
2
 10
87.499999999999886
 20
214.49999999999849
 30
0.0
 11
92.5
 21
217.38675134594661
 31
0.0
  0
LINE
  5
5C43
  8
2
 10
97.500000000000114
 20
214.49999999999849
 30
0.0
 11
92.5
 21
217.38675134594661
 31
0.0
  0
CIRCLE
  5
5C48
  8
2
 10
92.500000000000057
 20
345.99999999999852
 30
0.0
 40
5.000000000000056
  0
CIRCLE
  5
5C49
  8
2
 10
92.500000000000057
 20
345.99999999999852
 30
0.0
 40
8.0000000000000568
  0
CIRCLE
  5
5C4A
  8
2
 10
92.500000000000057
 20
345.99999999999852
 30
0.0
 40
14.5
  0
LINE
  5
5C68
  8
2
 10
106.73144232385761
 20
348.77777777777618
 30
0.0
 11
100.00226303306439
 21
348.77777777777618
 31
0.0
  0
LINE
  5
5C69
  8
2
 10
100.00226303306439
 20
343.22222222222081
 30
0.0
 11
106.73144232385761
 21
343.22222222222081
 31
0.0
  0
LINE
  5
5C6A
  8
2
 10
107.0
 20
348.00949999999852
 30
0.0
 11
106.5095
 21
348.49999999999852
 31
0.0
  0
LINE
  5
5C6B
  8
2
 10
106.5095
 20
343.49999999999852
 30
0.0
 11
107.0
 21
343.99049999999852
 31
0.0
  0
LINE
  5
5C6C
  8
2
 10
97.990500000000054
 20
348.49999999999852
 30
0.0
 11
97.500000000000071
 21
348.00949999999852
 31
0.0
  0
LINE
  5
5C6D
  8
2
 10
97.500000000000071
 20
343.99049999999852
 30
0.0
 11
97.990500000000111
 21
343.49999999999852
 31
0.0
  0
LINE
  5
5C6E
  8
2
 10
106.5095
 20
348.49999999999852
 30
0.0
 11
97.990500000000111
 21
348.49999999999852
 31
0.0
  0
LINE
  5
5C6F
  8
2
 10
97.990500000000168
 20
343.49999999999852
 30
0.0
 11
106.5095
 21
343.49999999999852
 31
0.0
  0
LINE
  5
5C70
  8
2
 10
97.990500000000054
 20
348.49999999999852
 30
0.0
 11
97.990500000000054
 21
343.49999999999852
 31
0.0
  0
LINE
  5
5C71
  8
2
 10
106.5095
 20
343.49999999999852
 30
0.0
 11
106.5095
 21
348.49999999999852
 31
0.0
  0
LINE
  5
5C72
  8
2
 10
107.0
 20
347.44337567297259
 30
0.0
 11
103.8333333333333
 21
347.44337567297259
 31
0.0
  0
LINE
  5
5C73
  8
2
 10
107.0
 20
346.72168783648561
 30
0.0
 11
103.8333333333333
 21
346.72168783648561
 31
0.0
  0
LINE
  5
5C74
  8
2
 10
107.0
 20
344.55662432702451
 30
0.0
 11
103.8333333333333
 21
344.55662432702451
 31
0.0
  0
LINE
  5
5C75
  8
2
 10
107.0
 20
345.27831216351149
 30
0.0
 11
103.8333333333333
 21
345.27831216351149
 31
0.0
  0
LINE
  5
5C76
  8
2
 10
103.8333333333333
 20
347.44337567297259
 30
0.0
 11
103.8333333333333
 21
344.55662432702451
 31
0.0
  0
LINE
  5
5C7A
  8
2
 10
107.0
 20
343.99049999999852
 30
0.0
 11
107.0
 21
348.00949999999852
 31
0.0
  0
LINE
  5
5C7B
  8
2
 10
97.500000000000071
 20
348.00949999999852
 30
0.0
 11
107.0000000000001
 21
348.00949999999852
 31
0.0
  0
LINE
  5
5C7C
  8
2
 10
97.500000000000071
 20
343.99049999999852
 30
0.0
 11
107.0000000000001
 21
343.99049999999852
 31
0.0
  0
LINE
  5
5C7F
  8
2
 10
97.500000000000071
 20
348.00949999999852
 30
0.0
 11
97.500000000000071
 21
343.99049999999852
 31
0.0
  0
LINE
  5
5D2D
  8
1
 10
45.000000000000107
 20
92.500000000000028
 30
0.0
 11
140.0
 21
92.500000000000028
 31
0.0
  0
LINE
  5
5D2E
  8
1
 10
92.500000000000057
 20
44.9999999999986
 30
0.0
 11
92.499999999999943
 21
139.99999999999849
 31
0.0
  0
CIRCLE
  5
5D31
  8
0
 10
92.5
 20
92.500000000000028
 30
0.0
 40
40.499999999999993
  0
CIRCLE
  5
5D32
  8
0
 10
92.5
 20
92.500000000000028
 30
0.0
 40
41.5
  0
ARC
  5
5D34
  8
0
 10
92.499999999996248
 20
92.499999999999517
 30
0.0
 40
42.499999999996241
 50
184.68668925421721
 51
191.6769471094205
  0
ARC
  5
5D35
  8
0
 10
92.499999999998522
 20
92.500000000000028
 30
0.0
 40
42.499999999998522
 50
176.5048710723992
 51
183.4951289276006
  0
ARC
  5
5D36
  8
0
 10
92.500000000003254
 20
92.500000000000881
 30
0.0
 40
42.500000000003332
 50
192.86850743603651
 51
199.85876529123411
  0
ARC
  5
5D37
  8
0
 10
92.500000000000114
 20
92.500000000000028
 30
0.0
 40
42.500000000000099
 50
168.32305289057939
 51
175.3133107457827
  0
ARC
  5
5D38
  8
0
 10
92.499999999999758
 20
92.499999999999915
 30
0.0
 40
42.499999999999773
 50
201.05032561785339
 51
208.0405834730548
  0
ARC
  5
5D39
  8
0
 10
92.499999999998636
 20
92.500000000000369
 30
0.0
 40
42.4999999999986
 50
160.14123470876191
 51
167.13149256396329
  0
ARC
  5
5D3A
  8
0
 10
92.499999999998408
 20
92.499999999999005
 30
0.0
 40
42.499999999998138
 50
209.23214379967371
 51
216.22240165487091
  0
ARC
  5
5D3B
  8
0
 10
92.499999999998707
 20
92.500000000000597
 30
0.0
 40
42.499999999998572
 50
151.95941652694509
 51
158.94967438214661
  0
ARC
  5
5D3C
  8
0
 10
92.499999999997613
 20
92.499999999997996
 30
0.0
 40
42.499999999996852
 50
217.41396198149181
 51
224.40421983668929
  0
ARC
  5
5D3D
  8
0
 10
92.500000000001464
 20
92.499999999999005
 30
0.0
 40
42.500000000001762
 50
143.77759834512841
 51
150.76785620032621
  0
ARC
  5
5D3E
  8
0
 10
92.500000000001933
 20
92.500000000002174
 30
0.0
 40
42.500000000002899
 50
225.59578016330701
 51
232.58603801850779
  0
ARC
  5
5D3F
  8
0
 10
92.499999999996419
 20
92.500000000003098
 30
0.0
 40
42.499999999995246
 50
135.59578016331071
 51
142.58603801850819
  0
ARC
  5
5D40
  8
0
 10
92.500000000001364
 20
92.500000000002174
 30
0.0
 40
42.500000000002608
 50
233.77759834512909
 51
240.76785620032629
  0
ARC
  5
5D41
  8
0
 10
92.500000000001975
 20
92.499999999997755
 30
0.0
 40
42.50000000000297
 50
127.41396198149221
 51
134.40421983669299
  0
ARC
  5
5D42
  8
0
 10
92.499999999997726
 20
92.499999999995026
 30
0.0
 40
42.499999999994508
 50
241.95941652694489
 51
248.94967438214621
  0
ARC
  5
5D43
  8
0
 10
92.500000000004107
 20
92.499999999993648
 30
0.0
 40
42.500000000007518
 50
119.23214379967369
 51
126.22240165487089
  0
ARC
  5
5D44
  8
0
 10
92.500000000001137
 20
92.500000000004064
 30
0.0
 40
42.500000000004199
 50
250.1412347087622
 51
257.13149256396338
  0
ARC
  5
5D45
  8
0
 10
92.499999999999318
 20
92.500000000001407
 30
0.0
 40
42.499999999998472
 50
111.0503256178538
 51
118.04058347305509
  0
ARC
  5
5D46
  8
0
 10
92.499999999999432
 20
92.499999999996049
 30
0.0
 40
42.499999999996042
 50
258.3230528905795
 51
265.3133107457827
  0
ARC
  5
5D47
  8
0
 10
92.499999999999886
 20
92.500000000000256
 30
0.0
 40
42.49999999999968
 50
102.86850743603659
 51
109.8587652912378
  0
ARC
  5
5D48
  8
0
 10
92.500000000000057
 20
92.499999999998565
 30
0.0
 40
42.499999999998543
 50
266.50487107239923
 51
273.49512892760077
  0
ARC
  5
5D49
  8
0
 10
92.499999999999943
 20
92.500000000000256
 30
0.0
 40
42.499999999999709
 50
94.686689254217328
 51
101.6769471094172
  0
ARC
  5
5D4A
  8
0
 10
92.499999999999659
 20
92.500000000002416
 30
0.0
 40
42.500000000002473
 50
274.68668925421741
 51
281.6769471094172
  0
ARC
  5
5D4B
  8
0
 10
92.5
 20
92.499999999997755
 30
0.0
 40
42.500000000002288
 50
86.504871072399197
 51
93.495128927600788
  0
ARC
  5
5D4C
  8
0
 10
92.499999999999758
 20
92.500000000000654
 30
0.0
 40
42.500000000000682
 50
282.86850743603651
 51
289.85876529123777
  0
ARC
  5
5D4D
  8
0
 10
92.499999999999886
 20
92.499999999999275
 30
0.0
 40
42.500000000000711
 50
78.323052890582815
 51
85.313310745782658
  0
ARC
  5
5D4E
  8
0
 10
92.500000000000625
 20
92.499999999998721
 30
0.0
 40
42.499999999998572
 50
291.05032561785379
 51
298.04058347305511
  0
ARC
  5
5D4F
  8
0
 10
92.499999999999204
 20
92.499999999997186
 30
0.0
 40
42.500000000002927
 50
70.141234708762212
 51
77.131492563963405
  0
ARC
  5
5D50
  8
0
 10
92.500000000000625
 20
92.499999999999119
 30
0.0
 40
42.49999999999892
 50
299.23214379967368
 51
306.222401654875
  0
ARC
  5
5D51
  8
0
 10
92.500000000001748
 20
92.500000000003965
 30
0.0
 40
42.49999999999568
 50
61.959416526944857
 51
68.949674382146213
  0
ARC
  5
5D52
  8
0
 10
92.500000000000227
 20
92.499999999999744
 30
0.0
 40
42.499999999999631
 50
307.41396198149221
 51
314.40421983669302
  0
ARC
  5
5D53
  8
0
 10
92.499999999997613
 20
92.499999999996334
 30
0.0
 40
42.500000000004363
 50
53.777598345129107
 51
60.76785620032625
  0
ARC
  5
5D54
  8
0
 10
92.500000000001194
 20
92.499999999998948
 30
0.0
 40
42.499999999998423
 50
315.59578016331068
 51
322.58603801850819
  0
ARC
  5
5D55
  8
0
 10
92.499999999999844
 20
92.499999999999801
 30
0.0
 40
42.500000000000291
 50
45.595780163306998
 51
52.58603801850775
  0
ARC
  5
5D56
  8
0
 10
92.500000000002274
 20
92.499999999998437
 30
0.0
 40
42.499999999997243
 50
323.77759834512909
 51
330.76785620032632
  0
ARC
  5
5D57
  8
0
 10
92.500000000000853
 20
92.500000000000711
 30
0.0
 40
42.499999999998849
 50
37.413961981491781
 51
44.404219836689229
  0
ARC
  5
5D58
  8
0
 10
92.500000000004675
 20
92.499999999997996
 30
0.0
 40
42.499999999994913
 50
331.95941652694501
 51
338.94967438214661
  0
ARC
  5
5D59
  8
0
 10
92.499999999997897
 20
92.499999999998565
 30
0.0
 40
42.500000000002551
 50
29.23214379967375
 51
36.222401654870879
  0
ARC
  5
5D5A
  8
0
 10
92.49999999999676
 20
92.500000000000938
 30
0.0
 40
42.500000000003361
 50
340.14123470876569
 51
347.13149256396332
  0
ARC
  5
5D5B
  8
0
 10
92.499999999997669
 20
92.499999999998892
 30
0.0
 40
42.500000000002579
 50
21.050325617853389
 51
28.040583473054891
  0
ARC
  5
5D5C
  8
0
 10
92.499999999998565
 20
92.500000000000185
 30
0.0
 40
42.500000000001428
 50
348.32305289057939
 51
355.31331074578259
  0
ARC
  5
5D5D
  8
0
 10
92.499999999998238
 20
92.49999999999946
 30
0.0
 40
42.50000000000184
 50
12.868507436036589
 51
19.858765291234182
  0
ARC
  5
5D5E
  8
0
 10
92.500000000001194
 20
92.500000000000085
 30
0.0
 40
42.49999999999882
 50
356.50487107239928
 51
3.4951289276007729
  0
ARC
  5
5D5F
  8
0
 10
92.499999999999091
 20
92.499999999999915
 30
0.0
 40
42.500000000000881
 50
4.6866892542172973
 51
11.67694710942059
  0
LINE
  5
5D60
  8
0
 10
50.142103187952898
 20
95.972546279024769
 30
0.0
 11
51.055864637944012
 21
95.46414306192824
 31
0.0
  0
LINE
  5
5D61
  8
0
 10
51.055864637944012
 20
95.46414306192824
 30
0.0
 11
50.079050640359867
 21
95.090956469500625
 31
0.0
  0
LINE
  5
5D62
  8
0
 10
51.067440364551651
 20
101.9653579993056
 30
0.0
 11
51.899547718898418
 21
101.3320877809263
 31
0.0
  0
LINE
  5
5D63
  8
0
 10
51.899547718898418
 20
101.3320877809263
 30
0.0
 11
50.879566289813063
 21
101.1017148160082
 31
0.0
  0
LINE
  5
5D64
  8
0
 10
52.836224973692758
 20
107.7654823265589
 30
0.0
 11
53.569738926260008
 21
107.0202366623427
 31
0.0
  0
LINE
  5
5D65
  8
0
 10
53.569738926260008
 20
107.0202366623427
 30
0.0
 11
52.527353946186111
 21
106.937367054159
 31
0.0
  0
LINE
  5
5D66
  8
0
 10
55.412449661487521
 20
113.25484545565929
 30
0.0
 11
56.032437983480641
 21
112.41279539821851
 31
0.0
  0
LINE
  5
5D67
  8
0
 10
56.032437983480641
 20
112.41279539821851
 30
0.0
 11
54.988869404622498
 21
112.47911613301591
 31
0.0
  0
LINE
  5
5D68
  8
0
 10
58.74366992251111
 20
118.3216997833144
 30
0.0
 11
59.237511439592929
 21
117.3999870435465
 31
0.0
  0
LINE
  5
5D69
  8
0
 10
59.237511439592929
 20
117.3999870435465
 30
0.0
 11
58.214003308812778
 21
117.6141480224176
 31
0.0
  0
LINE
  5
5D6A
  8
0
 10
62.762071718694983
 20
122.8628987670143
 30
0.0
 11
63.119713241699117
 21
121.8802867583011
 31
0.0
  0
LINE
  5
5D6B
  8
0
 10
63.119713241699117
 20
121.8802867583011
 30
0.0
 11
62.137101232985913
 21
122.2379282813053
 31
0.0
  0
LINE
  5
5D6C
  8
0
 10
67.385851977582661
 20
126.78599669118741
 30
0.0
 11
67.600012956453654
 21
125.76248856040721
 31
0.0
  0
LINE
  5
5D6D
  8
0
 10
67.600012956453654
 20
125.76248856040721
 30
0.0
 11
66.678300216685841
 21
126.256330077489
 31
0.0
  0
LINE
  5
5D6E
  8
0
 10
72.520883866984434
 20
130.01113059537761
 30
0.0
 11
72.587204601781821
 21
128.96756201651939
 31
0.0
  0
LINE
  5
5D6F
  8
0
 10
72.587204601781821
 20
128.96756201651939
 30
0.0
 11
71.745154544340892
 21
129.5875503385125
 31
0.0
  0
LINE
  5
5D70
  8
0
 10
78.062632945841187
 20
132.47264605381389
 30
0.0
 11
77.97976333765763
 21
131.4302610737401
 31
0.0
  0
LINE
  5
5D71
  8
0
 10
77.97976333765763
 20
131.4302610737401
 30
0.0
 11
77.234517673441303
 21
132.16377502630741
 31
0.0
  0
LINE
  5
5D72
  8
0
 10
83.898285183992073
 20
134.120433710187
 30
0.0
 11
83.667912219073955
 21
133.10045228110161
 31
0.0
  0
LINE
  5
5D73
  8
0
 10
83.667912219073955
 20
133.10045228110161
 30
0.0
 11
83.034642000694703
 21
133.93255963544831
 31
0.0
  0
LINE
  5
5D74
  8
0
 10
89.909043530499503
 20
134.9209493596401
 30
0.0
 11
89.535856938071959
 21
133.94413536205619
 31
0.0
  0
LINE
  5
5D75
  8
0
 10
89.535856938071959
 20
133.94413536205619
 30
0.0
 11
89.027453720975458
 21
134.8578968120471
 31
0.0
  0
LINE
  5
5D76
  8
0
 10
95.972546279024698
 20
134.8578968120471
 30
0.0
 11
95.464143061928098
 21
133.94413536205599
 31
0.0
  0
LINE
  5
5D77
  8
0
 10
95.464143061928098
 20
133.94413536205599
 30
0.0
 11
95.090956469500554
 21
134.9209493596401
 31
0.0
  0
LINE
  5
5D78
  8
0
 10
101.9653579993054
 20
133.93255963544831
 30
0.0
 11
101.3320877809262
 21
133.10045228110161
 31
0.0
  0
LINE
  5
5D79
  8
0
 10
101.3320877809262
 20
133.10045228110161
 30
0.0
 11
101.1017148160081
 21
134.120433710187
 31
0.0
  0
LINE
  5
5D7A
  8
0
 10
107.7654823265588
 20
132.16377502630729
 30
0.0
 11
107.0202366623425
 21
131.43026107374001
 31
0.0
  0
LINE
  5
5D7B
  8
0
 10
107.0202366623425
 20
131.43026107374001
 30
0.0
 11
106.937367054159
 21
132.4726460538138
 31
0.0
  0
LINE
  5
5D7C
  8
0
 10
113.25484545565919
 20
129.5875503385125
 30
0.0
 11
112.41279539821829
 21
128.96756201651939
 31
0.0
  0
LINE
  5
5D7D
  8
0
 10
112.41279539821829
 20
128.96756201651939
 30
0.0
 11
112.47911613301569
 21
130.01113059537761
 31
0.0
  0
LINE
  5
5D7E
  8
0
 10
118.3216997833143
 20
126.2563300774889
 30
0.0
 11
117.3999870435464
 21
125.76248856040711
 31
0.0
  0
LINE
  5
5D7F
  8
0
 10
117.3999870435464
 20
125.76248856040711
 30
0.0
 11
117.6141480224175
 21
126.78599669118719
 31
0.0
  0
LINE
  5
5D80
  8
0
 10
122.8628987670142
 20
122.2379282813051
 30
0.0
 11
121.880286758301
 21
121.880286758301
 31
0.0
  0
LINE
  5
5D81
  8
0
 10
121.880286758301
 20
121.880286758301
 30
0.0
 11
122.2379282813052
 21
122.8628987670141
 31
0.0
  0
LINE
  5
5D82
  8
0
 10
126.78599669118729
 20
117.6141480224174
 30
0.0
 11
125.76248856040711
 21
117.3999870435464
 31
0.0
  0
LINE
  5
5D83
  8
0
 10
125.76248856040711
 20
117.3999870435464
 30
0.0
 11
126.256330077489
 21
118.3216997833142
 31
0.0
  0
LINE
  5
5D84
  8
0
 10
130.01113059537749
 20
112.47911613301569
 30
0.0
 11
128.96756201651951
 21
112.41279539821829
 31
0.0
  0
LINE
  5
5D85
  8
0
 10
128.96756201651951
 20
112.41279539821829
 30
0.0
 11
129.5875503385125
 21
113.25484545565919
 31
0.0
  0
LINE
  5
5D86
  8
0
 10
132.47264605381389
 20
106.9373670541589
 30
0.0
 11
131.4302610737401
 21
107.0202366623425
 31
0.0
  0
LINE
  5
5D87
  8
0
 10
131.4302610737401
 20
107.0202366623425
 30
0.0
 11
132.16377502630729
 21
107.7654823265588
 31
0.0
  0
LINE
  5
5D88
  8
0
 10
134.12043371018689
 20
101.1017148160081
 30
0.0
 11
133.10045228110161
 21
101.3320877809261
 31
0.0
  0
LINE
  5
5D89
  8
0
 10
133.10045228110161
 20
101.3320877809261
 30
0.0
 11
133.93255963544831
 21
101.9653579993054
 31
0.0
  0
LINE
  5
5D8A
  8
0
 10
134.9209493596401
 20
95.090956469500469
 30
0.0
 11
133.94413536205599
 21
95.464143061928056
 31
0.0
  0
LINE
  5
5D8B
  8
0
 10
133.94413536205599
 20
95.464143061928056
 30
0.0
 11
134.8578968120471
 21
95.972546279024613
 31
0.0
  0
LINE
  5
5D8C
  8
0
 10
134.8578968120471
 20
89.027453720975274
 30
0.0
 11
133.94413536205599
 21
89.535856938071817
 31
0.0
  0
LINE
  5
5D8D
  8
0
 10
133.94413536205599
 20
89.535856938071817
 30
0.0
 11
134.9209493596401
 21
89.909043530499403
 31
0.0
  0
LINE
  5
5D8E
  8
0
 10
133.93255963544831
 20
83.034642000694504
 30
0.0
 11
133.10045228110161
 21
83.66791221907377
 31
0.0
  0
LINE
  5
5D8F
  8
0
 10
133.10045228110161
 20
83.66791221907377
 30
0.0
 11
134.12043371018689
 21
83.898285183991817
 31
0.0
  0
LINE
  5
5D90
  8
0
 10
132.16377502630729
 20
77.234517673441161
 30
0.0
 11
131.43026107374001
 21
77.979763337657431
 31
0.0
  0
LINE
  5
5D91
  8
0
 10
131.43026107374001
 20
77.979763337657431
 30
0.0
 11
132.47264605381389
 21
78.062632945840974
 31
0.0
  0
LINE
  5
5D92
  8
0
 10
129.5875503385125
 20
71.74515454434075
 30
0.0
 11
128.96756201651939
 21
72.587204601781565
 31
0.0
  0
LINE
  5
5D93
  8
0
 10
128.96756201651939
 20
72.587204601781565
 30
0.0
 11
130.01113059537749
 21
72.520883866984164
 31
0.0
  0
LINE
  5
5D94
  8
0
 10
126.2563300774889
 20
66.678300216685699
 30
0.0
 11
125.76248856040711
 21
67.600012956453526
 31
0.0
  0
LINE
  5
5D95
  8
0
 10
125.76248856040711
 20
67.600012956453526
 30
0.0
 11
126.78599669118719
 21
67.385851977582462
 31
0.0
  0
LINE
  5
5D96
  8
0
 10
122.2379282813051
 20
62.137101232985771
 30
0.0
 11
121.880286758301
 21
63.119713241698918
 31
0.0
  0
LINE
  5
5D97
  8
0
 10
121.880286758301
 20
63.119713241698918
 30
0.0
 11
122.8628987670141
 21
62.762071718694777
 31
0.0
  0
LINE
  5
5D98
  8
0
 10
117.6141480224174
 20
58.214003308812693
 30
0.0
 11
117.3999870435464
 21
59.237511439592851
 31
0.0
  0
LINE
  5
5D99
  8
0
 10
117.3999870435464
 20
59.237511439592851
 30
0.0
 11
118.3216997833142
 21
58.743669922511032
 31
0.0
  0
LINE
  5
5D9A
  8
0
 10
112.47911613301569
 20
54.98886940462242
 30
0.0
 11
112.41279539821829
 21
56.032437983480492
 31
0.0
  0
LINE
  5
5D9B
  8
0
 10
112.41279539821829
 20
56.032437983480492
 30
0.0
 11
113.25484545565909
 21
55.412449661487443
 31
0.0
  0
LINE
  5
5D9C
  8
0
 10
106.9373670541589
 20
52.527353946186082
 30
0.0
 11
107.0202366623425
 21
53.56973892625993
 31
0.0
  0
LINE
  5
5D9D
  8
0
 10
107.0202366623425
 20
53.56973892625993
 30
0.0
 11
107.7654823265587
 21
52.83622497369268
 31
0.0
  0
LINE
  5
5D9E
  8
0
 10
101.101714816008
 20
50.87956628981302
 30
0.0
 11
101.3320877809261
 21
51.89954771889834
 31
0.0
  0
LINE
  5
5D9F
  8
0
 10
101.3320877809261
 20
51.89954771889839
 30
0.0
 11
101.9653579993054
 21
51.067440364551629
 31
0.0
  0
LINE
  5
5DA0
  8
0
 10
95.090956469500441
 20
50.079050640359839
 30
0.0
 11
95.464143061928041
 21
51.055864637943991
 31
0.0
  0
LINE
  5
5DA1
  8
0
 10
95.464143061928041
 20
51.055864637943991
 30
0.0
 11
95.972546279024584
 21
50.14210318795287
 31
0.0
  0
LINE
  5
5DA2
  8
0
 10
89.027453720975245
 20
50.14210318795292
 30
0.0
 11
89.535856938071788
 21
51.055864637943991
 31
0.0
  0
LINE
  5
5DA3
  8
0
 10
89.535856938071788
 20
51.055864637943991
 30
0.0
 11
89.909043530499389
 21
50.079050640359839
 31
0.0
  0
LINE
  5
5DA4
  8
0
 10
83.034642000694475
 20
51.067440364551679
 30
0.0
 11
83.667912219073756
 21
51.89954771889839
 31
0.0
  0
LINE
  5
5DA5
  8
0
 10
83.667912219073756
 20
51.89954771889839
 30
0.0
 11
83.898285183991788
 21
50.879566289813077
 31
0.0
  0
LINE
  5
5DA6
  8
0
 10
77.234517673441076
 20
52.83622497369268
 30
0.0
 11
77.979763337657403
 21
53.56973892625993
 31
0.0
  0
LINE
  5
5DA7
  8
0
 10
77.979763337657403
 20
53.56973892625993
 30
0.0
 11
78.062632945840903
 21
52.527353946186139
 31
0.0
  0
LINE
  5
5DA8
  8
0
 10
71.745154544340664
 20
55.4124496614875
 30
0.0
 11
72.587204601781593
 21
56.032437983480598
 31
0.0
  0
LINE
  5
5DA9
  8
0
 10
72.587204601781593
 20
56.032437983480598
 30
0.0
 11
72.520883866984207
 21
54.988869404622477
 31
0.0
  0
LINE
  5
5DAA
  8
0
 10
66.678300216685614
 20
58.743669922511032
 30
0.0
 11
67.600012956453483
 21
59.2375114395929
 31
0.0
  0
LINE
  5
5DAB
  8
0
 10
67.600012956453483
 20
59.2375114395929
 30
0.0
 11
67.385851977582433
 21
58.214003308812742
 31
0.0
  0
LINE
  5
5DAC
  8
0
 10
62.137101232985742
 20
62.762071718694898
 30
0.0
 11
63.119713241698882
 21
63.119713241699031
 31
0.0
  0
LINE
  5
5DAD
  8
0
 10
63.119713241698882
 20
63.119713241699031
 30
0.0
 11
62.762071718694763
 21
62.137101232985877
 31
0.0
  0
LINE
  5
5DAE
  8
0
 10
58.214003308812657
 20
67.385851977582632
 30
0.0
 11
59.237511439592822
 21
67.600012956453639
 31
0.0
  0
LINE
  5
5DAF
  8
0
 10
59.237511439592822
 20
67.600012956453639
 30
0.0
 11
58.743669922510939
 21
66.678300216685813
 31
0.0
  0
LINE
  5
5DB0
  8
0
 10
54.988869404622392
 20
72.520883866984406
 30
0.0
 11
56.03243798348052
 21
72.587204601781792
 31
0.0
  0
LINE
  5
5DB1
  8
0
 10
56.03243798348052
 20
72.587204601781792
 30
0.0
 11
55.412449661487422
 21
71.745154544340863
 31
0.0
  0
LINE
  5
5DB2
  8
0
 10
52.527353946186047
 20
78.062632945841102
 30
0.0
 11
53.569738926259902
 21
77.979763337657602
 31
0.0
  0
LINE
  5
5DB3
  8
0
 10
53.569738926259902
 20
77.979763337657602
 30
0.0
 11
52.836224973692588
 21
77.234517673441275
 31
0.0
  0
LINE
  5
5DB4
  8
0
 10
50.879566289813063
 20
83.898285183991973
 30
0.0
 11
51.899547718898361
 21
83.667912219073941
 31
0.0
  0
LINE
  5
5DB5
  8
0
 10
51.899547718898361
 20
83.667912219073941
 30
0.0
 11
51.067440364551601
 21
83.034642000694603
 31
0.0
  0
LINE
  5
5DB6
  8
0
 10
50.079050640359867
 20
89.909043530499645
 30
0.0
 11
51.055864637944012
 21
89.535856938072044
 31
0.0
  0
LINE
  5
5DB7
  8
0
 10
51.055864637944012
 20
89.535856938072044
 30
0.0
 11
50.142103187952841
 21
89.027453720975444
 31
0.0
  0
CIRCLE
  5
5DB8
  8
0
 10
92.5
 20
92.500000000000028
 30
0.0
 40
5.000000000000056
  0
CIRCLE
  5
5DB9
  8
0
 10
92.5
 20
92.500000000000028
 30
0.0
 40
8.0000000000000568
  0
CIRCLE
  5
5DBA
  8
0
 10
92.5
 20
92.500000000000028
 30
0.0
 40
14.5
  0
LINE
  5
5DBB
  8
2
 10
106.73144232385749
 20
95.277777777777743
 30
0.0
 11
100.00226303306439
 21
95.277777777777743
 31
0.0
  0
LINE
  5
5DBC
  8
2
 10
100.00226303306439
 20
89.722222222222257
 30
0.0
 11
106.73144232385749
 21
89.722222222222186
 31
0.0
  0
LINE
  5
5DBD
  8
2
 10
106.83620561831211
 20
94.673294381687896
 30
0.0
 11
106.5095
 21
95.000000000000028
 31
0.0
  0
LINE
  5
5DBE
  8
2
 10
106.5095
 20
90.000000000000028
 30
0.0
 11
106.83620561831211
 21
90.326705618312047
 31
0.0
  0
LINE
  5
5DBF
  8
2
 10
97.990500000000011
 20
95.000000000000028
 30
0.0
 11
97.5
 21
94.509500000000045
 31
0.0
  0
LINE
  5
5DC0
  8
2
 10
97.5
 20
90.490500000000026
 30
0.0
 11
97.990500000000054
 21
90.000000000000028
 31
0.0
  0
LINE
  5
5DC1
  8
2
 10
106.5095
 20
95.000000000000028
 30
0.0
 11
97.990500000000054
 21
95.000000000000028
 31
0.0
  0
LINE
  5
5DC2
  8
2
 10
97.990500000000111
 20
89.999999999999986
 30
0.0
 11
106.5095
 21
90.000000000000028
 31
0.0
  0
LINE
  5
5DC3
  8
2
 10
97.990500000000011
 20
95.000000000000028
 30
0.0
 11
97.990500000000011
 21
90.000000000000028
 31
0.0
  0
LINE
  5
5DC4
  8
2
 10
106.5095
 20
90.000000000000028
 30
0.0
 11
106.5095
 21
95.000000000000028
 31
0.0
  0
LINE
  5
5DC5
  8
2
 10
107.0
 20
93.943375672974099
 30
0.0
 11
103.8333333333333
 21
93.943375672974099
 31
0.0
  0
LINE
  5
5DC6
  8
2
 10
107.0
 20
93.221687836487064
 30
0.0
 11
103.8333333333333
 21
93.221687836487064
 31
0.0
  0
LINE
  5
5DC7
  8
2
 10
107.0
 20
91.056624327025958
 30
0.0
 11
103.8333333333333
 21
91.056624327025958
 31
0.0
  0
LINE
  5
5DC8
  8
2
 10
107.0
 20
91.778312163512979
 30
0.0
 11
103.8333333333333
 21
91.778312163512979
 31
0.0
  0
LINE
  5
5DC9
  8
2
 10
103.8333333333333
 20
93.943375672974099
 30
0.0
 11
103.8333333333333
 21
91.056624327025958
 31
0.0
  0
LINE
  5
5DCB
  8
2
 10
97.5
 20
94.509500000000045
 30
0.0
 11
106.86008042282489
 21
94.509500000000045
 31
0.0
  0
LINE
  5
5DCC
  8
2
 10
97.5
 20
90.490500000000026
 30
0.0
 11
106.86008042282489
 21
90.490499999999926
 31
0.0
  0
LINE
  5
5DCD
  8
2
 10
97.5
 20
94.509500000000045
 30
0.0
 11
97.5
 21
90.490500000000026
 31
0.0
  0
LINE
  5
5DD1
  8
0
 10
107.0
 20
94.509499999999974
 30
0.0
 11
106.83620561831211
 21
94.673294381687839
 31
0.0
  0
LINE
  5
5DD2
  8
0
 10
106.83620561831211
 20
90.326705618312147
 30
0.0
 11
107.0
 21
90.490499999999969
 31
0.0
  0
LINE
  5
5DD3
  8
0
 10
107.0
 20
90.490499999999969
 30
0.0
 11
107.0
 21
94.509499999999974
 31
0.0
  0
LINE
  5
5DD4
  8
3
 10
106.86008042282489
 20
94.509499999999974
 30
0.0
 11
107.0
 21
94.509499999999974
 31
0.0
  0
LINE
  5
5DD5
  8
3
 10
107.0
 20
90.490499999999969
 30
0.0
 11
106.86008042282489
 21
90.490499999999926
 31
0.0
  0
TEXT
  5
5F45
  8
0
 62
     3
 10
0.0
 20
0.0
 30
0.0
 40
10.0
  1
GH85N-GR
  7
STANDARD1
  0
ENDSEC
  0
EOF
