  0
SECTION
  2
HEADER
  9
$ACADVER
  1
AC1009
  9
$INSBASE
 10
0.0
 20
0.0
 30
0.0
  9
$EXTMIN
 10
0.0
 20
-2.960436562073669
 30
0.0
  9
$EXTMAX
 10
105.0
 20
257.00000000000023
 30
0.0
  9
$LIMMIN
 10
0.0
 20
0.0
  9
$LIMMAX
 10
187.5
 20
135.0
  9
$ORTHOMODE
 70
     1
  9
$REGENMODE
 70
     1
  9
$FILLMODE
 70
     1
  9
$QTEXTMODE
 70
     0
  9
$MIRRTEXT
 70
     0
  9
$DRAGMODE
 70
     2
  9
$LTSCALE
 40
5.0
  9
$OSMODE
 70
    37
  9
$ATTMODE
 70
     1
  9
$TEXTSIZE
 40
2.500000000000048
  9
$TRACEWID
 40
0.05
  9
$TEXTSTYLE
  7
STANDARD
  9
$CLAYER
  8
0
  9
$CELTYPE
  6
BYLAYER
  9
$CECOLOR
 62
   256
  9
$DIMSCALE
 40
0.5
  9
$DIMASZ
 40
3.0
  9
$DIMEXO
 40
2.0
  9
$DIMDLI
 40
0.38
  9
$DIMRND
 40
0.0
  9
$DIMDLE
 40
0.0
  9
$DIMEXE
 40
2.0
  9
$DIMTP
 40
0.0
  9
$DIMTM
 40
0.0
  9
$DIMTXT
 40
3.2000000000000002
  9
$DIMCEN
 40
0.0
  9
$DIMTSZ
 40
0.0
  9
$DIMTOL
 70
     0
  9
$DIMLIM
 70
     0
  9
$DIMTIH
 70
     0
  9
$DIMTOH
 70
     0
  9
$DIMSE1
 70
     0
  9
$DIMSE2
 70
     0
  9
$DIMTAD
 70
     1
  9
$DIMZIN
 70
     0
  9
$DIMBLK
  1

  9
$DIMASO
 70
     1
  9
$DIMSHO
 70
     0
  9
$DIMPOST
  1

  9
$DIMAPOST
  1

  9
$DIMALT
 70
     0
  9
$DIMALTD
 70
     2
  9
$DIMALTF
 40
25.399999999999999
  9
$DIMLFAC
 40
1.0
  9
$DIMTOFL
 70
     1
  9
$DIMTVP
 40
1.6000000000000001
  9
$DIMTIX
 70
     1
  9
$DIMSOXD
 70
     0
  9
$DIMSAH
 70
     0
  9
$DIMBLK1
  1

  9
$DIMBLK2
  1

  9
$DIMSTYLE
  2
STANDARD
  9
$DIMCLRD
 70
     0
  9
$DIMCLRE
 70
     0
  9
$DIMCLRT
 70
     0
  9
$DIMTFAC
 40
1.0
  9
$DIMGAP
 40
0.09
  9
$LUNITS
 70
     2
  9
$LUPREC
 70
     1
  9
$SKETCHINC
 40
0.1
  9
$FILLETRAD
 40
0.0
  9
$AUNITS
 70
     0
  9
$AUPREC
 70
     1
  9
$MENU
  1
E:\r13\win\SUPPORT\ACAD
  9
$ELEVATION
 40
0.0
  9
$PELEVATION
 40
0.0
  9
$THICKNESS
 40
0.0
  9
$LIMCHECK
 70
     0
  9
$BLIPMODE
 70
     0
  9
$CHAMFERA
 40
0.0
  9
$CHAMFERB
 40
0.0
  9
$SKPOLY
 70
     0
  9
$TDCREATE
 40
2449839.787418982
  9
$TDUPDATE
 40
2457183.444972327
  9
$TDINDWG
 40
0.3075398958
  9
$TDUSRTIMER
 40
2456455.219502327
  9
$USRTIMER
 70
     1
  9
$ANGBASE
 50
0.0
  9
$ANGDIR
 70
     0
  9
$PDMODE
 70
     0
  9
$PDSIZE
 40
0.0
  9
$PLINEWID
 40
0.0
  9
$COORDS
 70
     1
  9
$SPLFRAME
 70
     0
  9
$SPLINETYPE
 70
     6
  9
$SPLINESEGS
 70
     8
  9
$ATTDIA
 70
     0
  9
$ATTREQ
 70
     1
  9
$HANDLING
 70
     1
  9
$HANDSEED
  5
31C1
  9
$SURFTAB1
 70
     6
  9
$SURFTAB2
 70
     6
  9
$SURFTYPE
 70
     6
  9
$SURFU
 70
     6
  9
$SURFV
 70
     6
  9
$UCSNAME
  2

  9
$UCSORG
 10
0.0
 20
0.0
 30
0.0
  9
$UCSXDIR
 10
1.0
 20
0.0
 30
0.0
  9
$UCSYDIR
 10
0.0
 20
1.0
 30
0.0
  9
$PUCSNAME
  2

  9
$PUCSORG
 10
0.0
 20
0.0
 30
0.0
  9
$PUCSXDIR
 10
1.0
 20
0.0
 30
0.0
  9
$PUCSYDIR
 10
0.0
 20
1.0
 30
0.0
  9
$USERI1
 70
     0
  9
$USERI2
 70
     1
  9
$USERI3
 70
     1
  9
$USERI4
 70
     0
  9
$USERI5
 70
     0
  9
$USERR1
 40
0.0
  9
$USERR2
 40
0.0
  9
$USERR3
 40
0.0
  9
$USERR4
 40
0.0
  9
$USERR5
 40
0.0
  9
$WORLDVIEW
 70
     1
  9
$SHADEDGE
 70
     3
  9
$SHADEDIF
 70
    70
  9
$TILEMODE
 70
     1
  9
$MAXACTVP
 70
    16
  9
$PLIMCHECK
 70
     0
  9
$PEXTMIN
 10
1.0000000000000000E+020
 20
1.0000000000000000E+020
 30
1.0000000000000000E+020
  9
$PEXTMAX
 10
-1.0000000000000000E+020
 20
-1.0000000000000000E+020
 30
-1.0000000000000000E+020
  9
$PLIMMIN
 10
0.0
 20
0.0
  9
$PLIMMAX
 10
12.0
 20
9.0
  9
$UNITMODE
 70
     0
  9
$VISRETAIN
 70
     0
  9
$PLINEGEN
 70
     0
  9
$PSLTSCALE
 70
     0
  0
ENDSEC
  0
SECTION
  2
TABLES
  0
TABLE
  2
VPORT
 70
     1
  0
VPORT
  2
*ACTIVE
 70
     0
 10
0.0
 20
0.0
 11
1.0
 21
1.0
 12
300.26983929996652
 22
165.31211229035671
 13
0.0
 23
0.0
 14
5.0
 24
5.0
 15
5.0
 25
5.0
 16
0.0
 26
0.0
 36
1.0
 17
0.0
 27
0.0
 37
0.0
 40
330.82631306027469
 41
1.816239316239316
 42
50.0
 43
0.0
 44
0.0
 50
0.0
 51
0.0
 71
    16
 72
   500
 73
     1
 74
     0
 75
     0
 76
     0
 77
     0
 78
     2
  0
ENDTAB
  0
TABLE
  2
LTYPE
 70
     4
  0
LTYPE
  2
CONTINUOUS
 70
     0
  3
Solid Line
 72
    65
 73
     0
 40
0.0
  0
LTYPE
  2
PHANTOM2
 70
     0
  3
___ _ _ ___ _ _ ___ _ _ ___ _ _
 72
    65
 73
     6
 40
1.25
 49
0.625
 49
-0.125
 49
0.125
 49
-0.125
 49
0.125
 49
-0.125
  0
LTYPE
  2
HIDDEN
 70
     0
  3
_ _ _ _ _ _ _ _ _ _ _ _ _ _ _ _ _ _ _ _ _ _ _
 72
    65
 73
     2
 40
0.375
 49
0.25
 49
-0.125
  0
LTYPE
  2
CENTER
 70
     0
  3
____ _ ____ _ ____ _ ____ _ ____ _ ____ _ ____
 72
    65
 73
     4
 40
2.0
 49
1.25
 49
-0.25
 49
0.25
 49
-0.25
  0
ENDTAB
  0
TABLE
  2
LAYER
 70
     5
  0
LAYER
  2
0
 70
     0
 62
     7
  6
CONTINUOUS
  0
LAYER
  2
2
 70
     0
 62
     2
  6
HIDDEN
  0
LAYER
  2
1
 70
     0
 62
     1
  6
CENTER
  0
LAYER
  2
3
 70
     0
 62
     3
  6
CONTINUOUS
  0
LAYER
  2
DEFPOINTS
 70
     0
 62
     7
  6
CONTINUOUS
  0
ENDTAB
  0
TABLE
  2
STYLE
 70
     2
  0
STYLE
  2
STANDARD
 70
     0
 40
0.0
 41
1.0
 50
0.0
 71
     0
 42
2.500000000000048
  3
TXT
  4
BIGFONT
  0
STYLE
  2
STANDARD1
 70
     0
 40
0.0
 41
1.0
 50
0.0
 71
     0
 42
3.0
  3
txt
  4

  0
ENDTAB
  0
TABLE
  2
VIEW
 70
     0
  0
ENDTAB
  0
TABLE
  2
UCS
 70
     0
  0
ENDTAB
  0
TABLE
  2
APPID
 70
     7
  0
APPID
  2
ACAD
 70
     0
  0
APPID
  2
ACADANNOTATIVE
 70
     0
  0
APPID
  2
ACAD_NAV_VCDISPLAY
 70
     0
  0
APPID
  2
ACAD_EXEMPT_FROM_CAD_STANDARDS
 70
     0
  0
APPID
  2
ACAD_MLEADERVER
 70
     0
  0
APPID
  2
ACAD_DSTYLE_DIMJAG
 70
     0
  0
APPID
  2
ACAD_DSTYLE_DIMTALN
 70
     0
  0
ENDTAB
  0
TABLE
  2
DIMSTYLE
 70
     1
  0
DIMSTYLE
  2
STANDARD
 70
     0
  3

  4

  5

  6

  7

 40
1.0
 41
0.18
 42
0.0625
 43
0.38
 44
0.18
 45
0.0
 46
0.0
 47
0.0
 48
0.0
140
0.18
141
0.09
142
0.0
143
25.399999999999999
144
1.0
145
0.0
146
1.0
147
0.09
 71
     0
 72
     0
 73
     1
 74
     1
 75
     0
 76
     0
 77
     0
 78
     0
170
     0
171
     2
172
     0
173
     0
174
     0
175
     0
176
     0
177
     0
178
     0
  0
ENDTAB
  0
ENDSEC
  0
SECTION
  2
BLOCKS
  0
BLOCK
  8
0
  2
$MODEL_SPACE
 70
     0
 10
0.0
 20
0.0
 30
0.0
  3
$MODEL_SPACE
  1

  0
ENDBLK
  5
2EED
  8
0
  0
BLOCK
 67
     1
  8
0
  2
$PAPER_SPACE
 70
     0
 10
0.0
 20
0.0
 30
0.0
  3
$PAPER_SPACE
  1

  0
ENDBLK
  5
2EE9
 67
     1
  8
0
  0
ENDSEC
  0
SECTION
  2
ENTITIES
  0
LINE
  5
21E6
  8
2
 10
78.0
 20
124.9999999999999
 30
0.0
 11
78.000000000000057
 21
143.0
 31
0.0
  0
LINE
  5
21E7
  8
2
 10
72.000000000000014
 20
143.0
 30
0.0
 11
72.0
 21
124.9999999999999
 31
0.0
  0
LINE
  5
21EE
  8
2
 10
85.0
 20
132.77777777777769
 30
0.0
 11
82.5
 21
132.77777777777769
 31
0.0
  0
LINE
  5
21EF
  8
2
 10
82.5
 20
127.2222222222222
 30
0.0
 11
85.0
 21
127.2222222222222
 31
0.0
  0
LINE
  5
21F0
  8
2
 10
84.846880024991947
 20
132.162619975008
 30
0.0
 11
84.509500000000003
 21
132.49999999999989
 31
0.0
  0
LINE
  5
21F1
  8
2
 10
84.509500000000003
 20
127.5
 30
0.0
 11
84.846880024991947
 21
127.8373800249919
 31
0.0
  0
LINE
  5
21F2
  8
2
 10
78.49049999999994
 20
132.49999999999989
 30
0.0
 11
78.0
 21
132.0095
 31
0.0
  0
LINE
  5
21F3
  8
2
 10
78.0
 20
127.9905
 30
0.0
 11
78.49049999999994
 21
127.5
 31
0.0
  0
LINE
  5
21F4
  8
2
 10
84.509500000000003
 20
132.49999999999989
 30
0.0
 11
78.49049999999994
 21
132.49999999999989
 31
0.0
  0
LINE
  5
21F5
  8
2
 10
78.49049999999994
 20
127.4999999999999
 30
0.0
 11
84.509500000000003
 21
127.5
 31
0.0
  0
LINE
  5
21FB
  8
2
 10
72.000000000000014
 20
143.0
 30
0.0
 11
78.000000000000057
 21
143.0
 31
0.0
  0
LINE
  5
2244
  8
2
 10
78.49049999999994
 20
132.49999999999989
 30
0.0
 11
78.49049999999994
 21
127.5
 31
0.0
  0
LINE
  5
2245
  8
2
 10
82.500000000000057
 20
148.0
 30
0.0
 11
82.5
 21
132.5
 31
0.0
  0
LINE
  5
2246
  8
2
 10
84.509500000000003
 20
127.5
 30
0.0
 11
84.509500000000003
 21
132.49999999999989
 31
0.0
  0
LINE
  5
2247
  8
2
 10
85.0
 20
131.44337567297401
 30
0.0
 11
82.666666666666629
 21
131.44337567297401
 31
0.0
  0
LINE
  5
2248
  8
2
 10
85.0
 20
130.72168783648701
 30
0.0
 11
82.666666666666629
 21
130.72168783648701
 31
0.0
  0
LINE
  5
2249
  8
2
 10
85.0
 20
128.5566243270259
 30
0.0
 11
82.666666666666629
 21
128.5566243270259
 31
0.0
  0
LINE
  5
224A
  8
2
 10
85.0
 20
129.27831216351291
 30
0.0
 11
82.666666666666629
 21
129.27831216351291
 31
0.0
  0
LINE
  5
224B
  8
2
 10
82.666666666666629
 20
131.44337567297401
 30
0.0
 11
82.666666666666629
 21
128.5566243270259
 31
0.0
  0
LINE
  5
224C
  8
1
 10
75.000000000000028
 20
163.0
 30
0.0
 11
75.0
 21
119.9999999999999
 31
0.0
  0
LINE
  5
224D
  8
1
 10
61.000000000000028
 20
180.00000000000011
 30
0.0
 11
61.000000000000028
 21
156.99999999999989
 31
0.0
  0
LINE
  5
224E
  8
1
 10
76.0
 20
129.99999999999989
 30
0.0
 11
87.0
 21
129.99999999999989
 31
0.0
  0
ARC
  5
224F
  8
0
 10
51.800000000000061
 20
157.19999999999999
 30
0.0
 40
0.7999999999999972
 50
90.0
 51
180.0
  0
ARC
  5
2250
  8
0
 10
98.200000000000045
 20
157.1999999999999
 30
0.0
 40
0.7999999999999936
 50
0.0
 51
90.0
  0
LINE
  5
2251
  8
0
 10
100.0
 20
156.6399999999999
 30
0.0
 11
99.000000000000057
 21
157.1999999999999
 31
0.0
  0
LINE
  5
2252
  8
0
 10
51.000000000000028
 20
157.19999999999999
 30
0.0
 11
50.000000000000028
 21
156.6399999999999
 31
0.0
  0
ARC
  5
2253
  8
0
 10
51.799999999999983
 20
141.8000000000001
 30
0.0
 40
0.8000000000000112
 50
180.0
 51
270.0
  0
ARC
  5
2254
  8
0
 10
98.199999999999932
 20
141.8000000000001
 30
0.0
 40
0.8000000000000078
 50
270.0
 51
0.0
  0
LINE
  5
2255
  8
0
 10
84.0
 20
125.2999999999999
 30
0.0
 11
85.0
 21
126.3
 31
0.0
  0
LINE
  5
2256
  8
0
 10
65.0
 20
126.3
 30
0.0
 11
66.0
 21
125.2999999999999
 31
0.0
  0
LINE
  5
2257
  8
0
 10
82.5
 20
124.9999999999999
 30
0.0
 11
82.5
 21
125.2999999999999
 31
0.0
  0
LINE
  5
2258
  8
0
 10
67.5
 20
125.2999999999999
 30
0.0
 11
67.5
 21
124.9999999999999
 31
0.0
  0
ARC
  5
2259
  8
0
 10
61.000000000000028
 20
145.50000000000031
 30
0.0
 40
32.499999999999879
 50
78.65470460964066
 51
101.3452953903593
  0
ARC
  5
225A
  8
0
 10
55.000000000000028
 20
175.40401310861131
 30
0.0
 40
2.0000000000000511
 50
101.3452953903593
 51
180.0
  0
ARC
  5
225B
  8
0
 10
67.000000000000014
 20
175.40401310861131
 30
0.0
 40
2.0000000000000671
 50
0.0
 51
78.65470460964066
  0
LINE
  5
225C
  8
0
 10
69.000000000000028
 20
160.5499999999999
 30
0.0
 11
69.000000000000028
 21
175.40401310861131
 31
0.0
  0
LINE
  5
225D
  8
0
 10
53.000000000000028
 20
175.40401310861131
 30
0.0
 11
53.000000000000028
 21
160.5499999999999
 31
0.0
  0
LINE
  5
225E
  8
0
 10
67.25
 20
158.80000000000001
 30
0.0
 11
69.000000000000028
 21
160.55000000000001
 31
0.0
  0
LINE
  5
225F
  8
0
 10
53.000000000000028
 20
160.55000000000001
 30
0.0
 11
54.750000000000028
 21
158.80000000000001
 31
0.0
  0
LINE
  5
2260
  8
0
 10
64.000000000000028
 20
158.0
 30
0.0
 11
64.000000000000028
 21
158.80000000000001
 31
0.0
  0
LINE
  5
2261
  8
0
 10
58.000000000000028
 20
158.80000000000001
 30
0.0
 11
58.000000000000028
 21
158.0
 31
0.0
  0
LINE
  5
2262
  8
0
 10
85.0
 20
132.77777777777769
 30
0.0
 11
85.000000000000057
 21
141.0
 31
0.0
  0
LINE
  5
2263
  8
0
 10
85.0
 20
126.3
 30
0.0
 11
85.0
 21
127.2222222222222
 31
0.0
  0
LINE
  5
2264
  8
0
 10
65.000000000000028
 20
141.0
 30
0.0
 11
65.0
 21
126.3
 31
0.0
  0
LINE
  5
2265
  8
0
 10
100.0
 20
153.2603769589372
 30
0.0
 11
98.950000000000045
 21
153.75
 31
0.0
  0
LINE
  5
2266
  8
0
 10
51.050000000000068
 20
153.75
 30
0.0
 11
50.000000000000028
 21
153.26037695893729
 31
0.0
  0
LINE
  5
2267
  8
0
 10
100.0
 20
144.7603769589372
 30
0.0
 11
98.949999999999946
 21
145.25
 31
0.0
  0
LINE
  5
2268
  8
0
 10
51.049999999999983
 20
145.25
 30
0.0
 11
50.000000000000028
 21
144.76037695893729
 31
0.0
  0
LINE
  5
2269
  8
0
 10
100.0
 20
149.0103769589372
 30
0.0
 11
98.949999999999946
 21
149.5
 31
0.0
  0
LINE
  5
226A
  8
0
 10
51.049999999999983
 20
149.5
 30
0.0
 11
50.000000000000028
 21
149.01037695893729
 31
0.0
  0
LINE
  5
226B
  8
0
 10
50.000000000000028
 20
153.26037695893729
 30
0.0
 11
50.000000000000028
 21
149.98962304106271
 31
0.0
  0
LINE
  5
226C
  8
0
 10
100.0
 20
149.98962304106271
 30
0.0
 11
100.0
 21
153.2603769589372
 31
0.0
  0
LINE
  5
226D
  8
0
 10
98.949999999999946
 20
149.5
 30
0.0
 11
100.0
 21
149.98962304106271
 31
0.0
  0
LINE
  5
226E
  8
0
 10
50.000000000000028
 20
149.98962304106271
 30
0.0
 11
51.049999999999983
 21
149.5
 31
0.0
  0
LINE
  5
226F
  8
0
 10
98.950000000000045
 20
153.75
 30
0.0
 11
100.0
 21
154.23962304106271
 31
0.0
  0
LINE
  5
2270
  8
0
 10
50.000000000000028
 20
154.23962304106271
 30
0.0
 11
51.050000000000068
 21
153.75
 31
0.0
  0
LINE
  5
2271
  8
0
 10
50.000000000000028
 20
156.6399999999999
 30
0.0
 11
50.000000000000028
 21
154.23962304106271
 31
0.0
  0
LINE
  5
2272
  8
0
 10
100.0
 20
154.23962304106271
 30
0.0
 11
100.0
 21
156.6399999999999
 31
0.0
  0
LINE
  5
2273
  8
0
 10
50.000000000000028
 20
144.76037695893729
 30
0.0
 11
50.000000000000028
 21
142.36000000000001
 31
0.0
  0
LINE
  5
2274
  8
0
 10
100.0
 20
142.36000000000001
 30
0.0
 11
100.0
 21
144.7603769589372
 31
0.0
  0
LINE
  5
2275
  8
0
 10
99.000000000000057
 20
141.8000000000001
 30
0.0
 11
100.0
 21
142.36000000000001
 31
0.0
  0
LINE
  5
2276
  8
0
 10
50.000000000000028
 20
142.36000000000001
 30
0.0
 11
51.000000000000028
 21
141.8000000000001
 31
0.0
  0
LINE
  5
2277
  8
0
 10
98.949999999999946
 20
145.25
 30
0.0
 11
100.0
 21
145.73962304106271
 31
0.0
  0
LINE
  5
2278
  8
0
 10
50.000000000000028
 20
145.73962304106271
 30
0.0
 11
51.049999999999983
 21
145.25
 31
0.0
  0
LINE
  5
2279
  8
0
 10
50.000000000000028
 20
149.01037695893729
 30
0.0
 11
50.000000000000028
 21
145.73962304106271
 31
0.0
  0
LINE
  5
227A
  8
0
 10
100.0
 20
145.73962304106271
 30
0.0
 11
100.0
 21
149.0103769589372
 31
0.0
  0
LINE
  5
227B
  8
0
 10
85.0
 20
132.0095
 30
0.0
 11
84.846880024991947
 21
132.162619975008
 31
0.0
  0
LINE
  5
227C
  8
0
 10
84.846880024991947
 20
127.8373800249919
 30
0.0
 11
85.0
 21
127.9905
 31
0.0
  0
LINE
  5
227D
  8
0
 10
51.000000000000028
 20
157.19999999999999
 30
0.0
 11
99.000000000000057
 21
157.1999999999999
 31
0.0
  0
LINE
  5
227E
  8
0
 10
51.799999999999983
 20
141.0
 30
0.0
 11
98.199999999999932
 21
141.0
 31
0.0
  0
LINE
  5
227F
  8
0
 10
66.0
 20
125.2999999999999
 30
0.0
 11
84.0
 21
125.2999999999999
 31
0.0
  0
LINE
  5
2280
  8
0
 10
67.5
 20
124.9999999999999
 30
0.0
 11
82.5
 21
124.9999999999999
 31
0.0
  0
LINE
  5
2281
  8
0
 10
51.800000000000061
 20
158.0
 30
0.0
 11
98.200000000000045
 21
158.0
 31
0.0
  0
LINE
  5
2283
  8
0
 10
53.000000000000028
 20
175.40401310861131
 30
0.0
 11
69.000000000000028
 21
175.40401310861131
 31
0.0
  0
LINE
  5
2284
  8
0
 10
53.000000000000028
 20
160.5499999999999
 30
0.0
 11
69.000000000000028
 21
160.5499999999999
 31
0.0
  0
LINE
  5
2285
  8
0
 10
54.750000000000028
 20
158.80000000000001
 30
0.0
 11
67.25
 21
158.80000000000001
 31
0.0
  0
LINE
  5
2286
  8
0
 10
65.0
 20
126.3
 30
0.0
 11
85.0
 21
126.3
 31
0.0
  0
POLYLINE
  5
2287
  8
0
 66
     1
 10
0.0
 20
0.0
 30
0.0
  0
VERTEX
  5
30FD
  8
0
 10
85.0
 20
127.2222222222222
 30
0.0
  0
VERTEX
  5
30FE
  8
0
 10
84.999923688676915
 20
127.2224969555228
 30
0.0
  0
VERTEX
  5
30FF
  8
0
 10
84.999307351120294
 20
127.2247167919496
 30
0.0
  0
VERTEX
  5
3100
  8
0
 10
84.998061835573708
 20
127.22920772148611
 30
0.0
  0
VERTEX
  5
3101
  8
0
 10
84.997200017660134
 20
127.2323190979051
 30
0.0
  0
VERTEX
  5
3102
  8
0
 10
84.996177686496424
 20
127.23601416017971
 30
0.0
  0
VERTEX
  5
3103
  8
0
 10
84.993649643862113
 20
127.24517104215479
 30
0.0
  0
VERTEX
  5
3104
  8
0
 10
84.990476637678455
 20
127.2567040205775
 30
0.0
  0
VERTEX
  5
3105
  8
0
 10
84.986661698076944
 20
127.270629879523
 30
0.0
  0
VERTEX
  5
3106
  8
0
 10
84.982211789456414
 20
127.2869571340873
 30
0.0
  0
VERTEX
  5
3107
  8
0
 10
84.977137741625597
 20
127.3056861916089
 30
0.0
  0
VERTEX
  5
3108
  8
0
 10
84.97437113487814
 20
127.3159491586397
 30
0.0
  0
VERTEX
  5
3109
  8
0
 10
84.971454348033546
 20
127.326808798901
 30
0.0
  0
VERTEX
  5
310A
  8
0
 10
84.965180287812132
 20
127.35030802708749
 30
0.0
  0
VERTEX
  5
310B
  8
0
 10
84.958337942812577
 20
127.3761585478581
 30
0.0
  0
VERTEX
  5
310C
  8
0
 10
84.950953146446693
 20
127.4043270804094
 30
0.0
  0
VERTEX
  5
310D
  8
0
 10
84.943054870454887
 20
127.4347730042754
 30
0.0
  0
VERTEX
  5
310E
  8
0
 10
84.934672752216215
 20
127.4674573890367
 30
0.0
  0
VERTEX
  5
310F
  8
0
 10
84.930309997553806
 20
127.4846260655253
 30
0.0
  0
VERTEX
  5
3110
  8
0
 10
84.925838712134805
 20
127.50233638733479
 30
0.0
  0
VERTEX
  5
3111
  8
0
 10
84.916589360440227
 20
127.53935091361789
 30
0.0
  0
VERTEX
  5
3112
  8
0
 10
84.906963837526575
 20
127.5784340065202
 30
0.0
  0
VERTEX
  5
3113
  8
0
 10
84.902022845604719
 20
127.5987282915934
 30
0.0
  0
VERTEX
  5
3114
  8
0
 10
84.897003446801193
 20
127.6195112668378
 30
0.0
  0
VERTEX
  5
3115
  8
0
 10
84.886751246193668
 20
127.6625014252776
 30
0.0
  0
VERTEX
  5
3116
  8
0
 10
84.876251605810694
 20
127.7073170380547
 30
0.0
  0
VERTEX
  5
3117
  8
0
 10
84.870923115913797
 20
127.73038052903151
 30
0.0
  0
VERTEX
  5
3118
  8
0
 10
84.865549826986694
 20
127.7538649258171
 30
0.0
  0
VERTEX
  5
3119
  8
0
 10
84.854692177127177
 20
127.802044748261
 30
0.0
  0
VERTEX
  5
311A
  8
0
 10
84.843725743795474
 20
127.8517481754277
 30
0.0
  0
VERTEX
  5
311B
  8
0
 10
84.832697989370487
 20
127.90285929587709
 30
0.0
  0
VERTEX
  5
311C
  8
0
 10
84.82165627257632
 20
127.9552551945646
 30
0.0
  0
VERTEX
  5
311D
  8
0
 10
84.810647357654474
 20
128.0088066495266
 30
0.0
  0
VERTEX
  5
311E
  8
0
 10
84.805169529250904
 20
128.03597380871139
 30
0.0
  0
VERTEX
  5
311F
  8
0
 10
84.799688406851601
 20
128.06352323688091
 30
0.0
  0
VERTEX
  5
3120
  8
0
 10
84.788654894812794
 20
128.12015584889079
 30
0.0
  0
VERTEX
  5
3121
  8
0
 10
84.777564304066914
 20
128.17878801264669
 30
0.0
  0
VERTEX
  5
3122
  8
0
 10
84.766463429725846
 20
128.23935883642079
 30
0.0
  0
VERTEX
  5
3123
  8
0
 10
84.755400073256098
 20
128.30180096219479
 30
0.0
  0
VERTEX
  5
3124
  8
0
 10
84.744422553823824
 20
128.36604152739801
 30
0.0
  0
VERTEX
  5
3125
  8
0
 10
84.738981104437016
 20
128.39881221110741
 30
0.0
  0
VERTEX
  5
3126
  8
0
 10
84.733579222002774
 20
128.43200323542379
 30
0.0
  0
VERTEX
  5
3127
  8
0
 10
84.722917997261391
 20
128.49960546382371
 30
0.0
  0
VERTEX
  5
3128
  8
0
 10
84.712486200253053
 20
128.56876362091219
 30
0.0
  0
VERTEX
  5
3129
  8
0
 10
84.702330557065807
 20
128.63938704206939
 30
0.0
  0
VERTEX
  5
312A
  8
0
 10
84.692496779535404
 20
128.71137934052641
 30
0.0
  0
VERTEX
  5
312B
  8
0
 10
84.683029077143075
 20
128.78463935742681
 30
0.0
  0
VERTEX
  5
312C
  8
0
 10
84.678445794508434
 20
128.82171209801879
 30
0.0
  0
VERTEX
  5
312D
  8
0
 10
84.673969695442111
 20
128.85906220544319
 30
0.0
  0
VERTEX
  5
312E
  8
0
 10
84.665358490015763
 20
128.93454041689219
 30
0.0
  0
VERTEX
  5
312F
  8
0
 10
84.657230642153294
 20
129.01098379261919
 30
0.0
  0
VERTEX
  5
3130
  8
0
 10
84.649619103253883
 20
129.0882992702648
 30
0.0
  0
VERTEX
  5
3131
  8
0
 10
84.642556169091733
 20
129.16637007203099
 30
0.0
  0
VERTEX
  5
3132
  8
0
 10
84.636070899795129
 20
129.24507499141009
 30
0.0
  0
VERTEX
  5
3133
  8
0
 10
84.633052991571105
 20
129.2846264464396
 30
0.0
  0
VERTEX
  5
3134
  8
0
 10
84.630188741381517
 20
129.3242895758176
 30
0.0
  0
VERTEX
  5
3135
  8
0
 10
84.624931212816804
 20
129.4038873980758
 30
0.0
  0
VERTEX
  5
3136
  8
0
 10
84.620315667172335
 20
129.48374142258101
 30
0.0
  0
VERTEX
  5
3137
  8
0
 10
84.616355167360496
 20
129.5637247571336
 30
0.0
  0
VERTEX
  5
3138
  8
0
 10
84.613058553549592
 20
129.6437077931102
 30
0.0
  0
VERTEX
  5
3139
  8
0
 10
84.610430343634732
 20
129.72355692706819
 30
0.0
  0
VERTEX
  5
313A
  8
0
 10
84.609367070580902
 20
129.76338875791569
 30
0.0
  0
VERTEX
  5
313B
  8
0
 10
84.608470539029497
 20
129.80313587905471
 30
0.0
  0
VERTEX
  5
313C
  8
0
 10
84.60717451814304
 20
129.882307159215
 30
0.0
  0
VERTEX
  5
313D
  8
0
 10
84.60653302727502
 20
129.96093355860839
 30
0.0
  0
VERTEX
  5
313E
  8
0
 10
84.606453592105822
 20
129.99999999999989
 30
0.0
  0
VERTEX
  5
313F
  8
0
 10
84.60653302727502
 20
130.03906644139161
 30
0.0
  0
VERTEX
  5
3140
  8
0
 10
84.60717451814304
 20
130.117692840785
 30
0.0
  0
VERTEX
  5
3141
  8
0
 10
84.608470539029497
 20
130.19686412094521
 30
0.0
  0
VERTEX
  5
3142
  8
0
 10
84.609367070580902
 20
130.23661124208419
 30
0.0
  0
VERTEX
  5
3143
  8
0
 10
84.610430343634732
 20
130.2764430729317
 30
0.0
  0
VERTEX
  5
3144
  8
0
 10
84.613058553549592
 20
130.35629220688969
 30
0.0
  0
VERTEX
  5
3145
  8
0
 10
84.616355167360496
 20
130.43627524286629
 30
0.0
  0
VERTEX
  5
3146
  8
0
 10
84.620315667172335
 20
130.51625857741891
 30
0.0
  0
VERTEX
  5
3147
  8
0
 10
84.624931212816804
 20
130.59611260192409
 30
0.0
  0
VERTEX
  5
3148
  8
0
 10
84.630188741381517
 20
130.67571042418231
 30
0.0
  0
VERTEX
  5
3149
  8
0
 10
84.633052991571105
 20
130.71537355356031
 30
0.0
  0
VERTEX
  5
314A
  8
0
 10
84.636070899795129
 20
130.75492500858979
 30
0.0
  0
VERTEX
  5
314B
  8
0
 10
84.642556169091733
 20
130.83362992796901
 30
0.0
  0
VERTEX
  5
314C
  8
0
 10
84.649619103253883
 20
130.91170072973509
 30
0.0
  0
VERTEX
  5
314D
  8
0
 10
84.657230642153294
 20
130.98901620738081
 30
0.0
  0
VERTEX
  5
314E
  8
0
 10
84.665358490015763
 20
131.0654595831077
 30
0.0
  0
VERTEX
  5
314F
  8
0
 10
84.673969695442111
 20
131.14093779455669
 30
0.0
  0
VERTEX
  5
3150
  8
0
 10
84.678445794508434
 20
131.17828790198109
 30
0.0
  0
VERTEX
  5
3151
  8
0
 10
84.683029077143075
 20
131.21536064257319
 30
0.0
  0
VERTEX
  5
3152
  8
0
 10
84.692496779535404
 20
131.28862065947371
 30
0.0
  0
VERTEX
  5
3153
  8
0
 10
84.702330557065807
 20
131.3606129579305
 30
0.0
  0
VERTEX
  5
3154
  8
0
 10
84.712486200253053
 20
131.43123637908769
 30
0.0
  0
VERTEX
  5
3155
  8
0
 10
84.722917997261391
 20
131.5003945361762
 30
0.0
  0
VERTEX
  5
3156
  8
0
 10
84.733579222002774
 20
131.56799676457609
 30
0.0
  0
VERTEX
  5
3157
  8
0
 10
84.738981104437016
 20
131.6011877888925
 30
0.0
  0
VERTEX
  5
3158
  8
0
 10
84.744422553823824
 20
131.6339584726019
 30
0.0
  0
VERTEX
  5
3159
  8
0
 10
84.755400073256098
 20
131.6981990378051
 30
0.0
  0
VERTEX
  5
315A
  8
0
 10
84.766463429725846
 20
131.76064116357929
 30
0.0
  0
VERTEX
  5
315B
  8
0
 10
84.777564304066914
 20
131.82121198735331
 30
0.0
  0
VERTEX
  5
315C
  8
0
 10
84.788654894812794
 20
131.87984415110921
 30
0.0
  0
VERTEX
  5
315D
  8
0
 10
84.799688406851601
 20
131.936476763119
 30
0.0
  0
VERTEX
  5
315E
  8
0
 10
84.805169529250904
 20
131.96402619128841
 30
0.0
  0
VERTEX
  5
315F
  8
0
 10
84.810647357654474
 20
131.99119335047331
 30
0.0
  0
VERTEX
  5
3160
  8
0
 10
84.82165627257632
 20
132.0447448054353
 30
0.0
  0
VERTEX
  5
3161
  8
0
 10
84.832697989370487
 20
132.09714070412281
 30
0.0
  0
VERTEX
  5
3162
  8
0
 10
84.843725743795474
 20
132.14825182457241
 30
0.0
  0
VERTEX
  5
3163
  8
0
 10
84.854692177127177
 20
132.1979552517389
 30
0.0
  0
VERTEX
  5
3164
  8
0
 10
84.865549826986694
 20
132.2461350741828
 30
0.0
  0
VERTEX
  5
3165
  8
0
 10
84.870923115913797
 20
132.26961947096839
 30
0.0
  0
VERTEX
  5
3166
  8
0
 10
84.876251605810694
 20
132.29268296194519
 30
0.0
  0
VERTEX
  5
3167
  8
0
 10
84.886751246193668
 20
132.3374985747223
 30
0.0
  0
VERTEX
  5
3168
  8
0
 10
84.897003446801193
 20
132.38048873316211
 30
0.0
  0
VERTEX
  5
3169
  8
0
 10
84.902022845604719
 20
132.40127170840651
 30
0.0
  0
VERTEX
  5
316A
  8
0
 10
84.906963837526575
 20
132.4215659934797
 30
0.0
  0
VERTEX
  5
316B
  8
0
 10
84.916589360440227
 20
132.46064908638201
 30
0.0
  0
VERTEX
  5
316C
  8
0
 10
84.925838712134805
 20
132.49766361266509
 30
0.0
  0
VERTEX
  5
316D
  8
0
 10
84.930309997553806
 20
132.51537393447461
 30
0.0
  0
VERTEX
  5
316E
  8
0
 10
84.934672752216215
 20
132.53254261096319
 30
0.0
  0
VERTEX
  5
316F
  8
0
 10
84.943054870454887
 20
132.56522699572449
 30
0.0
  0
VERTEX
  5
3170
  8
0
 10
84.950953146446693
 20
132.5956729195905
 30
0.0
  0
VERTEX
  5
3171
  8
0
 10
84.958337942812577
 20
132.62384145214179
 30
0.0
  0
VERTEX
  5
3172
  8
0
 10
84.965180287812132
 20
132.64969197291239
 30
0.0
  0
VERTEX
  5
3173
  8
0
 10
84.971454348033546
 20
132.67319120109889
 30
0.0
  0
VERTEX
  5
3174
  8
0
 10
84.97437113487814
 20
132.6840508413602
 30
0.0
  0
VERTEX
  5
3175
  8
0
 10
84.977137741625597
 20
132.694313808391
 30
0.0
  0
VERTEX
  5
3176
  8
0
 10
84.982211789456414
 20
132.71304286591271
 30
0.0
  0
VERTEX
  5
3177
  8
0
 10
84.986661698076944
 20
132.72937012047689
 30
0.0
  0
VERTEX
  5
3178
  8
0
 10
84.990476637678455
 20
132.74329597942241
 30
0.0
  0
VERTEX
  5
3179
  8
0
 10
84.993649643862113
 20
132.75482895784521
 30
0.0
  0
VERTEX
  5
317A
  8
0
 10
84.996177686496424
 20
132.76398583982021
 30
0.0
  0
VERTEX
  5
317B
  8
0
 10
84.997200017660134
 20
132.76768090209481
 30
0.0
  0
VERTEX
  5
317C
  8
0
 10
84.998061835573708
 20
132.7707922785138
 30
0.0
  0
VERTEX
  5
317D
  8
0
 10
84.999307351120294
 20
132.77528320805041
 30
0.0
  0
VERTEX
  5
317E
  8
0
 10
84.999923688676915
 20
132.7775030444771
 30
0.0
  0
VERTEX
  5
317F
  8
0
 10
85.0
 20
132.77777777777769
 30
0.0
  0
SEQEND
  5
3180
  8
0
  0
LINE
  5
2288
  8
0
 10
50.4813535275633
 20
153.26037695893729
 30
0.0
 11
50.099053461330207
 21
153.26037695893729
 31
0.0
  0
LINE
  5
2289
  8
0
 10
50.481353527563243
 20
144.76037695893729
 30
0.0
 11
50.099053461330207
 21
144.76037695893729
 31
0.0
  0
LINE
  5
228A
  8
0
 10
50.036107059271359
 20
153.26037695893729
 30
0.0
 11
50.000000000000028
 21
153.26037695893729
 31
0.0
  0
LINE
  5
228B
  8
0
 10
51.425728932096312
 20
153.26037695893729
 30
0.0
 11
50.66891132651633
 21
153.26037695893729
 31
0.0
  0
LINE
  5
228C
  8
0
 10
52.850008512988012
 20
153.2603769589372
 30
0.0
 11
51.734079992028882
 21
153.26037695893729
 31
0.0
  0
LINE
  5
228D
  8
0
 10
54.725198045254437
 20
153.2603769589372
 30
0.0
 11
53.272875695530779
 21
153.2603769589372
 31
0.0
  0
LINE
  5
228E
  8
0
 10
57.013124077618812
 20
153.2603769589372
 30
0.0
 11
55.253972994019279
 21
153.2603769589372
 31
0.0
  0
LINE
  5
228F
  8
0
 10
59.667211033895988
 20
153.2603769589372
 30
0.0
 11
57.63704245950975
 21
153.2603769589372
 31
0.0
  0
LINE
  5
2290
  8
0
 10
62.633429357410989
 20
153.2603769589372
 30
0.0
 11
60.373571669889913
 21
153.2603769589372
 31
0.0
  0
LINE
  5
2291
  8
0
 10
65.851395396964094
 20
153.2603769589372
 30
0.0
 11
63.407852781934849
 21
153.2603769589372
 31
0.0
  0
LINE
  5
2292
  8
0
 10
69.255600643838079
 20
153.2603769589372
 30
0.0
 11
66.678116582347386
 21
153.2603769589372
 31
0.0
  0
LINE
  5
2293
  8
0
 10
72.776745296123806
 20
153.2603769589372
 30
0.0
 11
70.117789930813387
 21
153.2603769589372
 31
0.0
  0
LINE
  5
2294
  8
0
 10
76.343149002843177
 20
153.2603769589372
 30
0.0
 11
73.656850997156795
 21
153.2603769589372
 31
0.0
  0
LINE
  5
2295
  8
0
 10
79.882210069186556
 20
153.2603769589372
 30
0.0
 11
77.22325470387608
 21
153.2603769589372
 31
0.0
  0
LINE
  5
2296
  8
0
 10
83.321883417652487
 20
153.2603769589372
 30
0.0
 11
80.744399356161864
 21
153.2603769589372
 31
0.0
  0
LINE
  5
2297
  8
0
 10
86.592147218065108
 20
153.2603769589372
 30
0.0
 11
84.148604603035722
 21
153.2603769589372
 31
0.0
  0
LINE
  5
2298
  8
0
 10
89.626428330110059
 20
153.2603769589372
 30
0.0
 11
87.366570642589011
 21
153.2603769589372
 31
0.0
  0
LINE
  5
2299
  8
0
 10
92.362957540490129
 20
153.2603769589372
 30
0.0
 11
90.332788966103919
 21
153.2603769589372
 31
0.0
  0
LINE
  5
229A
  8
0
 10
94.746027005980693
 20
153.2603769589372
 30
0.0
 11
92.986875922381103
 21
153.2603769589372
 31
0.0
  0
LINE
  5
229B
  8
0
 10
96.7271243044691
 20
153.2603769589372
 30
0.0
 11
95.274801954745556
 21
153.2603769589372
 31
0.0
  0
LINE
  5
229C
  8
0
 10
98.265920007971147
 20
153.2603769589372
 30
0.0
 11
97.149991487012031
 21
153.2603769589372
 31
0.0
  0
LINE
  5
229D
  8
0
 10
99.331088673483748
 20
153.2603769589372
 30
0.0
 11
98.574271067903624
 21
153.2603769589372
 31
0.0
  0
LINE
  5
229E
  8
0
 10
99.900946538669814
 20
153.2603769589372
 30
0.0
 11
99.518646472436615
 21
153.2603769589372
 31
0.0
  0
LINE
  5
229F
  8
0
 10
100.0
 20
153.2603769589372
 30
0.0
 11
99.963892940728627
 21
153.2603769589372
 31
0.0
  0
LINE
  5
22A0
  8
0
 10
50.099053461330207
 20
149.98962304106271
 30
0.0
 11
50.481353527563243
 21
149.98962304106271
 31
0.0
  0
LINE
  5
22A1
  8
0
 10
50.668911326516309
 20
149.98962304106271
 30
0.0
 11
51.425728932096291
 21
149.98962304106271
 31
0.0
  0
LINE
  5
22A2
  8
0
 10
51.734079992028789
 20
149.98962304106271
 30
0.0
 11
52.850008512987927
 21
149.98962304106271
 31
0.0
  0
LINE
  5
22A3
  8
0
 10
53.272875695530779
 20
149.98962304106271
 30
0.0
 11
54.725198045254437
 21
149.98962304106271
 31
0.0
  0
LINE
  5
22A4
  8
0
 10
55.253972994019279
 20
149.98962304106271
 30
0.0
 11
57.013124077618748
 21
149.98962304106271
 31
0.0
  0
LINE
  5
22A5
  8
0
 10
57.63704245950975
 20
149.98962304106271
 30
0.0
 11
59.66721103389591
 21
149.98962304106271
 31
0.0
  0
LINE
  5
22A6
  8
0
 10
60.373571669889913
 20
149.98962304106271
 30
0.0
 11
62.633429357410868
 21
149.98962304106271
 31
0.0
  0
LINE
  5
22A7
  8
0
 10
63.407852781934793
 20
149.98962304106271
 30
0.0
 11
65.851395396964094
 21
149.98962304106271
 31
0.0
  0
LINE
  5
22A8
  8
0
 10
66.678116582347343
 20
149.98962304106271
 30
0.0
 11
69.255600643838079
 21
149.98962304106271
 31
0.0
  0
LINE
  5
22A9
  8
0
 10
70.117789930813387
 20
149.98962304106271
 30
0.0
 11
72.776745296123721
 21
149.98962304106271
 31
0.0
  0
LINE
  5
22AA
  8
0
 10
73.656850997156795
 20
149.98962304106271
 30
0.0
 11
76.343149002843177
 21
149.98962304106271
 31
0.0
  0
LINE
  5
22AB
  8
0
 10
77.22325470387608
 20
149.98962304106271
 30
0.0
 11
79.882210069186556
 21
149.98962304106271
 31
0.0
  0
LINE
  5
22AC
  8
0
 10
80.744399356161864
 20
149.98962304106271
 30
0.0
 11
83.321883417652487
 21
149.98962304106271
 31
0.0
  0
LINE
  5
22AD
  8
0
 10
84.148604603035722
 20
149.98962304106271
 30
0.0
 11
86.592147218065008
 21
149.98962304106271
 31
0.0
  0
LINE
  5
22AE
  8
0
 10
87.366570642588897
 20
149.98962304106271
 30
0.0
 11
89.626428330110059
 21
149.98962304106271
 31
0.0
  0
LINE
  5
22AF
  8
0
 10
90.332788966103919
 20
149.98962304106271
 30
0.0
 11
92.362957540490129
 21
149.98962304106271
 31
0.0
  0
LINE
  5
22B0
  8
0
 10
92.986875922381103
 20
149.98962304106271
 30
0.0
 11
94.746027005980636
 21
149.98962304106271
 31
0.0
  0
LINE
  5
22B1
  8
0
 10
95.274801954745556
 20
149.98962304106271
 30
0.0
 11
96.7271243044691
 21
149.98962304106271
 31
0.0
  0
LINE
  5
22B2
  8
0
 10
97.149991487011945
 20
149.98962304106271
 30
0.0
 11
98.265920007971147
 21
149.98962304106271
 31
0.0
  0
LINE
  5
22B3
  8
0
 10
98.574271067903624
 20
149.98962304106271
 30
0.0
 11
99.331088673483748
 21
149.98962304106271
 31
0.0
  0
LINE
  5
22B4
  8
0
 10
99.518646472436615
 20
149.98962304106271
 30
0.0
 11
99.900946538669814
 21
149.98962304106271
 31
0.0
  0
LINE
  5
22B5
  8
0
 10
99.963892940728627
 20
149.98962304106271
 30
0.0
 11
100.0
 21
149.98962304106271
 31
0.0
  0
LINE
  5
22B6
  8
0
 10
50.000000000000028
 20
149.98962304106271
 30
0.0
 11
50.036107059271359
 21
149.98962304106271
 31
0.0
  0
LINE
  5
22B7
  8
0
 10
51.049999999999983
 20
149.5
 30
0.0
 11
98.949999999999946
 21
149.5
 31
0.0
  0
LINE
  5
22B8
  8
0
 10
51.050000000000068
 20
153.75
 30
0.0
 11
98.950000000000045
 21
153.75
 31
0.0
  0
LINE
  5
22B9
  8
0
 10
50.099053461330207
 20
156.6399999999999
 30
0.0
 11
50.4813535275633
 21
156.6399999999999
 31
0.0
  0
LINE
  5
22BA
  8
0
 10
50.099053461330207
 20
154.23962304106271
 30
0.0
 11
50.4813535275633
 21
154.23962304106271
 31
0.0
  0
LINE
  5
22BB
  8
0
 10
50.000000000000028
 20
154.23962304106271
 30
0.0
 11
50.036107059271359
 21
154.23962304106271
 31
0.0
  0
LINE
  5
22BC
  8
0
 10
50.000000000000028
 20
156.6399999999999
 30
0.0
 11
50.036107059271359
 21
156.6399999999999
 31
0.0
  0
LINE
  5
22BD
  8
0
 10
50.66891132651633
 20
156.6399999999999
 30
0.0
 11
51.425728932096312
 21
156.6399999999999
 31
0.0
  0
LINE
  5
22BE
  8
0
 10
50.66891132651633
 20
154.23962304106271
 30
0.0
 11
51.425728932096312
 21
154.23962304106271
 31
0.0
  0
LINE
  5
22BF
  8
0
 10
51.734079992028882
 20
156.6399999999999
 30
0.0
 11
52.850008512988012
 21
156.6399999999999
 31
0.0
  0
LINE
  5
22C0
  8
0
 10
51.734079992028882
 20
154.23962304106271
 30
0.0
 11
52.850008512988012
 21
154.23962304106271
 31
0.0
  0
LINE
  5
22C1
  8
0
 10
53.272875695530871
 20
156.6399999999999
 30
0.0
 11
54.725198045254437
 21
156.6399999999999
 31
0.0
  0
LINE
  5
22C2
  8
0
 10
53.272875695530871
 20
154.23962304106271
 30
0.0
 11
54.725198045254437
 21
154.23962304106271
 31
0.0
  0
LINE
  5
22C3
  8
0
 10
55.253972994019279
 20
156.6399999999999
 30
0.0
 11
57.013124077618812
 21
156.6399999999999
 31
0.0
  0
LINE
  5
22C4
  8
0
 10
55.253972994019279
 20
154.23962304106271
 30
0.0
 11
57.013124077618812
 21
154.23962304106271
 31
0.0
  0
LINE
  5
22C5
  8
0
 10
57.63704245950975
 20
156.6399999999999
 30
0.0
 11
59.66721103389591
 21
156.6399999999999
 31
0.0
  0
LINE
  5
22C6
  8
0
 10
57.63704245950975
 20
154.23962304106271
 30
0.0
 11
59.667211033895988
 21
154.23962304106271
 31
0.0
  0
LINE
  5
22C7
  8
0
 10
60.373571669889913
 20
156.6399999999999
 30
0.0
 11
62.633429357410989
 21
156.6399999999999
 31
0.0
  0
LINE
  5
22C8
  8
0
 10
60.373571669889913
 20
154.23962304106271
 30
0.0
 11
62.633429357410989
 21
154.23962304106271
 31
0.0
  0
LINE
  5
22C9
  8
0
 10
63.407852781934793
 20
156.6399999999999
 30
0.0
 11
65.851395396964094
 21
156.6399999999999
 31
0.0
  0
LINE
  5
22CA
  8
0
 10
63.407852781934849
 20
154.23962304106271
 30
0.0
 11
65.851395396964094
 21
154.23962304106271
 31
0.0
  0
LINE
  5
22CB
  8
0
 10
66.678116582347386
 20
156.6399999999999
 30
0.0
 11
69.255600643838079
 21
156.6399999999999
 31
0.0
  0
LINE
  5
22CC
  8
0
 10
66.678116582347386
 20
154.23962304106271
 30
0.0
 11
69.255600643838079
 21
154.23962304106271
 31
0.0
  0
LINE
  5
22CD
  8
0
 10
70.117789930813387
 20
156.6399999999999
 30
0.0
 11
72.776745296123806
 21
156.6399999999999
 31
0.0
  0
LINE
  5
22CE
  8
0
 10
70.117789930813387
 20
154.23962304106271
 30
0.0
 11
72.776745296123806
 21
154.23962304106271
 31
0.0
  0
LINE
  5
22CF
  8
0
 10
73.656850997156795
 20
156.6399999999999
 30
0.0
 11
76.343149002843177
 21
156.6399999999999
 31
0.0
  0
LINE
  5
22D0
  8
0
 10
73.656850997156795
 20
154.23962304106271
 30
0.0
 11
76.343149002843177
 21
154.23962304106271
 31
0.0
  0
LINE
  5
22D1
  8
0
 10
77.22325470387608
 20
156.6399999999999
 30
0.0
 11
79.882210069186556
 21
156.6399999999999
 31
0.0
  0
LINE
  5
22D2
  8
0
 10
77.22325470387608
 20
154.23962304106271
 30
0.0
 11
79.882210069186556
 21
154.23962304106271
 31
0.0
  0
LINE
  5
22D3
  8
0
 10
80.744399356161864
 20
156.6399999999999
 30
0.0
 11
83.321883417652487
 21
156.6399999999999
 31
0.0
  0
LINE
  5
22D4
  8
0
 10
80.744399356161864
 20
154.23962304106271
 30
0.0
 11
83.321883417652487
 21
154.23962304106271
 31
0.0
  0
LINE
  5
22D5
  8
0
 10
84.148604603035722
 20
156.6399999999999
 30
0.0
 11
86.592147218065108
 21
156.6399999999999
 31
0.0
  0
LINE
  5
22D6
  8
0
 10
84.148604603035722
 20
154.23962304106271
 30
0.0
 11
86.592147218065108
 21
154.23962304106271
 31
0.0
  0
LINE
  5
22D7
  8
0
 10
87.366570642589011
 20
156.6399999999999
 30
0.0
 11
89.626428330110059
 21
156.6399999999999
 31
0.0
  0
LINE
  5
22D8
  8
0
 10
87.366570642589011
 20
154.23962304106271
 30
0.0
 11
89.626428330110059
 21
154.23962304106271
 31
0.0
  0
LINE
  5
22D9
  8
0
 10
90.332788966103919
 20
156.6399999999999
 30
0.0
 11
92.362957540490129
 21
156.6399999999999
 31
0.0
  0
LINE
  5
22DA
  8
0
 10
90.332788966103919
 20
154.23962304106271
 30
0.0
 11
92.362957540490129
 21
154.23962304106271
 31
0.0
  0
LINE
  5
22DB
  8
0
 10
92.986875922381103
 20
156.6399999999999
 30
0.0
 11
94.746027005980693
 21
156.6399999999999
 31
0.0
  0
LINE
  5
22DC
  8
0
 10
92.986875922381103
 20
154.23962304106271
 30
0.0
 11
94.746027005980693
 21
154.23962304106271
 31
0.0
  0
LINE
  5
22DD
  8
0
 10
95.274801954745556
 20
156.6399999999999
 30
0.0
 11
96.7271243044691
 21
156.6399999999999
 31
0.0
  0
LINE
  5
22DE
  8
0
 10
95.274801954745556
 20
154.23962304106271
 30
0.0
 11
96.7271243044691
 21
154.23962304106271
 31
0.0
  0
LINE
  5
22DF
  8
0
 10
97.149991487012031
 20
156.6399999999999
 30
0.0
 11
98.265920007971147
 21
156.6399999999999
 31
0.0
  0
LINE
  5
22E0
  8
0
 10
97.149991487012031
 20
154.23962304106271
 30
0.0
 11
98.265920007971147
 21
154.23962304106271
 31
0.0
  0
LINE
  5
22E1
  8
0
 10
98.574271067903624
 20
156.6399999999999
 30
0.0
 11
99.331088673483748
 21
156.6399999999999
 31
0.0
  0
LINE
  5
22E2
  8
0
 10
98.574271067903624
 20
154.23962304106271
 30
0.0
 11
99.331088673483748
 21
154.23962304106271
 31
0.0
  0
LINE
  5
22E3
  8
0
 10
99.518646472436615
 20
156.6399999999999
 30
0.0
 11
99.900946538669814
 21
156.6399999999999
 31
0.0
  0
LINE
  5
22E4
  8
0
 10
99.518646472436615
 20
154.23962304106271
 30
0.0
 11
99.900946538669814
 21
154.23962304106271
 31
0.0
  0
LINE
  5
22E5
  8
0
 10
99.963892940728627
 20
156.6399999999999
 30
0.0
 11
100.0
 21
156.6399999999999
 31
0.0
  0
LINE
  5
22E6
  8
0
 10
99.963892940728627
 20
154.23962304106271
 30
0.0
 11
100.0
 21
154.23962304106271
 31
0.0
  0
LINE
  5
22E7
  8
0
 10
50.036107059271359
 20
144.76037695893729
 30
0.0
 11
50.000000000000028
 21
144.76037695893729
 31
0.0
  0
LINE
  5
22E8
  8
0
 10
51.425728932096291
 20
144.76037695893729
 30
0.0
 11
50.668911326516309
 21
144.76037695893729
 31
0.0
  0
LINE
  5
22E9
  8
0
 10
52.850008512987927
 20
144.7603769589372
 30
0.0
 11
51.734079992028789
 21
144.76037695893729
 31
0.0
  0
LINE
  5
22EA
  8
0
 10
54.725198045254437
 20
144.7603769589372
 30
0.0
 11
53.272875695530779
 21
144.7603769589372
 31
0.0
  0
LINE
  5
22EB
  8
0
 10
57.013124077618748
 20
144.7603769589372
 30
0.0
 11
55.253972994019279
 21
144.7603769589372
 31
0.0
  0
LINE
  5
22EC
  8
0
 10
59.66721103389591
 20
144.7603769589372
 30
0.0
 11
57.63704245950975
 21
144.7603769589372
 31
0.0
  0
LINE
  5
22ED
  8
0
 10
62.633429357410868
 20
144.7603769589372
 30
0.0
 11
60.373571669889913
 21
144.7603769589372
 31
0.0
  0
LINE
  5
22EE
  8
0
 10
65.851395396964094
 20
144.7603769589372
 30
0.0
 11
63.407852781934793
 21
144.7603769589372
 31
0.0
  0
LINE
  5
22EF
  8
0
 10
69.255600643838079
 20
144.7603769589372
 30
0.0
 11
66.678116582347343
 21
144.7603769589372
 31
0.0
  0
LINE
  5
22F0
  8
0
 10
72.776745296123721
 20
144.7603769589372
 30
0.0
 11
70.117789930813387
 21
144.7603769589372
 31
0.0
  0
LINE
  5
22F1
  8
0
 10
76.343149002843177
 20
144.7603769589372
 30
0.0
 11
73.656850997156795
 21
144.7603769589372
 31
0.0
  0
LINE
  5
22F2
  8
0
 10
79.882210069186556
 20
144.7603769589372
 30
0.0
 11
77.22325470387608
 21
144.7603769589372
 31
0.0
  0
LINE
  5
22F3
  8
0
 10
83.321883417652487
 20
144.7603769589372
 30
0.0
 11
80.744399356161864
 21
144.7603769589372
 31
0.0
  0
LINE
  5
22F4
  8
0
 10
86.592147218065008
 20
144.7603769589372
 30
0.0
 11
84.148604603035722
 21
144.7603769589372
 31
0.0
  0
LINE
  5
22F5
  8
0
 10
89.626428330110059
 20
144.7603769589372
 30
0.0
 11
87.366570642588897
 21
144.7603769589372
 31
0.0
  0
LINE
  5
22F6
  8
0
 10
92.362957540490129
 20
144.7603769589372
 30
0.0
 11
90.332788966103919
 21
144.7603769589372
 31
0.0
  0
LINE
  5
22F7
  8
0
 10
94.746027005980636
 20
144.7603769589372
 30
0.0
 11
92.986875922381103
 21
144.7603769589372
 31
0.0
  0
LINE
  5
22F8
  8
0
 10
96.7271243044691
 20
144.7603769589372
 30
0.0
 11
95.274801954745556
 21
144.7603769589372
 31
0.0
  0
LINE
  5
22F9
  8
0
 10
98.265920007971147
 20
144.7603769589372
 30
0.0
 11
97.149991487011945
 21
144.7603769589372
 31
0.0
  0
LINE
  5
22FA
  8
0
 10
99.331088673483748
 20
144.7603769589372
 30
0.0
 11
98.574271067903624
 21
144.7603769589372
 31
0.0
  0
LINE
  5
22FB
  8
0
 10
99.900946538669814
 20
144.7603769589372
 30
0.0
 11
99.518646472436615
 21
144.7603769589372
 31
0.0
  0
LINE
  5
22FC
  8
0
 10
100.0
 20
144.7603769589372
 30
0.0
 11
99.963892940728627
 21
144.7603769589372
 31
0.0
  0
LINE
  5
22FD
  8
0
 10
50.099053461330207
 20
142.36000000000001
 30
0.0
 11
50.481353527563243
 21
142.36000000000001
 31
0.0
  0
LINE
  5
22FE
  8
0
 10
50.668911326516309
 20
142.36000000000001
 30
0.0
 11
51.425728932096291
 21
142.36000000000001
 31
0.0
  0
LINE
  5
22FF
  8
0
 10
51.734079992028789
 20
142.36000000000001
 30
0.0
 11
52.850008512987927
 21
142.36000000000001
 31
0.0
  0
LINE
  5
2300
  8
0
 10
53.272875695530779
 20
142.36000000000001
 30
0.0
 11
54.725198045254437
 21
142.36000000000001
 31
0.0
  0
LINE
  5
2301
  8
0
 10
55.253972994019279
 20
142.36000000000001
 30
0.0
 11
57.013124077618748
 21
142.36000000000001
 31
0.0
  0
LINE
  5
2302
  8
0
 10
57.63704245950975
 20
142.36000000000001
 30
0.0
 11
59.66721103389591
 21
142.36000000000001
 31
0.0
  0
LINE
  5
2303
  8
0
 10
60.373571669889913
 20
142.36000000000001
 30
0.0
 11
62.633429357410868
 21
142.36000000000001
 31
0.0
  0
LINE
  5
2304
  8
0
 10
63.407852781934707
 20
142.36000000000001
 30
0.0
 11
65.851395396964094
 21
142.36000000000001
 31
0.0
  0
LINE
  5
2305
  8
0
 10
66.678116582347343
 20
142.36000000000001
 30
0.0
 11
69.255600643838079
 21
142.36000000000001
 31
0.0
  0
LINE
  5
2306
  8
0
 10
70.117789930813387
 20
142.36000000000001
 30
0.0
 11
72.776745296123721
 21
142.36000000000001
 31
0.0
  0
LINE
  5
2307
  8
0
 10
73.656850997156724
 20
142.36000000000001
 30
0.0
 11
76.343149002843177
 21
142.36000000000001
 31
0.0
  0
LINE
  5
2308
  8
0
 10
77.22325470387608
 20
142.36000000000001
 30
0.0
 11
79.882210069186556
 21
142.36000000000001
 31
0.0
  0
LINE
  5
2309
  8
0
 10
80.744399356161864
 20
142.36000000000001
 30
0.0
 11
83.321883417652444
 21
142.36000000000001
 31
0.0
  0
LINE
  5
230A
  8
0
 10
84.148604603035722
 20
142.36000000000001
 30
0.0
 11
86.592147218065008
 21
142.36000000000001
 31
0.0
  0
LINE
  5
230B
  8
0
 10
87.366570642588897
 20
142.36000000000001
 30
0.0
 11
89.626428330110059
 21
142.36000000000001
 31
0.0
  0
LINE
  5
230C
  8
0
 10
90.332788966103919
 20
142.36000000000001
 30
0.0
 11
92.362957540490129
 21
142.36000000000001
 31
0.0
  0
LINE
  5
230D
  8
0
 10
92.986875922381103
 20
142.36000000000001
 30
0.0
 11
94.746027005980636
 21
142.36000000000001
 31
0.0
  0
LINE
  5
230E
  8
0
 10
95.274801954745556
 20
142.36000000000001
 30
0.0
 11
96.7271243044691
 21
142.36000000000001
 31
0.0
  0
LINE
  5
230F
  8
0
 10
97.149991487011945
 20
142.36000000000001
 30
0.0
 11
98.265920007971147
 21
142.36000000000001
 31
0.0
  0
LINE
  5
2310
  8
0
 10
98.574271067903624
 20
142.36000000000001
 30
0.0
 11
99.331088673483748
 21
142.36000000000001
 31
0.0
  0
LINE
  5
2311
  8
0
 10
99.518646472436615
 20
142.36000000000001
 30
0.0
 11
99.900946538669814
 21
142.36000000000001
 31
0.0
  0
LINE
  5
2312
  8
0
 10
99.963892940728627
 20
142.36000000000001
 30
0.0
 11
100.0
 21
142.36000000000001
 31
0.0
  0
LINE
  5
2313
  8
0
 10
50.000000000000028
 20
142.36000000000001
 30
0.0
 11
50.036107059271359
 21
142.36000000000001
 31
0.0
  0
LINE
  5
2314
  8
0
 10
51.000000000000028
 20
141.8000000000001
 30
0.0
 11
99.000000000000057
 21
141.8000000000001
 31
0.0
  0
LINE
  5
2315
  8
0
 10
51.049999999999983
 20
145.25
 30
0.0
 11
98.949999999999946
 21
145.25
 31
0.0
  0
LINE
  5
2316
  8
0
 10
50.481353527563243
 20
149.01037695893729
 30
0.0
 11
50.099053461330207
 21
149.01037695893729
 31
0.0
  0
LINE
  5
2317
  8
0
 10
50.099053461330207
 20
145.73962304106271
 30
0.0
 11
50.481353527563243
 21
145.73962304106271
 31
0.0
  0
LINE
  5
2318
  8
0
 10
50.000000000000028
 20
145.73962304106271
 30
0.0
 11
50.036107059271359
 21
145.73962304106271
 31
0.0
  0
LINE
  5
2319
  8
0
 10
50.036107059271359
 20
149.01037695893729
 30
0.0
 11
50.000000000000028
 21
149.01037695893729
 31
0.0
  0
LINE
  5
231A
  8
0
 10
51.425728932096291
 20
149.01037695893729
 30
0.0
 11
50.668911326516309
 21
149.01037695893729
 31
0.0
  0
LINE
  5
231B
  8
0
 10
50.668911326516309
 20
145.73962304106271
 30
0.0
 11
51.425728932096291
 21
145.73962304106271
 31
0.0
  0
LINE
  5
231C
  8
0
 10
52.850008512987927
 20
149.0103769589372
 30
0.0
 11
51.734079992028789
 21
149.01037695893729
 31
0.0
  0
LINE
  5
231D
  8
0
 10
51.734079992028789
 20
145.73962304106271
 30
0.0
 11
52.850008512987927
 21
145.73962304106271
 31
0.0
  0
LINE
  5
231E
  8
0
 10
54.725198045254437
 20
149.0103769589372
 30
0.0
 11
53.272875695530779
 21
149.0103769589372
 31
0.0
  0
LINE
  5
231F
  8
0
 10
53.272875695530779
 20
145.73962304106271
 30
0.0
 11
54.725198045254437
 21
145.73962304106271
 31
0.0
  0
LINE
  5
2320
  8
0
 10
57.013124077618748
 20
149.0103769589372
 30
0.0
 11
55.253972994019279
 21
149.0103769589372
 31
0.0
  0
LINE
  5
2321
  8
0
 10
55.253972994019279
 20
145.73962304106271
 30
0.0
 11
57.013124077618748
 21
145.73962304106271
 31
0.0
  0
LINE
  5
2322
  8
0
 10
59.66721103389591
 20
149.0103769589372
 30
0.0
 11
57.63704245950975
 21
149.0103769589372
 31
0.0
  0
LINE
  5
2323
  8
0
 10
57.63704245950975
 20
145.73962304106271
 30
0.0
 11
59.66721103389591
 21
145.73962304106271
 31
0.0
  0
LINE
  5
2324
  8
0
 10
62.633429357410868
 20
149.0103769589372
 30
0.0
 11
60.373571669889913
 21
149.0103769589372
 31
0.0
  0
LINE
  5
2325
  8
0
 10
60.373571669889913
 20
145.73962304106271
 30
0.0
 11
62.633429357410868
 21
145.73962304106271
 31
0.0
  0
LINE
  5
2326
  8
0
 10
65.851395396964094
 20
149.0103769589372
 30
0.0
 11
63.407852781934793
 21
149.0103769589372
 31
0.0
  0
LINE
  5
2327
  8
0
 10
63.407852781934793
 20
145.73962304106271
 30
0.0
 11
65.851395396964094
 21
145.73962304106271
 31
0.0
  0
LINE
  5
2328
  8
0
 10
69.255600643838079
 20
149.0103769589372
 30
0.0
 11
66.678116582347343
 21
149.0103769589372
 31
0.0
  0
LINE
  5
2329
  8
0
 10
66.678116582347343
 20
145.73962304106271
 30
0.0
 11
69.255600643838079
 21
145.73962304106271
 31
0.0
  0
LINE
  5
232A
  8
0
 10
72.776745296123721
 20
149.0103769589372
 30
0.0
 11
70.117789930813387
 21
149.0103769589372
 31
0.0
  0
LINE
  5
232B
  8
0
 10
70.117789930813387
 20
145.73962304106271
 30
0.0
 11
72.776745296123721
 21
145.73962304106271
 31
0.0
  0
LINE
  5
232C
  8
0
 10
76.343149002843177
 20
149.0103769589372
 30
0.0
 11
73.656850997156795
 21
149.0103769589372
 31
0.0
  0
LINE
  5
232D
  8
0
 10
73.656850997156795
 20
145.73962304106271
 30
0.0
 11
76.343149002843177
 21
145.73962304106271
 31
0.0
  0
LINE
  5
232E
  8
0
 10
79.882210069186556
 20
149.0103769589372
 30
0.0
 11
77.22325470387608
 21
149.0103769589372
 31
0.0
  0
LINE
  5
232F
  8
0
 10
77.22325470387608
 20
145.73962304106271
 30
0.0
 11
79.882210069186556
 21
145.73962304106271
 31
0.0
  0
LINE
  5
2330
  8
0
 10
83.321883417652487
 20
149.0103769589372
 30
0.0
 11
80.744399356161864
 21
149.0103769589372
 31
0.0
  0
LINE
  5
2331
  8
0
 10
80.744399356161864
 20
145.73962304106271
 30
0.0
 11
83.321883417652487
 21
145.73962304106271
 31
0.0
  0
LINE
  5
2332
  8
0
 10
86.592147218065008
 20
149.0103769589372
 30
0.0
 11
84.148604603035722
 21
149.0103769589372
 31
0.0
  0
LINE
  5
2333
  8
0
 10
84.148604603035722
 20
145.73962304106271
 30
0.0
 11
86.592147218065008
 21
145.73962304106271
 31
0.0
  0
LINE
  5
2334
  8
0
 10
89.626428330110059
 20
149.0103769589372
 30
0.0
 11
87.366570642588897
 21
149.0103769589372
 31
0.0
  0
LINE
  5
2335
  8
0
 10
87.366570642588897
 20
145.73962304106271
 30
0.0
 11
89.626428330110059
 21
145.73962304106271
 31
0.0
  0
LINE
  5
2336
  8
0
 10
92.362957540490129
 20
149.0103769589372
 30
0.0
 11
90.332788966103919
 21
149.0103769589372
 31
0.0
  0
LINE
  5
2337
  8
0
 10
90.332788966103919
 20
145.73962304106271
 30
0.0
 11
92.362957540490129
 21
145.73962304106271
 31
0.0
  0
LINE
  5
2338
  8
0
 10
94.746027005980636
 20
149.0103769589372
 30
0.0
 11
92.986875922381103
 21
149.0103769589372
 31
0.0
  0
LINE
  5
2339
  8
0
 10
92.986875922381103
 20
145.73962304106271
 30
0.0
 11
94.746027005980636
 21
145.73962304106271
 31
0.0
  0
LINE
  5
233A
  8
0
 10
96.7271243044691
 20
149.0103769589372
 30
0.0
 11
95.274801954745556
 21
149.0103769589372
 31
0.0
  0
LINE
  5
233B
  8
0
 10
95.274801954745556
 20
145.73962304106271
 30
0.0
 11
96.7271243044691
 21
145.73962304106271
 31
0.0
  0
LINE
  5
233C
  8
0
 10
98.265920007971147
 20
149.0103769589372
 30
0.0
 11
97.149991487011945
 21
149.0103769589372
 31
0.0
  0
LINE
  5
233D
  8
0
 10
97.149991487011945
 20
145.73962304106271
 30
0.0
 11
98.265920007971147
 21
145.73962304106271
 31
0.0
  0
LINE
  5
233E
  8
0
 10
99.331088673483748
 20
149.0103769589372
 30
0.0
 11
98.574271067903624
 21
149.0103769589372
 31
0.0
  0
LINE
  5
233F
  8
0
 10
98.574271067903624
 20
145.73962304106271
 30
0.0
 11
99.331088673483748
 21
145.73962304106271
 31
0.0
  0
LINE
  5
2340
  8
0
 10
99.900946538669814
 20
149.0103769589372
 30
0.0
 11
99.518646472436615
 21
149.0103769589372
 31
0.0
  0
LINE
  5
2341
  8
0
 10
99.518646472436615
 20
145.73962304106271
 30
0.0
 11
99.900946538669814
 21
145.73962304106271
 31
0.0
  0
LINE
  5
2342
  8
0
 10
100.0
 20
149.0103769589372
 30
0.0
 11
99.963892940728627
 21
149.0103769589372
 31
0.0
  0
LINE
  5
2343
  8
0
 10
99.963892940728627
 20
145.73962304106271
 30
0.0
 11
100.0
 21
145.73962304106271
 31
0.0
  0
LINE
  5
2344
  8
0
 10
98.988723356376511
 20
145.29663076581551
 30
0.0
 11
99.900946538669814
 21
145.73962304106271
 31
0.0
  0
LINE
  5
2345
  8
0
 10
99.900946538669814
 20
145.73962304106271
 30
0.0
 11
99.900946538669814
 21
149.0103769589372
 31
0.0
  0
LINE
  5
2346
  8
0
 10
99.900946538669814
 20
149.0103769589372
 30
0.0
 11
98.988723356376511
 21
149.45336923418449
 31
0.0
  0
LINE
  5
2347
  8
0
 10
98.500382126606439
 20
145.29663076581551
 30
0.0
 11
99.331088673483748
 21
145.73962304106271
 31
0.0
  0
LINE
  5
2348
  8
0
 10
99.331088673483748
 20
145.73962304106271
 30
0.0
 11
99.331088673483748
 21
149.0103769589372
 31
0.0
  0
LINE
  5
2349
  8
0
 10
99.331088673483748
 20
149.0103769589372
 30
0.0
 11
98.500382126606439
 21
149.45336923418449
 31
0.0
  0
LINE
  5
234A
  8
0
 10
97.533640886244214
 20
145.29663076581551
 30
0.0
 11
98.265920007971147
 21
145.73962304106271
 31
0.0
  0
LINE
  5
234B
  8
0
 10
98.265920007971147
 20
145.73962304106271
 30
0.0
 11
98.265920007971147
 21
149.0103769589372
 31
0.0
  0
LINE
  5
234C
  8
0
 10
98.265920007971147
 20
149.0103769589372
 30
0.0
 11
97.533640886244214
 21
149.45336923418449
 31
0.0
  0
LINE
  5
234D
  8
0
 10
96.108179699092545
 20
145.29663076581551
 30
0.0
 11
96.7271243044691
 21
145.73962304106271
 31
0.0
  0
LINE
  5
234E
  8
0
 10
96.7271243044691
 20
145.73962304106271
 30
0.0
 11
96.7271243044691
 21
149.0103769589372
 31
0.0
  0
LINE
  5
234F
  8
0
 10
96.7271243044691
 20
149.0103769589372
 30
0.0
 11
96.108179699092545
 21
149.45336923418449
 31
0.0
  0
LINE
  5
2350
  8
0
 10
94.253016844230842
 20
145.29663076581551
 30
0.0
 11
94.746027005980636
 21
145.73962304106271
 31
0.0
  0
LINE
  5
2351
  8
0
 10
94.746027005980636
 20
145.73962304106271
 30
0.0
 11
94.746027005980636
 21
149.0103769589372
 31
0.0
  0
LINE
  5
2352
  8
0
 10
94.746027005980636
 20
149.0103769589372
 30
0.0
 11
94.253016844230842
 21
149.45336923418449
 31
0.0
  0
LINE
  5
2353
  8
0
 10
92.005918087536415
 20
145.29663076581551
 30
0.0
 11
92.362957540490129
 21
145.73962304106271
 31
0.0
  0
LINE
  5
2354
  8
0
 10
92.362957540490129
 20
145.73962304106271
 30
0.0
 11
92.362957540490129
 21
149.0103769589372
 31
0.0
  0
LINE
  5
2355
  8
0
 10
92.362957540490129
 20
149.0103769589372
 30
0.0
 11
92.005918087536415
 21
149.45336923418449
 31
0.0
  0
LINE
  5
2356
  8
0
 10
89.412627879597835
 20
145.29663076581551
 30
0.0
 11
89.626428330110059
 21
145.73962304106271
 31
0.0
  0
LINE
  5
2357
  8
0
 10
89.626428330110059
 20
145.73962304106271
 30
0.0
 11
89.626428330110059
 21
149.0103769589372
 31
0.0
  0
LINE
  5
2358
  8
0
 10
89.626428330110059
 20
149.0103769589372
 30
0.0
 11
89.412627879597835
 21
149.45336923418449
 31
0.0
  0
LINE
  5
2359
  8
0
 10
86.525938130617362
 20
145.29663076581551
 30
0.0
 11
86.592147218065008
 21
145.73962304106271
 31
0.0
  0
LINE
  5
235A
  8
0
 10
86.592147218065008
 20
145.73962304106271
 30
0.0
 11
86.592147218065008
 21
149.0103769589372
 31
0.0
  0
LINE
  5
235B
  8
0
 10
86.592147218065008
 20
149.0103769589372
 30
0.0
 11
86.525938130617362
 21
149.45336923418449
 31
0.0
  0
LINE
  5
235C
  8
0
 10
83.404613519358236
 20
145.29663076581551
 30
0.0
 11
83.321883417652487
 21
145.73962304106271
 31
0.0
  0
LINE
  5
235D
  8
0
 10
83.321883417652487
 20
145.73962304106271
 30
0.0
 11
83.321883417652487
 21
149.0103769589372
 31
0.0
  0
LINE
  5
235E
  8
0
 10
83.321883417652487
 20
149.0103769589372
 30
0.0
 11
83.404613519358236
 21
149.45336923418449
 31
0.0
  0
LINE
  5
235F
  8
0
 10
80.112195213749018
 20
145.29663076581551
 30
0.0
 11
79.882210069186556
 21
145.73962304106271
 31
0.0
  0
LINE
  5
2360
  8
0
 10
79.882210069186556
 20
145.73962304106271
 30
0.0
 11
79.882210069186556
 21
149.0103769589372
 31
0.0
  0
LINE
  5
2361
  8
0
 10
79.882210069186556
 20
149.0103769589372
 30
0.0
 11
80.112195213749018
 21
149.45336923418449
 31
0.0
  0
LINE
  5
2362
  8
0
 10
76.715707355941447
 20
145.29663076581551
 30
0.0
 11
76.343149002843177
 21
145.73962304106271
 31
0.0
  0
LINE
  5
2363
  8
0
 10
76.343149002843177
 20
145.73962304106271
 30
0.0
 11
76.343149002843177
 21
149.0103769589372
 31
0.0
  0
LINE
  5
2364
  8
0
 10
76.343149002843177
 20
149.0103769589372
 30
0.0
 11
76.715707355941447
 21
149.45336923418449
 31
0.0
  0
LINE
  5
2365
  8
0
 10
73.284292644058439
 20
145.29663076581551
 30
0.0
 11
72.776745296123721
 21
145.73962304106271
 31
0.0
  0
LINE
  5
2366
  8
0
 10
72.776745296123721
 20
145.73962304106271
 30
0.0
 11
72.776745296123721
 21
149.0103769589372
 31
0.0
  0
LINE
  5
2367
  8
0
 10
72.776745296123721
 20
149.0103769589372
 30
0.0
 11
73.284292644058439
 21
149.45336923418449
 31
0.0
  0
LINE
  5
2368
  8
0
 10
69.887804786250854
 20
145.29663076581551
 30
0.0
 11
69.255600643838079
 21
145.73962304106271
 31
0.0
  0
LINE
  5
2369
  8
0
 10
69.255600643838079
 20
145.73962304106271
 30
0.0
 11
69.255600643838079
 21
149.0103769589372
 31
0.0
  0
LINE
  5
236A
  8
0
 10
69.255600643838079
 20
149.0103769589372
 30
0.0
 11
69.887804786250854
 21
149.45336923418449
 31
0.0
  0
LINE
  5
236B
  8
0
 10
66.595386480641622
 20
145.29663076581551
 30
0.0
 11
65.851395396964094
 21
145.73962304106271
 31
0.0
  0
LINE
  5
236C
  8
0
 10
65.851395396964094
 20
145.73962304106271
 30
0.0
 11
65.851395396964094
 21
149.0103769589372
 31
0.0
  0
LINE
  5
236D
  8
0
 10
65.851395396964094
 20
149.0103769589372
 30
0.0
 11
66.595386480641622
 21
149.45336923418449
 31
0.0
  0
LINE
  5
236E
  8
0
 10
63.474061869382581
 20
145.29663076581551
 30
0.0
 11
62.633429357410868
 21
145.73962304106271
 31
0.0
  0
LINE
  5
236F
  8
0
 10
62.633429357410868
 20
145.73962304106271
 30
0.0
 11
62.633429357410868
 21
149.0103769589372
 31
0.0
  0
LINE
  5
2370
  8
0
 10
62.633429357410868
 20
149.0103769589372
 30
0.0
 11
63.474061869382581
 21
149.45336923418449
 31
0.0
  0
LINE
  5
2371
  8
0
 10
60.587372120402051
 20
145.29663076581551
 30
0.0
 11
59.66721103389591
 21
145.73962304106271
 31
0.0
  0
LINE
  5
2372
  8
0
 10
59.66721103389591
 20
145.73962304106271
 30
0.0
 11
59.66721103389591
 21
149.0103769589372
 31
0.0
  0
LINE
  5
2373
  8
0
 10
59.66721103389591
 20
149.0103769589372
 30
0.0
 11
60.587372120402051
 21
149.45336923418449
 31
0.0
  0
LINE
  5
2374
  8
0
 10
57.994081912463493
 20
145.29663076581551
 30
0.0
 11
57.013124077618748
 21
145.73962304106271
 31
0.0
  0
LINE
  5
2375
  8
0
 10
57.013124077618748
 20
145.73962304106271
 30
0.0
 11
57.013124077618748
 21
149.0103769589372
 31
0.0
  0
LINE
  5
2376
  8
0
 10
57.013124077618748
 20
149.0103769589372
 30
0.0
 11
57.994081912463493
 21
149.45336923418449
 31
0.0
  0
LINE
  5
2377
  8
0
 10
55.746983155769072
 20
145.29663076581551
 30
0.0
 11
54.725198045254437
 21
145.73962304106271
 31
0.0
  0
LINE
  5
2378
  8
0
 10
54.725198045254437
 20
145.73962304106271
 30
0.0
 11
54.725198045254437
 21
149.0103769589372
 31
0.0
  0
LINE
  5
2379
  8
0
 10
54.725198045254437
 20
149.0103769589372
 30
0.0
 11
55.746983155769072
 21
149.45336923418449
 31
0.0
  0
LINE
  5
237A
  8
0
 10
53.891820300907433
 20
145.29663076581551
 30
0.0
 11
52.850008512987927
 21
145.73962304106271
 31
0.0
  0
LINE
  5
237B
  8
0
 10
52.850008512987927
 20
145.73962304106271
 30
0.0
 11
52.850008512987927
 21
149.0103769589372
 31
0.0
  0
LINE
  5
237C
  8
0
 10
52.850008512987927
 20
149.0103769589372
 30
0.0
 11
53.891820300907433
 21
149.45336923418449
 31
0.0
  0
LINE
  5
237D
  8
0
 10
52.466359113755658
 20
145.29663076581551
 30
0.0
 11
51.425728932096291
 21
145.73962304106271
 31
0.0
  0
LINE
  5
237E
  8
0
 10
51.425728932096291
 20
145.73962304106271
 30
0.0
 11
51.425728932096291
 21
149.01037695893729
 31
0.0
  0
LINE
  5
237F
  8
0
 10
51.425728932096291
 20
149.01037695893729
 30
0.0
 11
52.466359113755658
 21
149.45336923418449
 31
0.0
  0
LINE
  5
2380
  8
0
 10
51.499617873393589
 20
145.29663076581551
 30
0.0
 11
50.481353527563243
 21
145.73962304106271
 31
0.0
  0
LINE
  5
2381
  8
0
 10
50.481353527563243
 20
145.73962304106271
 30
0.0
 11
50.481353527563243
 21
149.01037695893729
 31
0.0
  0
LINE
  5
2382
  8
0
 10
50.481353527563243
 20
149.01037695893729
 30
0.0
 11
51.499617873393589
 21
149.45336923418449
 31
0.0
  0
LINE
  5
2383
  8
0
 10
51.011276643623411
 20
145.29663076581551
 30
0.0
 11
50.036107059271359
 21
145.73962304106271
 31
0.0
  0
LINE
  5
2384
  8
0
 10
50.036107059271359
 20
145.73962304106271
 30
0.0
 11
50.036107059271359
 21
149.01037695893729
 31
0.0
  0
LINE
  5
2385
  8
0
 10
50.036107059271359
 20
149.01037695893729
 30
0.0
 11
51.011276643623411
 21
149.45336923418449
 31
0.0
  0
LINE
  5
2386
  8
0
 10
99.900946538669814
 20
142.36000000000001
 30
0.0
 11
99.900946538669814
 21
144.7603769589372
 31
0.0
  0
LINE
  5
2387
  8
0
 10
99.900946538669814
 20
144.7603769589372
 30
0.0
 11
98.988723356376511
 21
145.20336923418441
 31
0.0
  0
LINE
  5
2388
  8
0
 10
98.988723356376511
 20
141.82799999999989
 30
0.0
 11
99.900946538669814
 21
142.36000000000001
 31
0.0
  0
LINE
  5
2389
  8
0
 10
98.988723356376511
 20
153.79663076581551
 30
0.0
 11
99.900946538669814
 21
154.23962304106271
 31
0.0
  0
LINE
  5
238A
  8
0
 10
99.900946538669814
 20
154.23962304106271
 30
0.0
 11
99.900946538669814
 21
156.6399999999999
 31
0.0
  0
LINE
  5
238B
  8
0
 10
99.900946538669814
 20
156.6399999999999
 30
0.0
 11
98.988723356376511
 21
157.17199999999991
 31
0.0
  0
LINE
  5
238C
  8
0
 10
99.900946538669814
 20
149.98962304106271
 30
0.0
 11
99.900946538669814
 21
153.2603769589372
 31
0.0
  0
LINE
  5
238D
  8
0
 10
99.900946538669814
 20
153.2603769589372
 30
0.0
 11
98.988723356376511
 21
153.70336923418449
 31
0.0
  0
LINE
  5
238E
  8
0
 10
98.988723356376511
 20
149.54663076581551
 30
0.0
 11
99.900946538669814
 21
149.98962304106271
 31
0.0
  0
LINE
  5
238F
  8
0
 10
99.963892940728627
 20
149.0103769589372
 30
0.0
 11
99.963892940728627
 21
145.73962304106271
 31
0.0
  0
LINE
  5
2390
  8
0
 10
99.963892940728627
 20
145.73962304106271
 30
0.0
 11
98.988723356376511
 21
145.29663076581551
 31
0.0
  0
LINE
  5
2391
  8
0
 10
98.988723356376511
 20
149.45336923418449
 30
0.0
 11
99.963892940728627
 21
149.0103769589372
 31
0.0
  0
LINE
  5
2392
  8
0
 10
98.988723356376511
 20
153.70336923418449
 30
0.0
 11
99.963892940728627
 21
153.2603769589372
 31
0.0
  0
LINE
  5
2393
  8
0
 10
99.963892940728627
 20
153.2603769589372
 30
0.0
 11
99.963892940728627
 21
149.98962304106271
 31
0.0
  0
LINE
  5
2394
  8
0
 10
99.963892940728627
 20
149.98962304106271
 30
0.0
 11
98.988723356376511
 21
149.54663076581551
 31
0.0
  0
LINE
  5
2395
  8
0
 10
99.963892940728627
 20
156.6399999999999
 30
0.0
 11
99.963892940728627
 21
154.23962304106271
 31
0.0
  0
LINE
  5
2396
  8
0
 10
99.963892940728627
 20
154.23962304106271
 30
0.0
 11
98.988723356376511
 21
153.79663076581551
 31
0.0
  0
LINE
  5
2397
  8
0
 10
98.988723356376511
 20
157.17199999999991
 30
0.0
 11
99.963892940728627
 21
156.6399999999999
 31
0.0
  0
LINE
  5
2398
  8
0
 10
98.988723356376511
 20
145.20336923418441
 30
0.0
 11
99.963892940728627
 21
144.7603769589372
 31
0.0
  0
LINE
  5
2399
  8
0
 10
99.963892940728627
 20
144.7603769589372
 30
0.0
 11
99.963892940728627
 21
142.36000000000001
 31
0.0
  0
LINE
  5
239A
  8
0
 10
99.963892940728627
 20
142.36000000000001
 30
0.0
 11
98.988723356376511
 21
141.82799999999989
 31
0.0
  0
LINE
  5
239B
  8
0
 10
99.331088673483748
 20
142.36000000000001
 30
0.0
 11
99.331088673483748
 21
144.7603769589372
 31
0.0
  0
LINE
  5
239C
  8
0
 10
99.331088673483748
 20
144.7603769589372
 30
0.0
 11
98.500382126606439
 21
145.20336923418441
 31
0.0
  0
LINE
  5
239D
  8
0
 10
98.500382126606439
 20
141.82799999999989
 30
0.0
 11
99.331088673483748
 21
142.36000000000001
 31
0.0
  0
LINE
  5
239E
  8
0
 10
98.500382126606439
 20
153.79663076581551
 30
0.0
 11
99.331088673483748
 21
154.23962304106271
 31
0.0
  0
LINE
  5
239F
  8
0
 10
99.331088673483748
 20
154.23962304106271
 30
0.0
 11
99.331088673483748
 21
156.6399999999999
 31
0.0
  0
LINE
  5
23A0
  8
0
 10
99.331088673483748
 20
156.6399999999999
 30
0.0
 11
98.500382126606439
 21
157.17199999999991
 31
0.0
  0
LINE
  5
23A1
  8
0
 10
99.331088673483748
 20
149.98962304106271
 30
0.0
 11
99.331088673483748
 21
153.2603769589372
 31
0.0
  0
LINE
  5
23A2
  8
0
 10
99.331088673483748
 20
153.2603769589372
 30
0.0
 11
98.500382126606439
 21
153.70336923418449
 31
0.0
  0
LINE
  5
23A3
  8
0
 10
98.500382126606439
 20
149.54663076581551
 30
0.0
 11
99.331088673483748
 21
149.98962304106271
 31
0.0
  0
LINE
  5
23A4
  8
0
 10
99.518646472436615
 20
149.0103769589372
 30
0.0
 11
99.518646472436615
 21
145.73962304106271
 31
0.0
  0
LINE
  5
23A5
  8
0
 10
99.518646472436615
 20
145.73962304106271
 30
0.0
 11
98.500382126606439
 21
145.29663076581551
 31
0.0
  0
LINE
  5
23A6
  8
0
 10
98.500382126606439
 20
149.45336923418449
 30
0.0
 11
99.518646472436615
 21
149.0103769589372
 31
0.0
  0
LINE
  5
23A7
  8
0
 10
98.500382126606439
 20
153.70336923418449
 30
0.0
 11
99.518646472436615
 21
153.2603769589372
 31
0.0
  0
LINE
  5
23A8
  8
0
 10
99.518646472436615
 20
153.2603769589372
 30
0.0
 11
99.518646472436615
 21
149.98962304106271
 31
0.0
  0
LINE
  5
23A9
  8
0
 10
99.518646472436615
 20
149.98962304106271
 30
0.0
 11
98.500382126606439
 21
149.54663076581551
 31
0.0
  0
LINE
  5
23AA
  8
0
 10
99.518646472436615
 20
156.6399999999999
 30
0.0
 11
99.518646472436615
 21
154.23962304106271
 31
0.0
  0
LINE
  5
23AB
  8
0
 10
99.518646472436615
 20
154.23962304106271
 30
0.0
 11
98.500382126606439
 21
153.79663076581551
 31
0.0
  0
LINE
  5
23AC
  8
0
 10
98.500382126606439
 20
157.17199999999991
 30
0.0
 11
99.518646472436615
 21
156.6399999999999
 31
0.0
  0
LINE
  5
23AD
  8
0
 10
98.500382126606439
 20
145.20336923418441
 30
0.0
 11
99.518646472436615
 21
144.7603769589372
 31
0.0
  0
LINE
  5
23AE
  8
0
 10
99.518646472436615
 20
144.7603769589372
 30
0.0
 11
99.518646472436615
 21
142.36000000000001
 31
0.0
  0
LINE
  5
23AF
  8
0
 10
99.518646472436615
 20
142.36000000000001
 30
0.0
 11
98.500382126606439
 21
141.82799999999989
 31
0.0
  0
LINE
  5
23B0
  8
0
 10
98.265920007971147
 20
142.36000000000001
 30
0.0
 11
98.265920007971147
 21
144.7603769589372
 31
0.0
  0
LINE
  5
23B1
  8
0
 10
98.265920007971147
 20
144.7603769589372
 30
0.0
 11
97.533640886244214
 21
145.20336923418441
 31
0.0
  0
LINE
  5
23B2
  8
0
 10
97.533640886244214
 20
141.82799999999989
 30
0.0
 11
98.265920007971147
 21
142.36000000000001
 31
0.0
  0
LINE
  5
23B3
  8
0
 10
97.533640886244214
 20
153.79663076581551
 30
0.0
 11
98.265920007971147
 21
154.23962304106271
 31
0.0
  0
LINE
  5
23B4
  8
0
 10
98.265920007971147
 20
154.23962304106271
 30
0.0
 11
98.265920007971147
 21
156.6399999999999
 31
0.0
  0
LINE
  5
23B5
  8
0
 10
98.265920007971147
 20
156.6399999999999
 30
0.0
 11
97.533640886244214
 21
157.17199999999991
 31
0.0
  0
LINE
  5
23B6
  8
0
 10
98.265920007971147
 20
149.98962304106271
 30
0.0
 11
98.265920007971147
 21
153.2603769589372
 31
0.0
  0
LINE
  5
23B7
  8
0
 10
98.265920007971147
 20
153.2603769589372
 30
0.0
 11
97.533640886244214
 21
153.70336923418449
 31
0.0
  0
LINE
  5
23B8
  8
0
 10
97.533640886244214
 20
149.54663076581551
 30
0.0
 11
98.265920007971147
 21
149.98962304106271
 31
0.0
  0
LINE
  5
23B9
  8
0
 10
98.574271067903624
 20
149.0103769589372
 30
0.0
 11
98.574271067903624
 21
145.73962304106271
 31
0.0
  0
LINE
  5
23BA
  8
0
 10
98.574271067903624
 20
145.73962304106271
 30
0.0
 11
97.533640886244214
 21
145.29663076581551
 31
0.0
  0
LINE
  5
23BB
  8
0
 10
97.533640886244214
 20
149.45336923418449
 30
0.0
 11
98.574271067903624
 21
149.0103769589372
 31
0.0
  0
LINE
  5
23BC
  8
0
 10
97.533640886244214
 20
153.70336923418449
 30
0.0
 11
98.574271067903624
 21
153.2603769589372
 31
0.0
  0
LINE
  5
23BD
  8
0
 10
98.574271067903624
 20
153.2603769589372
 30
0.0
 11
98.574271067903624
 21
149.98962304106271
 31
0.0
  0
LINE
  5
23BE
  8
0
 10
98.574271067903624
 20
149.98962304106271
 30
0.0
 11
97.533640886244214
 21
149.54663076581551
 31
0.0
  0
LINE
  5
23BF
  8
0
 10
98.574271067903624
 20
156.6399999999999
 30
0.0
 11
98.574271067903624
 21
154.23962304106271
 31
0.0
  0
LINE
  5
23C0
  8
0
 10
98.574271067903624
 20
154.23962304106271
 30
0.0
 11
97.533640886244214
 21
153.79663076581551
 31
0.0
  0
LINE
  5
23C1
  8
0
 10
97.533640886244214
 20
157.172
 30
0.0
 11
98.574271067903624
 21
156.6399999999999
 31
0.0
  0
LINE
  5
23C2
  8
0
 10
97.533640886244214
 20
145.20336923418441
 30
0.0
 11
98.574271067903624
 21
144.7603769589372
 31
0.0
  0
LINE
  5
23C3
  8
0
 10
98.574271067903624
 20
144.7603769589372
 30
0.0
 11
98.574271067903624
 21
142.36000000000001
 31
0.0
  0
LINE
  5
23C4
  8
0
 10
98.574271067903624
 20
142.36000000000001
 30
0.0
 11
97.533640886244214
 21
141.82799999999989
 31
0.0
  0
LINE
  5
23C5
  8
0
 10
96.7271243044691
 20
142.36000000000001
 30
0.0
 11
96.7271243044691
 21
144.7603769589372
 31
0.0
  0
LINE
  5
23C6
  8
0
 10
96.7271243044691
 20
144.7603769589372
 30
0.0
 11
96.108179699092545
 21
145.20336923418441
 31
0.0
  0
LINE
  5
23C7
  8
0
 10
96.108179699092545
 20
141.82799999999989
 30
0.0
 11
96.7271243044691
 21
142.36000000000001
 31
0.0
  0
LINE
  5
23C8
  8
0
 10
96.108179699092545
 20
153.79663076581551
 30
0.0
 11
96.7271243044691
 21
154.23962304106271
 31
0.0
  0
LINE
  5
23C9
  8
0
 10
96.7271243044691
 20
154.23962304106271
 30
0.0
 11
96.7271243044691
 21
156.6399999999999
 31
0.0
  0
LINE
  5
23CA
  8
0
 10
96.7271243044691
 20
156.6399999999999
 30
0.0
 11
96.108179699092545
 21
157.17199999999991
 31
0.0
  0
LINE
  5
23CB
  8
0
 10
96.7271243044691
 20
149.98962304106271
 30
0.0
 11
96.7271243044691
 21
153.2603769589372
 31
0.0
  0
LINE
  5
23CC
  8
0
 10
96.7271243044691
 20
153.2603769589372
 30
0.0
 11
96.108179699092545
 21
153.70336923418449
 31
0.0
  0
LINE
  5
23CD
  8
0
 10
96.108179699092545
 20
149.54663076581551
 30
0.0
 11
96.7271243044691
 21
149.98962304106271
 31
0.0
  0
LINE
  5
23CE
  8
0
 10
97.149991487011945
 20
149.0103769589372
 30
0.0
 11
97.149991487011945
 21
145.73962304106271
 31
0.0
  0
LINE
  5
23CF
  8
0
 10
97.149991487011945
 20
145.73962304106271
 30
0.0
 11
96.108179699092545
 21
145.29663076581551
 31
0.0
  0
LINE
  5
23D0
  8
0
 10
96.108179699092545
 20
149.45336923418449
 30
0.0
 11
97.149991487011945
 21
149.0103769589372
 31
0.0
  0
LINE
  5
23D1
  8
0
 10
96.108179699092545
 20
153.70336923418449
 30
0.0
 11
97.149991487012031
 21
153.2603769589372
 31
0.0
  0
LINE
  5
23D2
  8
0
 10
97.149991487012031
 20
153.2603769589372
 30
0.0
 11
97.149991487011945
 21
149.98962304106271
 31
0.0
  0
LINE
  5
23D3
  8
0
 10
97.149991487011945
 20
149.98962304106271
 30
0.0
 11
96.108179699092545
 21
149.54663076581551
 31
0.0
  0
LINE
  5
23D4
  8
0
 10
97.149991487012031
 20
156.6399999999999
 30
0.0
 11
97.149991487012031
 21
154.23962304106271
 31
0.0
  0
LINE
  5
23D5
  8
0
 10
97.149991487012031
 20
154.23962304106271
 30
0.0
 11
96.108179699092545
 21
153.79663076581551
 31
0.0
  0
LINE
  5
23D6
  8
0
 10
96.108179699092545
 20
157.17199999999991
 30
0.0
 11
97.149991487012031
 21
156.6399999999999
 31
0.0
  0
LINE
  5
23D7
  8
0
 10
96.108179699092545
 20
145.20336923418441
 30
0.0
 11
97.149991487011945
 21
144.7603769589372
 31
0.0
  0
LINE
  5
23D8
  8
0
 10
97.149991487011945
 20
144.7603769589372
 30
0.0
 11
97.149991487011945
 21
142.36000000000001
 31
0.0
  0
LINE
  5
23D9
  8
0
 10
97.149991487011945
 20
142.36000000000001
 30
0.0
 11
96.108179699092545
 21
141.82799999999989
 31
0.0
  0
LINE
  5
23DA
  8
0
 10
94.746027005980636
 20
142.36000000000001
 30
0.0
 11
94.746027005980636
 21
144.7603769589372
 31
0.0
  0
LINE
  5
23DB
  8
0
 10
94.746027005980636
 20
144.7603769589372
 30
0.0
 11
94.253016844230842
 21
145.20336923418441
 31
0.0
  0
LINE
  5
23DC
  8
0
 10
94.253016844230842
 20
141.82799999999989
 30
0.0
 11
94.746027005980636
 21
142.36000000000001
 31
0.0
  0
LINE
  5
23DD
  8
0
 10
94.253016844230842
 20
153.79663076581551
 30
0.0
 11
94.746027005980693
 21
154.23962304106271
 31
0.0
  0
LINE
  5
23DE
  8
0
 10
94.746027005980693
 20
154.23962304106271
 30
0.0
 11
94.746027005980693
 21
156.6399999999999
 31
0.0
  0
LINE
  5
23DF
  8
0
 10
94.746027005980693
 20
156.6399999999999
 30
0.0
 11
94.253016844230842
 21
157.172
 31
0.0
  0
LINE
  5
23E0
  8
0
 10
94.746027005980636
 20
149.98962304106271
 30
0.0
 11
94.746027005980693
 21
153.2603769589372
 31
0.0
  0
LINE
  5
23E1
  8
0
 10
94.746027005980693
 20
153.2603769589372
 30
0.0
 11
94.253016844230842
 21
153.70336923418449
 31
0.0
  0
LINE
  5
23E2
  8
0
 10
94.253016844230842
 20
149.54663076581551
 30
0.0
 11
94.746027005980636
 21
149.98962304106271
 31
0.0
  0
LINE
  5
23E3
  8
0
 10
95.274801954745556
 20
149.0103769589372
 30
0.0
 11
95.274801954745556
 21
145.73962304106271
 31
0.0
  0
LINE
  5
23E4
  8
0
 10
95.274801954745556
 20
145.73962304106271
 30
0.0
 11
94.253016844230842
 21
145.29663076581551
 31
0.0
  0
LINE
  5
23E5
  8
0
 10
94.253016844230842
 20
149.45336923418449
 30
0.0
 11
95.274801954745556
 21
149.0103769589372
 31
0.0
  0
LINE
  5
23E6
  8
0
 10
94.253016844230842
 20
153.70336923418449
 30
0.0
 11
95.274801954745556
 21
153.2603769589372
 31
0.0
  0
LINE
  5
23E7
  8
0
 10
95.274801954745556
 20
153.2603769589372
 30
0.0
 11
95.274801954745556
 21
149.98962304106271
 31
0.0
  0
LINE
  5
23E8
  8
0
 10
95.274801954745556
 20
149.98962304106271
 30
0.0
 11
94.253016844230842
 21
149.54663076581551
 31
0.0
  0
LINE
  5
23E9
  8
0
 10
95.274801954745556
 20
156.6399999999999
 30
0.0
 11
95.274801954745556
 21
154.23962304106271
 31
0.0
  0
LINE
  5
23EA
  8
0
 10
95.274801954745556
 20
154.23962304106271
 30
0.0
 11
94.253016844230842
 21
153.79663076581551
 31
0.0
  0
LINE
  5
23EB
  8
0
 10
94.253016844230842
 20
157.17199999999991
 30
0.0
 11
95.274801954745556
 21
156.6399999999999
 31
0.0
  0
LINE
  5
23EC
  8
0
 10
94.253016844230842
 20
145.20336923418441
 30
0.0
 11
95.274801954745556
 21
144.7603769589372
 31
0.0
  0
LINE
  5
23ED
  8
0
 10
95.274801954745556
 20
144.7603769589372
 30
0.0
 11
95.274801954745556
 21
142.36000000000001
 31
0.0
  0
LINE
  5
23EE
  8
0
 10
95.274801954745556
 20
142.36000000000001
 30
0.0
 11
94.253016844230842
 21
141.82799999999989
 31
0.0
  0
LINE
  5
23EF
  8
0
 10
92.362957540490129
 20
142.36000000000001
 30
0.0
 11
92.362957540490129
 21
144.7603769589372
 31
0.0
  0
LINE
  5
23F0
  8
0
 10
92.362957540490129
 20
144.7603769589372
 30
0.0
 11
92.005918087536415
 21
145.20336923418449
 31
0.0
  0
LINE
  5
23F1
  8
0
 10
92.005918087536415
 20
141.82799999999989
 30
0.0
 11
92.362957540490129
 21
142.36000000000001
 31
0.0
  0
LINE
  5
23F2
  8
0
 10
92.005918087536415
 20
153.79663076581551
 30
0.0
 11
92.362957540490129
 21
154.23962304106271
 31
0.0
  0
LINE
  5
23F3
  8
0
 10
92.362957540490129
 20
154.23962304106271
 30
0.0
 11
92.362957540490129
 21
156.6399999999999
 31
0.0
  0
LINE
  5
23F4
  8
0
 10
92.362957540490129
 20
156.6399999999999
 30
0.0
 11
92.005918087536415
 21
157.17199999999991
 31
0.0
  0
LINE
  5
23F5
  8
0
 10
92.362957540490129
 20
149.98962304106271
 30
0.0
 11
92.362957540490129
 21
153.2603769589372
 31
0.0
  0
LINE
  5
23F6
  8
0
 10
92.362957540490129
 20
153.2603769589372
 30
0.0
 11
92.005918087536415
 21
153.70336923418449
 31
0.0
  0
LINE
  5
23F7
  8
0
 10
92.005918087536415
 20
149.54663076581551
 30
0.0
 11
92.362957540490129
 21
149.98962304106271
 31
0.0
  0
LINE
  5
23F8
  8
0
 10
92.986875922381103
 20
149.0103769589372
 30
0.0
 11
92.986875922381103
 21
145.73962304106271
 31
0.0
  0
LINE
  5
23F9
  8
0
 10
92.986875922381103
 20
145.73962304106271
 30
0.0
 11
92.005918087536415
 21
145.29663076581539
 31
0.0
  0
LINE
  5
23FA
  8
0
 10
92.005918087536415
 20
149.45336923418449
 30
0.0
 11
92.986875922381103
 21
149.0103769589372
 31
0.0
  0
LINE
  5
23FB
  8
0
 10
92.005918087536415
 20
153.70336923418449
 30
0.0
 11
92.986875922381103
 21
153.2603769589372
 31
0.0
  0
LINE
  5
23FC
  8
0
 10
92.986875922381103
 20
153.2603769589372
 30
0.0
 11
92.986875922381103
 21
149.98962304106271
 31
0.0
  0
LINE
  5
23FD
  8
0
 10
92.986875922381103
 20
149.98962304106271
 30
0.0
 11
92.005918087536415
 21
149.54663076581551
 31
0.0
  0
LINE
  5
23FE
  8
0
 10
92.986875922381103
 20
156.6399999999999
 30
0.0
 11
92.986875922381103
 21
154.23962304106271
 31
0.0
  0
LINE
  5
23FF
  8
0
 10
92.986875922381103
 20
154.23962304106271
 30
0.0
 11
92.005918087536415
 21
153.79663076581551
 31
0.0
  0
LINE
  5
2400
  8
0
 10
92.005918087536415
 20
157.17199999999991
 30
0.0
 11
92.986875922381103
 21
156.6399999999999
 31
0.0
  0
LINE
  5
2401
  8
0
 10
92.005918087536415
 20
145.20336923418441
 30
0.0
 11
92.986875922381103
 21
144.7603769589372
 31
0.0
  0
LINE
  5
2402
  8
0
 10
92.986875922381103
 20
144.7603769589372
 30
0.0
 11
92.986875922381103
 21
142.36000000000001
 31
0.0
  0
LINE
  5
2403
  8
0
 10
92.986875922381103
 20
142.36000000000001
 30
0.0
 11
92.005918087536415
 21
141.82799999999989
 31
0.0
  0
LINE
  5
2404
  8
0
 10
89.626428330110059
 20
142.36000000000001
 30
0.0
 11
89.626428330110059
 21
144.7603769589372
 31
0.0
  0
LINE
  5
2405
  8
0
 10
89.626428330110059
 20
144.7603769589372
 30
0.0
 11
89.412627879597835
 21
145.20336923418441
 31
0.0
  0
LINE
  5
2406
  8
0
 10
89.412627879597835
 20
141.82799999999989
 30
0.0
 11
89.626428330110059
 21
142.36000000000001
 31
0.0
  0
LINE
  5
2407
  8
0
 10
89.412627879597835
 20
153.79663076581551
 30
0.0
 11
89.626428330110059
 21
154.23962304106271
 31
0.0
  0
LINE
  5
2408
  8
0
 10
89.626428330110059
 20
154.23962304106271
 30
0.0
 11
89.626428330110059
 21
156.6399999999999
 31
0.0
  0
LINE
  5
2409
  8
0
 10
89.626428330110059
 20
156.6399999999999
 30
0.0
 11
89.412627879597835
 21
157.17199999999991
 31
0.0
  0
LINE
  5
240A
  8
0
 10
89.626428330110059
 20
149.98962304106271
 30
0.0
 11
89.626428330110059
 21
153.2603769589372
 31
0.0
  0
LINE
  5
240B
  8
0
 10
89.626428330110059
 20
153.2603769589372
 30
0.0
 11
89.412627879597835
 21
153.70336923418449
 31
0.0
  0
LINE
  5
240C
  8
0
 10
89.412627879597835
 20
149.54663076581551
 30
0.0
 11
89.626428330110059
 21
149.98962304106271
 31
0.0
  0
LINE
  5
240D
  8
0
 10
90.332788966103919
 20
149.0103769589372
 30
0.0
 11
90.332788966103919
 21
145.73962304106271
 31
0.0
  0
LINE
  5
240E
  8
0
 10
90.332788966103919
 20
145.73962304106271
 30
0.0
 11
89.412627879597835
 21
145.29663076581551
 31
0.0
  0
LINE
  5
240F
  8
0
 10
89.412627879597835
 20
149.45336923418449
 30
0.0
 11
90.332788966103919
 21
149.0103769589372
 31
0.0
  0
LINE
  5
2410
  8
0
 10
89.412627879597835
 20
153.70336923418449
 30
0.0
 11
90.332788966103919
 21
153.2603769589372
 31
0.0
  0
LINE
  5
2411
  8
0
 10
90.332788966103919
 20
153.2603769589372
 30
0.0
 11
90.332788966103919
 21
149.98962304106271
 31
0.0
  0
LINE
  5
2412
  8
0
 10
90.332788966103919
 20
149.98962304106271
 30
0.0
 11
89.412627879597835
 21
149.54663076581551
 31
0.0
  0
LINE
  5
2413
  8
0
 10
90.332788966103919
 20
156.6399999999999
 30
0.0
 11
90.332788966103919
 21
154.23962304106271
 31
0.0
  0
LINE
  5
2414
  8
0
 10
90.332788966103919
 20
154.23962304106271
 30
0.0
 11
89.412627879597835
 21
153.79663076581551
 31
0.0
  0
LINE
  5
2415
  8
0
 10
89.412627879597835
 20
157.17199999999991
 30
0.0
 11
90.332788966103919
 21
156.6399999999999
 31
0.0
  0
LINE
  5
2416
  8
0
 10
89.412627879597835
 20
145.20336923418441
 30
0.0
 11
90.332788966103919
 21
144.7603769589372
 31
0.0
  0
LINE
  5
2417
  8
0
 10
90.332788966103919
 20
144.7603769589372
 30
0.0
 11
90.332788966103919
 21
142.36000000000001
 31
0.0
  0
LINE
  5
2418
  8
0
 10
90.332788966103919
 20
142.36000000000001
 30
0.0
 11
89.412627879597835
 21
141.82799999999989
 31
0.0
  0
LINE
  5
2419
  8
0
 10
86.592147218065008
 20
142.36000000000001
 30
0.0
 11
86.592147218065008
 21
144.7603769589372
 31
0.0
  0
LINE
  5
241A
  8
0
 10
86.592147218065008
 20
144.7603769589372
 30
0.0
 11
86.525938130617362
 21
145.20336923418441
 31
0.0
  0
LINE
  5
241B
  8
0
 10
86.525938130617362
 20
141.82799999999989
 30
0.0
 11
86.592147218065008
 21
142.36000000000001
 31
0.0
  0
LINE
  5
241C
  8
0
 10
86.525938130617362
 20
153.79663076581551
 30
0.0
 11
86.592147218065108
 21
154.23962304106271
 31
0.0
  0
LINE
  5
241D
  8
0
 10
86.592147218065108
 20
154.23962304106271
 30
0.0
 11
86.592147218065108
 21
156.6399999999999
 31
0.0
  0
LINE
  5
241E
  8
0
 10
86.592147218065108
 20
156.6399999999999
 30
0.0
 11
86.525938130617362
 21
157.17199999999991
 31
0.0
  0
LINE
  5
241F
  8
0
 10
86.592147218065008
 20
149.98962304106271
 30
0.0
 11
86.592147218065108
 21
153.2603769589372
 31
0.0
  0
LINE
  5
2420
  8
0
 10
86.592147218065108
 20
153.2603769589372
 30
0.0
 11
86.525938130617362
 21
153.70336923418449
 31
0.0
  0
LINE
  5
2421
  8
0
 10
86.525938130617362
 20
149.54663076581551
 30
0.0
 11
86.592147218065008
 21
149.98962304106271
 31
0.0
  0
LINE
  5
2422
  8
0
 10
87.366570642588897
 20
149.0103769589372
 30
0.0
 11
87.366570642588897
 21
145.73962304106271
 31
0.0
  0
LINE
  5
2423
  8
0
 10
87.366570642588897
 20
145.73962304106271
 30
0.0
 11
86.525938130617362
 21
145.29663076581551
 31
0.0
  0
LINE
  5
2424
  8
0
 10
86.525938130617362
 20
149.45336923418449
 30
0.0
 11
87.366570642588897
 21
149.0103769589372
 31
0.0
  0
LINE
  5
2425
  8
0
 10
86.525938130617362
 20
153.70336923418449
 30
0.0
 11
87.366570642589011
 21
153.2603769589372
 31
0.0
  0
LINE
  5
2426
  8
0
 10
87.366570642589011
 20
153.2603769589372
 30
0.0
 11
87.366570642588897
 21
149.98962304106271
 31
0.0
  0
LINE
  5
2427
  8
0
 10
87.366570642588897
 20
149.98962304106271
 30
0.0
 11
86.525938130617362
 21
149.54663076581551
 31
0.0
  0
LINE
  5
2428
  8
0
 10
87.366570642589011
 20
156.6399999999999
 30
0.0
 11
87.366570642589011
 21
154.23962304106271
 31
0.0
  0
LINE
  5
2429
  8
0
 10
87.366570642589011
 20
154.23962304106271
 30
0.0
 11
86.525938130617362
 21
153.79663076581551
 31
0.0
  0
LINE
  5
242A
  8
0
 10
86.525938130617362
 20
157.17199999999991
 30
0.0
 11
87.366570642589011
 21
156.6399999999999
 31
0.0
  0
LINE
  5
242B
  8
0
 10
86.525938130617362
 20
145.20336923418441
 30
0.0
 11
87.366570642588897
 21
144.7603769589372
 31
0.0
  0
LINE
  5
242C
  8
0
 10
87.366570642588897
 20
144.7603769589372
 30
0.0
 11
87.366570642588897
 21
142.36000000000001
 31
0.0
  0
LINE
  5
242D
  8
0
 10
87.366570642588897
 20
142.36000000000001
 30
0.0
 11
86.525938130617362
 21
141.82799999999989
 31
0.0
  0
LINE
  5
242E
  8
0
 10
83.321883417652487
 20
142.36000000000001
 30
0.0
 11
83.321883417652487
 21
144.7603769589372
 31
0.0
  0
LINE
  5
242F
  8
0
 10
83.321883417652487
 20
144.7603769589372
 30
0.0
 11
83.404613519358236
 21
145.20336923418441
 31
0.0
  0
LINE
  5
2430
  8
0
 10
83.404613519358236
 20
141.82799999999989
 30
0.0
 11
83.321883417652487
 21
142.36000000000001
 31
0.0
  0
LINE
  5
2431
  8
0
 10
83.404613519358236
 20
153.79663076581551
 30
0.0
 11
83.321883417652487
 21
154.23962304106271
 31
0.0
  0
LINE
  5
2432
  8
0
 10
83.321883417652487
 20
154.23962304106271
 30
0.0
 11
83.321883417652487
 21
156.6399999999999
 31
0.0
  0
LINE
  5
2433
  8
0
 10
83.321883417652487
 20
156.6399999999999
 30
0.0
 11
83.404613519358236
 21
157.17199999999991
 31
0.0
  0
LINE
  5
2434
  8
0
 10
83.321883417652487
 20
149.98962304106271
 30
0.0
 11
83.321883417652487
 21
153.2603769589372
 31
0.0
  0
LINE
  5
2435
  8
0
 10
83.321883417652487
 20
153.2603769589372
 30
0.0
 11
83.404613519358236
 21
153.70336923418449
 31
0.0
  0
LINE
  5
2436
  8
0
 10
83.404613519358236
 20
149.54663076581551
 30
0.0
 11
83.321883417652487
 21
149.98962304106271
 31
0.0
  0
LINE
  5
2437
  8
0
 10
84.148604603035722
 20
149.0103769589372
 30
0.0
 11
84.148604603035722
 21
145.73962304106271
 31
0.0
  0
LINE
  5
2438
  8
0
 10
84.148604603035722
 20
145.73962304106271
 30
0.0
 11
83.404613519358236
 21
145.29663076581551
 31
0.0
  0
LINE
  5
2439
  8
0
 10
83.404613519358236
 20
145.29663076581551
 30
0.0
 11
83.404613519358236
 21
149.45336923418449
 31
0.0
  0
LINE
  5
243A
  8
0
 10
83.404613519358236
 20
149.45336923418449
 30
0.0
 11
84.148604603035722
 21
149.0103769589372
 31
0.0
  0
LINE
  5
243B
  8
0
 10
83.404613519358236
 20
149.54663076581551
 30
0.0
 11
83.404613519358236
 21
153.70336923418449
 31
0.0
  0
LINE
  5
243C
  8
0
 10
83.404613519358236
 20
153.70336923418449
 30
0.0
 11
84.148604603035722
 21
153.2603769589372
 31
0.0
  0
LINE
  5
243D
  8
0
 10
84.148604603035722
 20
153.2603769589372
 30
0.0
 11
84.148604603035722
 21
149.98962304106271
 31
0.0
  0
LINE
  5
243E
  8
0
 10
84.148604603035722
 20
149.98962304106271
 30
0.0
 11
83.404613519358236
 21
149.54663076581551
 31
0.0
  0
LINE
  5
243F
  8
0
 10
84.148604603035722
 20
156.6399999999999
 30
0.0
 11
84.148604603035722
 21
154.23962304106271
 31
0.0
  0
LINE
  5
2440
  8
0
 10
84.148604603035722
 20
154.23962304106271
 30
0.0
 11
83.404613519358236
 21
153.79663076581551
 31
0.0
  0
LINE
  5
2441
  8
0
 10
83.404613519358236
 20
153.79663076581551
 30
0.0
 11
83.404613519358236
 21
157.17199999999991
 31
0.0
  0
LINE
  5
2442
  8
0
 10
83.404613519358236
 20
157.17199999999991
 30
0.0
 11
84.148604603035722
 21
156.6399999999999
 31
0.0
  0
LINE
  5
2443
  8
0
 10
83.404613519358236
 20
141.82799999999989
 30
0.0
 11
83.404613519358236
 21
145.20336923418441
 31
0.0
  0
LINE
  5
2444
  8
0
 10
83.404613519358236
 20
145.20336923418441
 30
0.0
 11
84.148604603035722
 21
144.7603769589372
 31
0.0
  0
LINE
  5
2445
  8
0
 10
84.148604603035722
 20
144.7603769589372
 30
0.0
 11
84.148604603035722
 21
142.36000000000001
 31
0.0
  0
LINE
  5
2446
  8
0
 10
84.148604603035722
 20
142.36000000000001
 30
0.0
 11
83.404613519358236
 21
141.82799999999989
 31
0.0
  0
LINE
  5
2447
  8
0
 10
79.882210069186556
 20
142.36000000000001
 30
0.0
 11
79.882210069186556
 21
144.7603769589372
 31
0.0
  0
LINE
  5
2448
  8
0
 10
79.882210069186556
 20
144.7603769589372
 30
0.0
 11
80.112195213749018
 21
145.20336923418441
 31
0.0
  0
LINE
  5
2449
  8
0
 10
80.112195213749018
 20
141.82799999999989
 30
0.0
 11
79.882210069186556
 21
142.36000000000001
 31
0.0
  0
LINE
  5
244A
  8
0
 10
80.112195213749018
 20
153.79663076581551
 30
0.0
 11
79.882210069186556
 21
154.23962304106271
 31
0.0
  0
LINE
  5
244B
  8
0
 10
79.882210069186556
 20
154.23962304106271
 30
0.0
 11
79.882210069186556
 21
156.6399999999999
 31
0.0
  0
LINE
  5
244C
  8
0
 10
79.882210069186556
 20
156.6399999999999
 30
0.0
 11
80.112195213749018
 21
157.17199999999991
 31
0.0
  0
LINE
  5
244D
  8
0
 10
79.882210069186556
 20
149.98962304106271
 30
0.0
 11
79.882210069186556
 21
153.2603769589372
 31
0.0
  0
LINE
  5
244E
  8
0
 10
79.882210069186556
 20
153.2603769589372
 30
0.0
 11
80.112195213749018
 21
153.70336923418449
 31
0.0
  0
LINE
  5
244F
  8
0
 10
80.112195213749018
 20
149.54663076581551
 30
0.0
 11
79.882210069186556
 21
149.98962304106271
 31
0.0
  0
LINE
  5
2450
  8
0
 10
80.744399356161864
 20
149.0103769589372
 30
0.0
 11
80.744399356161864
 21
145.73962304106271
 31
0.0
  0
LINE
  5
2451
  8
0
 10
80.744399356161864
 20
145.73962304106271
 30
0.0
 11
80.112195213749018
 21
145.29663076581551
 31
0.0
  0
LINE
  5
2452
  8
0
 10
80.112195213749018
 20
145.29663076581551
 30
0.0
 11
80.112195213749018
 21
149.45336923418449
 31
0.0
  0
LINE
  5
2453
  8
0
 10
80.112195213749018
 20
149.45336923418449
 30
0.0
 11
80.744399356161864
 21
149.0103769589372
 31
0.0
  0
LINE
  5
2454
  8
0
 10
80.112195213749018
 20
149.54663076581551
 30
0.0
 11
80.112195213749018
 21
153.70336923418449
 31
0.0
  0
LINE
  5
2455
  8
0
 10
80.112195213749018
 20
153.70336923418449
 30
0.0
 11
80.744399356161864
 21
153.2603769589372
 31
0.0
  0
LINE
  5
2456
  8
0
 10
80.744399356161864
 20
153.2603769589372
 30
0.0
 11
80.744399356161864
 21
149.98962304106271
 31
0.0
  0
LINE
  5
2457
  8
0
 10
80.744399356161864
 20
149.98962304106271
 30
0.0
 11
80.112195213749018
 21
149.54663076581551
 31
0.0
  0
LINE
  5
2458
  8
0
 10
80.744399356161864
 20
156.6399999999999
 30
0.0
 11
80.744399356161864
 21
154.23962304106271
 31
0.0
  0
LINE
  5
2459
  8
0
 10
80.744399356161864
 20
154.23962304106271
 30
0.0
 11
80.112195213749018
 21
153.79663076581551
 31
0.0
  0
LINE
  5
245A
  8
0
 10
80.112195213749018
 20
153.79663076581551
 30
0.0
 11
80.112195213749018
 21
157.17199999999991
 31
0.0
  0
LINE
  5
245B
  8
0
 10
80.112195213749018
 20
157.17199999999991
 30
0.0
 11
80.744399356161864
 21
156.6399999999999
 31
0.0
  0
LINE
  5
245C
  8
0
 10
80.112195213749018
 20
141.82799999999989
 30
0.0
 11
80.112195213749018
 21
145.20336923418441
 31
0.0
  0
LINE
  5
245D
  8
0
 10
80.112195213749018
 20
145.20336923418441
 30
0.0
 11
80.744399356161864
 21
144.7603769589372
 31
0.0
  0
LINE
  5
245E
  8
0
 10
80.744399356161864
 20
144.7603769589372
 30
0.0
 11
80.744399356161864
 21
142.36000000000001
 31
0.0
  0
LINE
  5
245F
  8
0
 10
80.744399356161864
 20
142.36000000000001
 30
0.0
 11
80.112195213749018
 21
141.82799999999989
 31
0.0
  0
LINE
  5
2460
  8
0
 10
76.343149002843177
 20
142.36000000000001
 30
0.0
 11
76.343149002843177
 21
144.7603769589372
 31
0.0
  0
LINE
  5
2461
  8
0
 10
76.343149002843177
 20
144.7603769589372
 30
0.0
 11
76.715707355941447
 21
145.20336923418441
 31
0.0
  0
LINE
  5
2462
  8
0
 10
76.715707355941447
 20
141.82799999999989
 30
0.0
 11
76.343149002843177
 21
142.36000000000001
 31
0.0
  0
LINE
  5
2463
  8
0
 10
76.715707355941561
 20
153.79663076581551
 30
0.0
 11
76.343149002843177
 21
154.23962304106271
 31
0.0
  0
LINE
  5
2464
  8
0
 10
76.343149002843177
 20
154.23962304106271
 30
0.0
 11
76.343149002843177
 21
156.6399999999999
 31
0.0
  0
LINE
  5
2465
  8
0
 10
76.343149002843177
 20
156.6399999999999
 30
0.0
 11
76.715707355941561
 21
157.17199999999991
 31
0.0
  0
LINE
  5
2466
  8
0
 10
76.343149002843177
 20
149.98962304106271
 30
0.0
 11
76.343149002843177
 21
153.2603769589372
 31
0.0
  0
LINE
  5
2467
  8
0
 10
76.343149002843177
 20
153.2603769589372
 30
0.0
 11
76.715707355941561
 21
153.70336923418449
 31
0.0
  0
LINE
  5
2468
  8
0
 10
76.715707355941447
 20
149.54663076581551
 30
0.0
 11
76.343149002843177
 21
149.98962304106271
 31
0.0
  0
LINE
  5
2469
  8
0
 10
77.22325470387608
 20
149.0103769589372
 30
0.0
 11
77.22325470387608
 21
145.73962304106271
 31
0.0
  0
LINE
  5
246A
  8
0
 10
77.22325470387608
 20
145.73962304106271
 30
0.0
 11
76.715707355941447
 21
145.29663076581551
 31
0.0
  0
LINE
  5
246B
  8
0
 10
76.715707355941447
 20
145.29663076581551
 30
0.0
 11
76.715707355941447
 21
149.45336923418449
 31
0.0
  0
LINE
  5
246C
  8
0
 10
76.715707355941447
 20
149.45336923418449
 30
0.0
 11
77.22325470387608
 21
149.0103769589372
 31
0.0
  0
LINE
  5
246D
  8
0
 10
76.715707355941447
 20
149.54663076581551
 30
0.0
 11
76.715707355941561
 21
153.70336923418449
 31
0.0
  0
LINE
  5
246E
  8
0
 10
76.715707355941561
 20
153.70336923418449
 30
0.0
 11
77.22325470387608
 21
153.2603769589372
 31
0.0
  0
LINE
  5
246F
  8
0
 10
77.22325470387608
 20
153.2603769589372
 30
0.0
 11
77.22325470387608
 21
149.98962304106271
 31
0.0
  0
LINE
  5
2470
  8
0
 10
77.22325470387608
 20
149.98962304106271
 30
0.0
 11
76.715707355941447
 21
149.54663076581551
 31
0.0
  0
LINE
  5
2471
  8
0
 10
77.22325470387608
 20
156.6399999999999
 30
0.0
 11
77.22325470387608
 21
154.23962304106271
 31
0.0
  0
LINE
  5
2472
  8
0
 10
77.22325470387608
 20
154.23962304106271
 30
0.0
 11
76.715707355941561
 21
153.79663076581551
 31
0.0
  0
LINE
  5
2473
  8
0
 10
76.715707355941561
 20
153.79663076581551
 30
0.0
 11
76.715707355941561
 21
157.17199999999991
 31
0.0
  0
LINE
  5
2474
  8
0
 10
76.715707355941561
 20
157.17199999999991
 30
0.0
 11
77.22325470387608
 21
156.6399999999999
 31
0.0
  0
LINE
  5
2475
  8
0
 10
76.715707355941447
 20
141.82799999999989
 30
0.0
 11
76.715707355941447
 21
145.20336923418441
 31
0.0
  0
LINE
  5
2476
  8
0
 10
76.715707355941447
 20
145.20336923418441
 30
0.0
 11
77.22325470387608
 21
144.7603769589372
 31
0.0
  0
LINE
  5
2477
  8
0
 10
77.22325470387608
 20
144.7603769589372
 30
0.0
 11
77.22325470387608
 21
142.36000000000001
 31
0.0
  0
LINE
  5
2478
  8
0
 10
77.22325470387608
 20
142.36000000000001
 30
0.0
 11
76.715707355941447
 21
141.82799999999989
 31
0.0
  0
LINE
  5
2479
  8
0
 10
72.776745296123721
 20
142.36000000000001
 30
0.0
 11
72.776745296123721
 21
144.7603769589372
 31
0.0
  0
LINE
  5
247A
  8
0
 10
72.776745296123721
 20
144.7603769589372
 30
0.0
 11
73.284292644058439
 21
145.20336923418441
 31
0.0
  0
LINE
  5
247B
  8
0
 10
73.284292644058439
 20
141.82799999999989
 30
0.0
 11
72.776745296123721
 21
142.36000000000001
 31
0.0
  0
LINE
  5
247C
  8
0
 10
73.284292644058439
 20
153.79663076581551
 30
0.0
 11
72.776745296123806
 21
154.23962304106271
 31
0.0
  0
LINE
  5
247D
  8
0
 10
72.776745296123806
 20
154.23962304106271
 30
0.0
 11
72.776745296123806
 21
156.6399999999999
 31
0.0
  0
LINE
  5
247E
  8
0
 10
72.776745296123806
 20
156.6399999999999
 30
0.0
 11
73.284292644058439
 21
157.17199999999991
 31
0.0
  0
LINE
  5
247F
  8
0
 10
72.776745296123721
 20
149.98962304106271
 30
0.0
 11
72.776745296123806
 21
153.2603769589372
 31
0.0
  0
LINE
  5
2480
  8
0
 10
72.776745296123806
 20
153.2603769589372
 30
0.0
 11
73.284292644058439
 21
153.70336923418449
 31
0.0
  0
LINE
  5
2481
  8
0
 10
73.284292644058439
 20
149.54663076581551
 30
0.0
 11
72.776745296123721
 21
149.98962304106271
 31
0.0
  0
LINE
  5
2482
  8
0
 10
73.656850997156795
 20
149.0103769589372
 30
0.0
 11
73.656850997156795
 21
145.73962304106271
 31
0.0
  0
LINE
  5
2483
  8
0
 10
73.656850997156795
 20
145.73962304106271
 30
0.0
 11
73.284292644058439
 21
145.29663076581551
 31
0.0
  0
LINE
  5
2484
  8
0
 10
73.284292644058439
 20
145.29663076581551
 30
0.0
 11
73.284292644058439
 21
149.45336923418449
 31
0.0
  0
LINE
  5
2485
  8
0
 10
73.284292644058439
 20
149.45336923418449
 30
0.0
 11
73.656850997156795
 21
149.0103769589372
 31
0.0
  0
LINE
  5
2486
  8
0
 10
73.284292644058439
 20
149.54663076581551
 30
0.0
 11
73.284292644058439
 21
153.70336923418449
 31
0.0
  0
LINE
  5
2487
  8
0
 10
73.284292644058439
 20
153.70336923418449
 30
0.0
 11
73.656850997156795
 21
153.2603769589372
 31
0.0
  0
LINE
  5
2488
  8
0
 10
73.656850997156795
 20
153.2603769589372
 30
0.0
 11
73.656850997156795
 21
149.98962304106271
 31
0.0
  0
LINE
  5
2489
  8
0
 10
73.656850997156795
 20
149.98962304106271
 30
0.0
 11
73.284292644058439
 21
149.54663076581551
 31
0.0
  0
LINE
  5
248A
  8
0
 10
73.656850997156795
 20
156.6399999999999
 30
0.0
 11
73.656850997156795
 21
154.23962304106271
 31
0.0
  0
LINE
  5
248B
  8
0
 10
73.656850997156795
 20
154.23962304106271
 30
0.0
 11
73.284292644058439
 21
153.79663076581551
 31
0.0
  0
LINE
  5
248C
  8
0
 10
73.284292644058439
 20
153.79663076581551
 30
0.0
 11
73.284292644058439
 21
157.17199999999991
 31
0.0
  0
LINE
  5
248D
  8
0
 10
73.284292644058439
 20
157.17199999999991
 30
0.0
 11
73.656850997156795
 21
156.6399999999999
 31
0.0
  0
LINE
  5
248E
  8
0
 10
73.284292644058439
 20
141.82799999999989
 30
0.0
 11
73.284292644058439
 21
145.20336923418441
 31
0.0
  0
LINE
  5
248F
  8
0
 10
73.284292644058439
 20
145.20336923418441
 30
0.0
 11
73.656850997156795
 21
144.7603769589372
 31
0.0
  0
LINE
  5
2490
  8
0
 10
73.656850997156795
 20
144.7603769589372
 30
0.0
 11
73.656850997156795
 21
142.36000000000001
 31
0.0
  0
LINE
  5
2491
  8
0
 10
73.656850997156795
 20
142.36000000000001
 30
0.0
 11
73.284292644058439
 21
141.82799999999989
 31
0.0
  0
LINE
  5
2492
  8
0
 10
69.255600643838079
 20
142.36000000000001
 30
0.0
 11
69.255600643838079
 21
144.7603769589372
 31
0.0
  0
LINE
  5
2493
  8
0
 10
69.255600643838079
 20
144.7603769589372
 30
0.0
 11
69.887804786250854
 21
145.20336923418441
 31
0.0
  0
LINE
  5
2494
  8
0
 10
69.887804786250854
 20
141.82799999999989
 30
0.0
 11
69.255600643838079
 21
142.36000000000001
 31
0.0
  0
LINE
  5
2495
  8
0
 10
69.887804786250854
 20
153.79663076581551
 30
0.0
 11
69.255600643838079
 21
154.23962304106271
 31
0.0
  0
LINE
  5
2496
  8
0
 10
69.255600643838079
 20
154.23962304106271
 30
0.0
 11
69.255600643838079
 21
156.6399999999999
 31
0.0
  0
LINE
  5
2497
  8
0
 10
69.255600643838079
 20
156.6399999999999
 30
0.0
 11
69.887804786250854
 21
157.17199999999991
 31
0.0
  0
LINE
  5
2498
  8
0
 10
69.255600643838079
 20
149.98962304106271
 30
0.0
 11
69.255600643838079
 21
153.2603769589372
 31
0.0
  0
LINE
  5
2499
  8
0
 10
69.255600643838079
 20
153.2603769589372
 30
0.0
 11
69.887804786250854
 21
153.70336923418449
 31
0.0
  0
LINE
  5
249A
  8
0
 10
69.887804786250854
 20
149.54663076581551
 30
0.0
 11
69.255600643838079
 21
149.98962304106271
 31
0.0
  0
LINE
  5
249B
  8
0
 10
70.117789930813387
 20
149.0103769589372
 30
0.0
 11
70.117789930813387
 21
145.73962304106271
 31
0.0
  0
LINE
  5
249C
  8
0
 10
70.117789930813387
 20
145.73962304106271
 30
0.0
 11
69.887804786250854
 21
145.29663076581551
 31
0.0
  0
LINE
  5
249D
  8
0
 10
69.887804786250854
 20
145.29663076581551
 30
0.0
 11
69.887804786250854
 21
149.45336923418449
 31
0.0
  0
LINE
  5
249E
  8
0
 10
69.887804786250854
 20
149.45336923418449
 30
0.0
 11
70.117789930813387
 21
149.0103769589372
 31
0.0
  0
LINE
  5
249F
  8
0
 10
69.887804786250854
 20
149.54663076581551
 30
0.0
 11
69.887804786250854
 21
153.70336923418449
 31
0.0
  0
LINE
  5
24A0
  8
0
 10
69.887804786250854
 20
153.70336923418449
 30
0.0
 11
70.117789930813387
 21
153.2603769589372
 31
0.0
  0
LINE
  5
24A1
  8
0
 10
70.117789930813387
 20
153.2603769589372
 30
0.0
 11
70.117789930813387
 21
149.98962304106271
 31
0.0
  0
LINE
  5
24A2
  8
0
 10
70.117789930813387
 20
149.98962304106271
 30
0.0
 11
69.887804786250854
 21
149.54663076581551
 31
0.0
  0
LINE
  5
24A3
  8
0
 10
70.117789930813387
 20
156.6399999999999
 30
0.0
 11
70.117789930813387
 21
154.23962304106271
 31
0.0
  0
LINE
  5
24A4
  8
0
 10
70.117789930813387
 20
154.23962304106271
 30
0.0
 11
69.887804786250854
 21
153.79663076581551
 31
0.0
  0
LINE
  5
24A5
  8
0
 10
69.887804786250854
 20
153.79663076581551
 30
0.0
 11
69.887804786250854
 21
157.17199999999991
 31
0.0
  0
LINE
  5
24A6
  8
0
 10
69.887804786250854
 20
157.17199999999991
 30
0.0
 11
70.117789930813387
 21
156.6399999999999
 31
0.0
  0
LINE
  5
24A7
  8
0
 10
69.887804786250854
 20
141.82799999999989
 30
0.0
 11
69.887804786250854
 21
145.20336923418441
 31
0.0
  0
LINE
  5
24A8
  8
0
 10
69.887804786250854
 20
145.20336923418441
 30
0.0
 11
70.117789930813387
 21
144.7603769589372
 31
0.0
  0
LINE
  5
24A9
  8
0
 10
70.117789930813387
 20
144.7603769589372
 30
0.0
 11
70.117789930813387
 21
142.36000000000001
 31
0.0
  0
LINE
  5
24AA
  8
0
 10
70.117789930813387
 20
142.36000000000001
 30
0.0
 11
69.887804786250854
 21
141.82799999999989
 31
0.0
  0
LINE
  5
24AB
  8
0
 10
65.851395396964094
 20
142.36000000000001
 30
0.0
 11
65.851395396964094
 21
144.7603769589372
 31
0.0
  0
LINE
  5
24AC
  8
0
 10
65.851395396964094
 20
144.7603769589372
 30
0.0
 11
66.595386480641622
 21
145.20336923418441
 31
0.0
  0
LINE
  5
24AD
  8
0
 10
66.595386480641622
 20
141.82799999999989
 30
0.0
 11
65.851395396964094
 21
142.36000000000001
 31
0.0
  0
LINE
  5
24AE
  8
0
 10
66.59538648064165
 20
153.79663076581551
 30
0.0
 11
65.851395396964094
 21
154.23962304106271
 31
0.0
  0
LINE
  5
24AF
  8
0
 10
65.851395396964094
 20
154.23962304106271
 30
0.0
 11
65.851395396964094
 21
156.6399999999999
 31
0.0
  0
LINE
  5
24B0
  8
0
 10
65.851395396964094
 20
156.6399999999999
 30
0.0
 11
66.59538648064165
 21
157.17199999999991
 31
0.0
  0
LINE
  5
24B1
  8
0
 10
65.851395396964094
 20
149.98962304106271
 30
0.0
 11
65.851395396964094
 21
153.2603769589372
 31
0.0
  0
LINE
  5
24B2
  8
0
 10
65.851395396964094
 20
153.2603769589372
 30
0.0
 11
66.59538648064165
 21
153.70336923418449
 31
0.0
  0
LINE
  5
24B3
  8
0
 10
66.595386480641622
 20
149.54663076581551
 30
0.0
 11
65.851395396964094
 21
149.98962304106271
 31
0.0
  0
LINE
  5
24B4
  8
0
 10
66.678116582347343
 20
149.0103769589372
 30
0.0
 11
66.678116582347343
 21
145.73962304106271
 31
0.0
  0
LINE
  5
24B5
  8
0
 10
66.678116582347343
 20
145.73962304106271
 30
0.0
 11
66.595386480641622
 21
145.29663076581551
 31
0.0
  0
LINE
  5
24B6
  8
0
 10
66.595386480641622
 20
145.29663076581551
 30
0.0
 11
66.595386480641622
 21
149.45336923418449
 31
0.0
  0
LINE
  5
24B7
  8
0
 10
66.595386480641622
 20
149.45336923418449
 30
0.0
 11
66.678116582347343
 21
149.0103769589372
 31
0.0
  0
LINE
  5
24B8
  8
0
 10
66.595386480641622
 20
149.54663076581551
 30
0.0
 11
66.59538648064165
 21
153.70336923418449
 31
0.0
  0
LINE
  5
24B9
  8
0
 10
66.59538648064165
 20
153.70336923418449
 30
0.0
 11
66.678116582347386
 21
153.2603769589372
 31
0.0
  0
LINE
  5
24BA
  8
0
 10
66.678116582347386
 20
153.2603769589372
 30
0.0
 11
66.678116582347343
 21
149.98962304106271
 31
0.0
  0
LINE
  5
24BB
  8
0
 10
66.678116582347343
 20
149.98962304106271
 30
0.0
 11
66.595386480641622
 21
149.54663076581551
 31
0.0
  0
LINE
  5
24BC
  8
0
 10
66.678116582347386
 20
156.6399999999999
 30
0.0
 11
66.678116582347386
 21
154.23962304106271
 31
0.0
  0
LINE
  5
24BD
  8
0
 10
66.678116582347386
 20
154.23962304106271
 30
0.0
 11
66.59538648064165
 21
153.79663076581551
 31
0.0
  0
LINE
  5
24BE
  8
0
 10
66.59538648064165
 20
153.79663076581551
 30
0.0
 11
66.59538648064165
 21
157.17199999999991
 31
0.0
  0
LINE
  5
24BF
  8
0
 10
66.59538648064165
 20
157.17199999999991
 30
0.0
 11
66.678116582347386
 21
156.6399999999999
 31
0.0
  0
LINE
  5
24C0
  8
0
 10
66.595386480641622
 20
141.82799999999989
 30
0.0
 11
66.595386480641622
 21
145.20336923418441
 31
0.0
  0
LINE
  5
24C1
  8
0
 10
66.595386480641622
 20
145.20336923418441
 30
0.0
 11
66.678116582347343
 21
144.7603769589372
 31
0.0
  0
LINE
  5
24C2
  8
0
 10
66.678116582347343
 20
144.7603769589372
 30
0.0
 11
66.678116582347343
 21
142.36000000000001
 31
0.0
  0
LINE
  5
24C3
  8
0
 10
66.678116582347343
 20
142.36000000000001
 30
0.0
 11
66.595386480641622
 21
141.82799999999989
 31
0.0
  0
LINE
  5
24C4
  8
0
 10
62.633429357410868
 20
142.36000000000001
 30
0.0
 11
62.633429357410868
 21
144.7603769589372
 31
0.0
  0
LINE
  5
24C5
  8
0
 10
62.633429357410868
 20
144.7603769589372
 30
0.0
 11
63.474061869382581
 21
145.20336923418441
 31
0.0
  0
LINE
  5
24C6
  8
0
 10
63.474061869382581
 20
141.82799999999989
 30
0.0
 11
62.633429357410868
 21
142.36000000000001
 31
0.0
  0
LINE
  5
24C7
  8
0
 10
63.474061869382581
 20
153.79663076581551
 30
0.0
 11
62.633429357410989
 21
154.23962304106271
 31
0.0
  0
LINE
  5
24C8
  8
0
 10
62.633429357410989
 20
154.23962304106271
 30
0.0
 11
62.633429357410989
 21
156.6399999999999
 31
0.0
  0
LINE
  5
24C9
  8
0
 10
62.633429357410989
 20
156.6399999999999
 30
0.0
 11
63.474061869382581
 21
157.17199999999991
 31
0.0
  0
LINE
  5
24CA
  8
0
 10
62.633429357410868
 20
149.98962304106271
 30
0.0
 11
62.633429357410989
 21
153.2603769589372
 31
0.0
  0
LINE
  5
24CB
  8
0
 10
62.633429357410989
 20
153.2603769589372
 30
0.0
 11
63.474061869382581
 21
153.70336923418449
 31
0.0
  0
LINE
  5
24CC
  8
0
 10
63.474061869382581
 20
149.54663076581551
 30
0.0
 11
62.633429357410868
 21
149.98962304106271
 31
0.0
  0
LINE
  5
24CD
  8
0
 10
63.407852781934707
 20
149.0103769589372
 30
0.0
 11
63.407852781934707
 21
145.73962304106271
 31
0.0
  0
LINE
  5
24CE
  8
0
 10
63.407852781934707
 20
145.73962304106271
 30
0.0
 11
63.474061869382581
 21
145.29663076581551
 31
0.0
  0
LINE
  5
24CF
  8
0
 10
63.474061869382581
 20
149.45336923418449
 30
0.0
 11
63.407852781934707
 21
149.0103769589372
 31
0.0
  0
LINE
  5
24D0
  8
0
 10
63.474061869382581
 20
153.70336923418449
 30
0.0
 11
63.407852781934793
 21
153.2603769589372
 31
0.0
  0
LINE
  5
24D1
  8
0
 10
63.407852781934793
 20
153.2603769589372
 30
0.0
 11
63.407852781934707
 21
149.98962304106271
 31
0.0
  0
LINE
  5
24D2
  8
0
 10
63.407852781934707
 20
149.98962304106271
 30
0.0
 11
63.474061869382581
 21
149.54663076581551
 31
0.0
  0
LINE
  5
24D3
  8
0
 10
63.407852781934793
 20
156.6399999999999
 30
0.0
 11
63.407852781934793
 21
154.23962304106271
 31
0.0
  0
LINE
  5
24D4
  8
0
 10
63.407852781934793
 20
154.23962304106271
 30
0.0
 11
63.474061869382581
 21
153.79663076581551
 31
0.0
  0
LINE
  5
24D5
  8
0
 10
63.474061869382581
 20
157.17199999999991
 30
0.0
 11
63.407852781934793
 21
156.6399999999999
 31
0.0
  0
LINE
  5
24D6
  8
0
 10
63.474061869382581
 20
145.20336923418441
 30
0.0
 11
63.407852781934707
 21
144.7603769589372
 31
0.0
  0
LINE
  5
24D7
  8
0
 10
63.407852781934707
 20
144.7603769589372
 30
0.0
 11
63.407852781934707
 21
142.36000000000001
 31
0.0
  0
LINE
  5
24D8
  8
0
 10
63.407852781934707
 20
142.36000000000001
 30
0.0
 11
63.474061869382581
 21
141.82799999999989
 31
0.0
  0
LINE
  5
24D9
  8
0
 10
59.66721103389591
 20
142.36000000000001
 30
0.0
 11
59.66721103389591
 21
144.7603769589372
 31
0.0
  0
LINE
  5
24DA
  8
0
 10
59.66721103389591
 20
144.7603769589372
 30
0.0
 11
60.587372120402051
 21
145.20336923418441
 31
0.0
  0
LINE
  5
24DB
  8
0
 10
60.587372120402051
 20
141.82799999999989
 30
0.0
 11
59.66721103389591
 21
142.36000000000001
 31
0.0
  0
LINE
  5
24DC
  8
0
 10
60.587372120402051
 20
153.79663076581551
 30
0.0
 11
59.66721103389591
 21
154.23962304106271
 31
0.0
  0
LINE
  5
24DD
  8
0
 10
59.66721103389591
 20
154.23962304106271
 30
0.0
 11
59.66721103389591
 21
156.6399999999999
 31
0.0
  0
LINE
  5
24DE
  8
0
 10
59.66721103389591
 20
156.6399999999999
 30
0.0
 11
60.587372120402051
 21
157.17199999999991
 31
0.0
  0
LINE
  5
24DF
  8
0
 10
59.66721103389591
 20
149.98962304106271
 30
0.0
 11
59.66721103389591
 21
153.2603769589372
 31
0.0
  0
LINE
  5
24E0
  8
0
 10
59.66721103389591
 20
153.2603769589372
 30
0.0
 11
60.587372120402051
 21
153.70336923418449
 31
0.0
  0
LINE
  5
24E1
  8
0
 10
60.587372120402051
 20
149.54663076581551
 30
0.0
 11
59.66721103389591
 21
149.98962304106271
 31
0.0
  0
LINE
  5
24E2
  8
0
 10
60.373571669889913
 20
149.0103769589372
 30
0.0
 11
60.373571669889913
 21
145.73962304106271
 31
0.0
  0
LINE
  5
24E3
  8
0
 10
60.373571669889913
 20
145.73962304106271
 30
0.0
 11
60.587372120402051
 21
145.29663076581551
 31
0.0
  0
LINE
  5
24E4
  8
0
 10
60.587372120402051
 20
149.45336923418449
 30
0.0
 11
60.373571669889913
 21
149.0103769589372
 31
0.0
  0
LINE
  5
24E5
  8
0
 10
60.587372120402051
 20
153.70336923418449
 30
0.0
 11
60.373571669889913
 21
153.2603769589372
 31
0.0
  0
LINE
  5
24E6
  8
0
 10
60.373571669889913
 20
153.2603769589372
 30
0.0
 11
60.373571669889913
 21
149.98962304106271
 31
0.0
  0
LINE
  5
24E7
  8
0
 10
60.373571669889913
 20
149.98962304106271
 30
0.0
 11
60.587372120402051
 21
149.54663076581551
 31
0.0
  0
LINE
  5
24E8
  8
0
 10
60.373571669889913
 20
156.6399999999999
 30
0.0
 11
60.373571669889913
 21
154.23962304106271
 31
0.0
  0
LINE
  5
24E9
  8
0
 10
60.373571669889913
 20
154.23962304106271
 30
0.0
 11
60.587372120402051
 21
153.79663076581551
 31
0.0
  0
LINE
  5
24EA
  8
0
 10
60.587372120402051
 20
157.17199999999991
 30
0.0
 11
60.373571669889913
 21
156.6399999999999
 31
0.0
  0
LINE
  5
24EB
  8
0
 10
60.587372120402051
 20
145.20336923418441
 30
0.0
 11
60.373571669889913
 21
144.7603769589372
 31
0.0
  0
LINE
  5
24EC
  8
0
 10
60.373571669889913
 20
144.7603769589372
 30
0.0
 11
60.373571669889913
 21
142.36000000000001
 31
0.0
  0
LINE
  5
24ED
  8
0
 10
60.373571669889913
 20
142.36000000000001
 30
0.0
 11
60.587372120402051
 21
141.82799999999989
 31
0.0
  0
LINE
  5
24EE
  8
0
 10
57.013124077618748
 20
142.36000000000001
 30
0.0
 11
57.013124077618748
 21
144.7603769589372
 31
0.0
  0
LINE
  5
24EF
  8
0
 10
57.013124077618748
 20
144.7603769589372
 30
0.0
 11
57.994081912463493
 21
145.20336923418441
 31
0.0
  0
LINE
  5
24F0
  8
0
 10
57.994081912463493
 20
141.82799999999989
 30
0.0
 11
57.013124077618748
 21
142.36000000000001
 31
0.0
  0
LINE
  5
24F1
  8
0
 10
57.994081912463493
 20
153.79663076581551
 30
0.0
 11
57.013124077618812
 21
154.23962304106271
 31
0.0
  0
LINE
  5
24F2
  8
0
 10
57.013124077618812
 20
154.23962304106271
 30
0.0
 11
57.013124077618812
 21
156.6399999999999
 31
0.0
  0
LINE
  5
24F3
  8
0
 10
57.013124077618812
 20
156.6399999999999
 30
0.0
 11
57.994081912463493
 21
157.17199999999991
 31
0.0
  0
LINE
  5
24F4
  8
0
 10
57.013124077618748
 20
149.98962304106271
 30
0.0
 11
57.013124077618812
 21
153.2603769589372
 31
0.0
  0
LINE
  5
24F5
  8
0
 10
57.013124077618812
 20
153.2603769589372
 30
0.0
 11
57.994081912463493
 21
153.70336923418449
 31
0.0
  0
LINE
  5
24F6
  8
0
 10
57.994081912463493
 20
149.54663076581551
 30
0.0
 11
57.013124077618748
 21
149.98962304106271
 31
0.0
  0
LINE
  5
24F7
  8
0
 10
57.63704245950975
 20
149.0103769589372
 30
0.0
 11
57.63704245950975
 21
145.73962304106271
 31
0.0
  0
LINE
  5
24F8
  8
0
 10
57.63704245950975
 20
145.73962304106271
 30
0.0
 11
57.994081912463493
 21
145.29663076581551
 31
0.0
  0
LINE
  5
24F9
  8
0
 10
57.994081912463493
 20
149.45336923418449
 30
0.0
 11
57.63704245950975
 21
149.0103769589372
 31
0.0
  0
LINE
  5
24FA
  8
0
 10
57.994081912463493
 20
153.70336923418449
 30
0.0
 11
57.63704245950975
 21
153.2603769589372
 31
0.0
  0
LINE
  5
24FB
  8
0
 10
57.63704245950975
 20
153.2603769589372
 30
0.0
 11
57.63704245950975
 21
149.98962304106271
 31
0.0
  0
LINE
  5
24FC
  8
0
 10
57.63704245950975
 20
149.98962304106271
 30
0.0
 11
57.994081912463493
 21
149.54663076581551
 31
0.0
  0
LINE
  5
24FD
  8
0
 10
57.63704245950975
 20
156.6399999999999
 30
0.0
 11
57.63704245950975
 21
154.23962304106271
 31
0.0
  0
LINE
  5
24FE
  8
0
 10
57.63704245950975
 20
154.23962304106271
 30
0.0
 11
57.994081912463493
 21
153.79663076581551
 31
0.0
  0
LINE
  5
24FF
  8
0
 10
57.994081912463493
 20
157.17199999999991
 30
0.0
 11
57.63704245950975
 21
156.6399999999999
 31
0.0
  0
LINE
  5
2500
  8
0
 10
57.994081912463493
 20
145.20336923418441
 30
0.0
 11
57.63704245950975
 21
144.7603769589372
 31
0.0
  0
LINE
  5
2501
  8
0
 10
57.63704245950975
 20
144.7603769589372
 30
0.0
 11
57.63704245950975
 21
142.36000000000001
 31
0.0
  0
LINE
  5
2502
  8
0
 10
57.63704245950975
 20
142.36000000000001
 30
0.0
 11
57.994081912463493
 21
141.82799999999989
 31
0.0
  0
LINE
  5
2503
  8
0
 10
54.725198045254437
 20
142.36000000000001
 30
0.0
 11
54.725198045254437
 21
144.7603769589372
 31
0.0
  0
LINE
  5
2504
  8
0
 10
54.725198045254437
 20
144.7603769589372
 30
0.0
 11
55.746983155769072
 21
145.20336923418441
 31
0.0
  0
LINE
  5
2505
  8
0
 10
55.746983155769072
 20
141.82799999999989
 30
0.0
 11
54.725198045254437
 21
142.36000000000001
 31
0.0
  0
LINE
  5
2506
  8
0
 10
55.746983155769101
 20
153.79663076581551
 30
0.0
 11
54.725198045254437
 21
154.23962304106271
 31
0.0
  0
LINE
  5
2507
  8
0
 10
54.725198045254437
 20
154.23962304106271
 30
0.0
 11
54.725198045254437
 21
156.6399999999999
 31
0.0
  0
LINE
  5
2508
  8
0
 10
54.725198045254437
 20
156.6399999999999
 30
0.0
 11
55.746983155769101
 21
157.17199999999991
 31
0.0
  0
LINE
  5
2509
  8
0
 10
54.725198045254437
 20
149.98962304106271
 30
0.0
 11
54.725198045254437
 21
153.2603769589372
 31
0.0
  0
LINE
  5
250A
  8
0
 10
54.725198045254437
 20
153.2603769589372
 30
0.0
 11
55.746983155769101
 21
153.70336923418449
 31
0.0
  0
LINE
  5
250B
  8
0
 10
55.746983155769072
 20
149.54663076581551
 30
0.0
 11
54.725198045254437
 21
149.98962304106271
 31
0.0
  0
LINE
  5
250C
  8
0
 10
55.253972994019279
 20
149.0103769589372
 30
0.0
 11
55.253972994019279
 21
145.73962304106271
 31
0.0
  0
LINE
  5
250D
  8
0
 10
55.253972994019279
 20
145.73962304106271
 30
0.0
 11
55.746983155769072
 21
145.29663076581551
 31
0.0
  0
LINE
  5
250E
  8
0
 10
55.746983155769072
 20
149.45336923418449
 30
0.0
 11
55.253972994019279
 21
149.0103769589372
 31
0.0
  0
LINE
  5
250F
  8
0
 10
55.746983155769101
 20
153.70336923418449
 30
0.0
 11
55.253972994019279
 21
153.2603769589372
 31
0.0
  0
LINE
  5
2510
  8
0
 10
55.253972994019279
 20
153.2603769589372
 30
0.0
 11
55.253972994019279
 21
149.98962304106271
 31
0.0
  0
LINE
  5
2511
  8
0
 10
55.253972994019279
 20
149.98962304106271
 30
0.0
 11
55.746983155769072
 21
149.54663076581551
 31
0.0
  0
LINE
  5
2512
  8
0
 10
55.253972994019279
 20
156.6399999999999
 30
0.0
 11
55.253972994019279
 21
154.23962304106271
 31
0.0
  0
LINE
  5
2513
  8
0
 10
55.253972994019279
 20
154.23962304106271
 30
0.0
 11
55.746983155769101
 21
153.79663076581551
 31
0.0
  0
LINE
  5
2514
  8
0
 10
55.746983155769101
 20
157.17199999999991
 30
0.0
 11
55.253972994019279
 21
156.6399999999999
 31
0.0
  0
LINE
  5
2515
  8
0
 10
55.746983155769072
 20
145.20336923418441
 30
0.0
 11
55.253972994019279
 21
144.7603769589372
 31
0.0
  0
LINE
  5
2516
  8
0
 10
55.253972994019279
 20
144.7603769589372
 30
0.0
 11
55.253972994019279
 21
142.36000000000001
 31
0.0
  0
LINE
  5
2517
  8
0
 10
55.253972994019279
 20
142.36000000000001
 30
0.0
 11
55.746983155769072
 21
141.82799999999989
 31
0.0
  0
LINE
  5
2518
  8
0
 10
52.850008512987927
 20
142.36000000000001
 30
0.0
 11
52.850008512987927
 21
144.7603769589372
 31
0.0
  0
LINE
  5
2519
  8
0
 10
52.850008512987927
 20
144.7603769589372
 30
0.0
 11
53.891820300907433
 21
145.20336923418441
 31
0.0
  0
LINE
  5
251A
  8
0
 10
53.891820300907433
 20
141.82799999999989
 30
0.0
 11
52.850008512987927
 21
142.36000000000001
 31
0.0
  0
LINE
  5
251B
  8
0
 10
53.891820300907483
 20
153.79663076581551
 30
0.0
 11
52.850008512988012
 21
154.23962304106271
 31
0.0
  0
LINE
  5
251C
  8
0
 10
52.850008512988012
 20
154.23962304106271
 30
0.0
 11
52.850008512988012
 21
156.6399999999999
 31
0.0
  0
LINE
  5
251D
  8
0
 10
52.850008512988012
 20
156.6399999999999
 30
0.0
 11
53.891820300907483
 21
157.17199999999991
 31
0.0
  0
LINE
  5
251E
  8
0
 10
52.850008512987927
 20
149.98962304106271
 30
0.0
 11
52.850008512988012
 21
153.2603769589372
 31
0.0
  0
LINE
  5
251F
  8
0
 10
52.850008512988012
 20
153.2603769589372
 30
0.0
 11
53.891820300907483
 21
153.70336923418449
 31
0.0
  0
LINE
  5
2520
  8
0
 10
53.891820300907433
 20
149.54663076581551
 30
0.0
 11
52.850008512987927
 21
149.98962304106271
 31
0.0
  0
LINE
  5
2521
  8
0
 10
53.272875695530779
 20
149.0103769589372
 30
0.0
 11
53.272875695530779
 21
145.73962304106271
 31
0.0
  0
LINE
  5
2522
  8
0
 10
53.272875695530779
 20
145.73962304106271
 30
0.0
 11
53.891820300907433
 21
145.29663076581551
 31
0.0
  0
LINE
  5
2523
  8
0
 10
53.891820300907433
 20
149.45336923418449
 30
0.0
 11
53.272875695530779
 21
149.0103769589372
 31
0.0
  0
LINE
  5
2524
  8
0
 10
53.891820300907483
 20
153.70336923418449
 30
0.0
 11
53.272875695530779
 21
153.2603769589372
 31
0.0
  0
LINE
  5
2525
  8
0
 10
53.272875695530779
 20
153.2603769589372
 30
0.0
 11
53.272875695530779
 21
149.98962304106271
 31
0.0
  0
LINE
  5
2526
  8
0
 10
53.272875695530779
 20
149.98962304106271
 30
0.0
 11
53.891820300907433
 21
149.54663076581551
 31
0.0
  0
LINE
  5
2527
  8
0
 10
53.272875695530779
 20
156.6399999999999
 30
0.0
 11
53.272875695530779
 21
154.23962304106271
 31
0.0
  0
LINE
  5
2528
  8
0
 10
53.272875695530779
 20
154.23962304106271
 30
0.0
 11
53.891820300907483
 21
153.79663076581551
 31
0.0
  0
LINE
  5
2529
  8
0
 10
53.891820300907483
 20
157.17199999999991
 30
0.0
 11
53.272875695530779
 21
156.6399999999999
 31
0.0
  0
LINE
  5
252A
  8
0
 10
53.891820300907433
 20
145.20336923418441
 30
0.0
 11
53.272875695530779
 21
144.7603769589372
 31
0.0
  0
LINE
  5
252B
  8
0
 10
53.272875695530779
 20
144.7603769589372
 30
0.0
 11
53.272875695530779
 21
142.36000000000001
 31
0.0
  0
LINE
  5
252C
  8
0
 10
53.272875695530779
 20
142.36000000000001
 30
0.0
 11
53.891820300907433
 21
141.82799999999989
 31
0.0
  0
LINE
  5
252D
  8
0
 10
51.425728932096291
 20
142.36000000000001
 30
0.0
 11
51.425728932096291
 21
144.76037695893729
 31
0.0
  0
LINE
  5
252E
  8
0
 10
51.425728932096291
 20
144.76037695893729
 30
0.0
 11
52.466359113755658
 21
145.20336923418441
 31
0.0
  0
LINE
  5
252F
  8
0
 10
52.466359113755708
 20
141.82799999999989
 30
0.0
 11
51.425728932096291
 21
142.36000000000001
 31
0.0
  0
LINE
  5
2530
  8
0
 10
52.466359113755743
 20
153.79663076581551
 30
0.0
 11
51.425728932096312
 21
154.23962304106271
 31
0.0
  0
LINE
  5
2531
  8
0
 10
51.425728932096312
 20
154.23962304106271
 30
0.0
 11
51.425728932096312
 21
156.6399999999999
 31
0.0
  0
LINE
  5
2532
  8
0
 10
51.425728932096312
 20
156.6399999999999
 30
0.0
 11
52.466359113755708
 21
157.17199999999991
 31
0.0
  0
LINE
  5
2533
  8
0
 10
51.425728932096291
 20
149.98962304106271
 30
0.0
 11
51.425728932096312
 21
153.26037695893729
 31
0.0
  0
LINE
  5
2534
  8
0
 10
51.425728932096312
 20
153.26037695893729
 30
0.0
 11
52.466359113755708
 21
153.70336923418449
 31
0.0
  0
LINE
  5
2535
  8
0
 10
52.466359113755658
 20
149.54663076581551
 30
0.0
 11
51.425728932096291
 21
149.98962304106271
 31
0.0
  0
LINE
  5
2536
  8
0
 10
51.734079992028789
 20
149.01037695893729
 30
0.0
 11
51.734079992028789
 21
145.73962304106271
 31
0.0
  0
LINE
  5
2537
  8
0
 10
51.734079992028789
 20
145.73962304106271
 30
0.0
 11
52.466359113755658
 21
145.29663076581551
 31
0.0
  0
LINE
  5
2538
  8
0
 10
52.466359113755658
 20
149.45336923418449
 30
0.0
 11
51.734079992028789
 21
149.01037695893729
 31
0.0
  0
LINE
  5
2539
  8
0
 10
52.466359113755708
 20
153.70336923418449
 30
0.0
 11
51.734079992028789
 21
153.26037695893729
 31
0.0
  0
LINE
  5
253A
  8
0
 10
51.734079992028789
 20
153.26037695893729
 30
0.0
 11
51.734079992028789
 21
149.98962304106271
 31
0.0
  0
LINE
  5
253B
  8
0
 10
51.734079992028789
 20
149.98962304106271
 30
0.0
 11
52.466359113755658
 21
149.54663076581551
 31
0.0
  0
LINE
  5
253C
  8
0
 10
51.734079992028789
 20
156.6399999999999
 30
0.0
 11
51.734079992028789
 21
154.23962304106271
 31
0.0
  0
LINE
  5
253D
  8
0
 10
51.734079992028789
 20
154.23962304106271
 30
0.0
 11
52.466359113755708
 21
153.79663076581551
 31
0.0
  0
LINE
  5
253E
  8
0
 10
52.466359113755708
 20
157.17199999999991
 30
0.0
 11
51.734079992028789
 21
156.6399999999999
 31
0.0
  0
LINE
  5
253F
  8
0
 10
52.466359113755658
 20
145.20336923418441
 30
0.0
 11
51.734079992028789
 21
144.76037695893729
 31
0.0
  0
LINE
  5
2540
  8
0
 10
51.734079992028789
 20
144.76037695893729
 30
0.0
 11
51.734079992028789
 21
142.36000000000001
 31
0.0
  0
LINE
  5
2541
  8
0
 10
51.734079992028789
 20
142.36000000000001
 30
0.0
 11
52.466359113755658
 21
141.82799999999989
 31
0.0
  0
LINE
  5
2542
  8
0
 10
50.481353527563243
 20
142.36000000000001
 30
0.0
 11
50.481353527563243
 21
144.76037695893729
 31
0.0
  0
LINE
  5
2543
  8
0
 10
50.481353527563243
 20
144.76037695893729
 30
0.0
 11
51.499617873393589
 21
145.20336923418441
 31
0.0
  0
LINE
  5
2544
  8
0
 10
51.499617873393611
 20
141.828
 30
0.0
 11
50.481353527563243
 21
142.36000000000001
 31
0.0
  0
LINE
  5
2545
  8
0
 10
51.499617873393611
 20
153.79663076581551
 30
0.0
 11
50.4813535275633
 21
154.23962304106271
 31
0.0
  0
LINE
  5
2546
  8
0
 10
50.4813535275633
 20
154.23962304106271
 30
0.0
 11
50.4813535275633
 21
156.6399999999999
 31
0.0
  0
LINE
  5
2547
  8
0
 10
50.4813535275633
 20
156.6399999999999
 30
0.0
 11
51.499617873393611
 21
157.172
 31
0.0
  0
LINE
  5
2548
  8
0
 10
50.481353527563243
 20
149.98962304106271
 30
0.0
 11
50.4813535275633
 21
153.26037695893729
 31
0.0
  0
LINE
  5
2549
  8
0
 10
50.4813535275633
 20
153.26037695893729
 30
0.0
 11
51.499617873393611
 21
153.70336923418449
 31
0.0
  0
LINE
  5
254A
  8
0
 10
51.499617873393589
 20
149.54663076581551
 30
0.0
 11
50.481353527563243
 21
149.98962304106271
 31
0.0
  0
LINE
  5
254B
  8
0
 10
50.668911326516309
 20
149.01037695893729
 30
0.0
 11
50.668911326516309
 21
145.73962304106271
 31
0.0
  0
LINE
  5
254C
  8
0
 10
50.668911326516309
 20
145.73962304106271
 30
0.0
 11
51.499617873393611
 21
145.29663076581551
 31
0.0
  0
LINE
  5
254D
  8
0
 10
51.499617873393611
 20
149.45336923418449
 30
0.0
 11
50.668911326516309
 21
149.01037695893729
 31
0.0
  0
LINE
  5
254E
  8
0
 10
51.499617873393611
 20
153.70336923418449
 30
0.0
 11
50.66891132651633
 21
153.26037695893729
 31
0.0
  0
LINE
  5
254F
  8
0
 10
50.66891132651633
 20
153.26037695893729
 30
0.0
 11
50.668911326516309
 21
149.98962304106271
 31
0.0
  0
LINE
  5
2550
  8
0
 10
50.668911326516309
 20
149.98962304106271
 30
0.0
 11
51.499617873393611
 21
149.54663076581551
 31
0.0
  0
LINE
  5
2551
  8
0
 10
50.66891132651633
 20
156.6399999999999
 30
0.0
 11
50.66891132651633
 21
154.23962304106271
 31
0.0
  0
LINE
  5
2552
  8
0
 10
50.66891132651633
 20
154.23962304106271
 30
0.0
 11
51.499617873393611
 21
153.79663076581551
 31
0.0
  0
LINE
  5
2553
  8
0
 10
51.499617873393611
 20
157.172
 30
0.0
 11
50.66891132651633
 21
156.6399999999999
 31
0.0
  0
LINE
  5
2554
  8
0
 10
51.499617873393611
 20
145.20336923418441
 30
0.0
 11
50.668911326516309
 21
144.76037695893729
 31
0.0
  0
LINE
  5
2555
  8
0
 10
50.668911326516309
 20
144.76037695893729
 30
0.0
 11
50.668911326516309
 21
142.36000000000001
 31
0.0
  0
LINE
  5
2556
  8
0
 10
50.668911326516309
 20
142.36000000000001
 30
0.0
 11
51.499617873393611
 21
141.828
 31
0.0
  0
LINE
  5
2557
  8
0
 10
50.036107059271359
 20
142.36000000000001
 30
0.0
 11
50.036107059271359
 21
144.76037695893729
 31
0.0
  0
LINE
  5
2558
  8
0
 10
50.036107059271359
 20
144.76037695893729
 30
0.0
 11
51.011276643623411
 21
145.20336923418441
 31
0.0
  0
LINE
  5
2559
  8
0
 10
51.011276643623411
 20
141.828
 30
0.0
 11
50.036107059271359
 21
142.36000000000001
 31
0.0
  0
LINE
  5
255A
  8
0
 10
51.011276643623432
 20
153.79663076581551
 30
0.0
 11
50.036107059271359
 21
154.23962304106271
 31
0.0
  0
LINE
  5
255B
  8
0
 10
50.036107059271359
 20
154.23962304106271
 30
0.0
 11
50.036107059271359
 21
156.6399999999999
 31
0.0
  0
LINE
  5
255C
  8
0
 10
50.036107059271359
 20
156.6399999999999
 30
0.0
 11
51.011276643623432
 21
157.172
 31
0.0
  0
LINE
  5
255D
  8
0
 10
50.036107059271359
 20
149.98962304106271
 30
0.0
 11
50.036107059271359
 21
153.26037695893729
 31
0.0
  0
LINE
  5
255E
  8
0
 10
50.036107059271359
 20
153.26037695893729
 30
0.0
 11
51.011276643623432
 21
153.70336923418449
 31
0.0
  0
LINE
  5
255F
  8
0
 10
51.011276643623411
 20
149.54663076581551
 30
0.0
 11
50.036107059271359
 21
149.98962304106271
 31
0.0
  0
LINE
  5
2560
  8
0
 10
50.099053461330207
 20
149.01037695893729
 30
0.0
 11
50.099053461330207
 21
145.73962304106271
 31
0.0
  0
LINE
  5
2561
  8
0
 10
50.099053461330207
 20
145.73962304106271
 30
0.0
 11
51.011276643623411
 21
145.29663076581551
 31
0.0
  0
LINE
  5
2562
  8
0
 10
51.011276643623411
 20
149.45336923418449
 30
0.0
 11
50.099053461330207
 21
149.01037695893729
 31
0.0
  0
LINE
  5
2563
  8
0
 10
51.011276643623432
 20
153.70336923418449
 30
0.0
 11
50.099053461330207
 21
153.26037695893729
 31
0.0
  0
LINE
  5
2564
  8
0
 10
50.099053461330207
 20
153.26037695893729
 30
0.0
 11
50.099053461330207
 21
149.98962304106271
 31
0.0
  0
LINE
  5
2565
  8
0
 10
50.099053461330207
 20
149.98962304106271
 30
0.0
 11
51.011276643623411
 21
149.54663076581551
 31
0.0
  0
LINE
  5
2566
  8
0
 10
50.099053461330207
 20
156.6399999999999
 30
0.0
 11
50.099053461330207
 21
154.23962304106271
 31
0.0
  0
LINE
  5
2567
  8
0
 10
50.099053461330207
 20
154.23962304106271
 30
0.0
 11
51.011276643623432
 21
153.79663076581551
 31
0.0
  0
LINE
  5
2568
  8
0
 10
51.011276643623432
 20
157.172
 30
0.0
 11
50.099053461330207
 21
156.6399999999999
 31
0.0
  0
LINE
  5
2569
  8
0
 10
51.011276643623411
 20
145.20336923418441
 30
0.0
 11
50.099053461330207
 21
144.76037695893729
 31
0.0
  0
LINE
  5
256A
  8
0
 10
50.099053461330207
 20
144.76037695893729
 30
0.0
 11
50.099053461330207
 21
142.36000000000001
 31
0.0
  0
LINE
  5
256B
  8
0
 10
50.099053461330207
 20
142.36000000000001
 30
0.0
 11
51.011276643623411
 21
141.828
 31
0.0
  0
LINE
  5
256C
  8
0
 10
85.0
 20
127.9905
 30
0.0
 11
85.0
 21
132.0095
 31
0.0
  0
LINE
  5
256D
  8
2
 10
78.0
 20
132.0095
 30
0.0
 11
84.814410772622125
 21
132.0095
 31
0.0
  0
LINE
  5
256E
  8
2
 10
78.0
 20
127.9905
 30
0.0
 11
84.814410772622125
 21
127.9905
 31
0.0
  0
LINE
  5
2596
  8
1
 10
61.00000000000005
 20
217.0000000000002
 30
0.0
 11
61.00000000000005
 21
237.0000000000002
 31
0.0
  0
LINE
  5
2597
  8
1
 10
44.999999999999972
 20
227.0000000000002
 30
0.0
 11
105.0
 21
227.00000000000011
 31
0.0
  0
LINE
  5
2598
  8
1
 10
75.000000000000028
 20
197.00000000000011
 30
0.0
 11
75.000000000000057
 21
257.00000000000023
 31
0.0
  0
ARC
  5
2599
  8
0
 10
75.000000000000057
 20
227.0000000000002
 30
0.0
 40
9.5215390309173529
 50
213.36614331619199
 51
146.63385668380801
  0
CIRCLE
  5
259A
  8
0
 10
75.000000000000057
 20
227.0000000000002
 30
0.0
 40
24.0
  0
ARC
  5
259B
  8
0
 10
75.000000000000057
 20
227.0000000000002
 30
0.0
 40
11.6
 50
214.8461094173181
 51
145.15389058268181
  0
CIRCLE
  5
259C
  8
0
 10
75.000000000000057
 20
227.0000000000002
 30
0.0
 40
23.199999999999999
  0
CIRCLE
  5
259E
  8
0
 10
61.00000000000005
 20
227.0000000000002
 30
0.0
 40
8.0000000000000302
  0
ARC
  5
259F
  8
0
 10
74.999999999996575
 20
226.9999999999998
 30
0.0
 40
24.999999999996579
 50
185.10206459626539
 51
191.26157176736871
  0
ARC
  5
25A0
  8
0
 10
74.999999999999261
 20
227.0000000000002
 30
0.0
 40
24.99999999999919
 50
176.92024641445079
 51
183.0797535855491
  0
ARC
  5
25A1
  8
0
 10
75.000000000000341
 20
227.00000000000031
 30
0.0
 40
25.00000000000033
 50
193.28388277808531
 51
199.44338994918951
  0
ARC
  5
25A2
  8
0
 10
74.999999999999829
 20
227.00000000000031
 30
0.0
 40
24.999999999999769
 50
168.73842823263109
 51
174.89793540373449
  0
ARC
  5
25A3
  8
0
 10
75.000000000002757
 20
227.00000000000139
 30
0.0
 40
25.000000000003041
 50
201.4657009599058
 51
207.62520813100389
  0
ARC
  5
25A4
  8
0
 10
75.000000000000142
 20
227.0000000000002
 30
0.0
 40
25.000000000000188
 50
160.55661005081041
 51
166.7161172219146
  0
ARC
  5
25A5
  8
0
 10
74.999999999998693
 20
226.9999999999992
 30
0.0
 40
24.999999999998359
 50
209.64751914172251
 51
215.8070263128225
  0
ARC
  5
25A6
  8
0
 10
74.999999999999375
 20
227.00000000000051
 30
0.0
 40
24.999999999999272
 50
152.374791868996
 51
158.5342990400942
  0
ARC
  5
25A7
  8
0
 10
74.99999999999693
 20
226.99999999999741
 30
0.0
 40
24.99999999999585
 50
217.8293373235403
 51
223.9888444946429
  0
ARC
  5
25A8
  8
0
 10
75.000000000000057
 20
227.0000000000002
 30
0.0
 40
25.000000000000071
 50
144.19297368717741
 51
150.35248085827749
  0
ARC
  5
25A9
  8
0
 10
75.000000000000341
 20
227.0000000000004
 30
0.0
 40
25.000000000000359
 50
226.01115550535761
 51
232.17066267645939
  0
ARC
  5
25AA
  8
0
 10
74.999999999998977
 20
227.00000000000111
 30
0.0
 40
24.999999999998611
 50
136.0111555053571
 51
142.1706626764597
  0
ARC
  5
25AB
  8
0
 10
75.000000000000966
 20
227.00000000000151
 30
0.0
 40
25.000000000001641
 50
234.19297368717639
 51
240.3524808582786
  0
ARC
  5
25AC
  8
0
 10
75.000000000002444
 20
226.9999999999973
 30
0.0
 40
25.000000000003752
 50
127.8293373235405
 51
133.98884449463961
  0
ARC
  5
25AD
  8
0
 10
74.999999999999602
 20
226.99999999999901
 30
0.0
 40
24.99999999999882
 50
242.37479186899441
 51
248.53429904009559
  0
ARC
  5
25AE
  8
0
 10
75.000000000000966
 20
226.99999999999881
 30
0.0
 40
25.00000000000167
 50
119.6475191417214
 51
125.8070263128236
  0
ARC
  5
25AF
  8
0
 10
74.999999999999375
 20
226.99999999999801
 30
0.0
 40
24.999999999997652
 50
250.55661005081211
 51
256.7161172219142
  0
ARC
  5
25B0
  8
0
 10
74.999999999999375
 20
227.00000000000171
 30
0.0
 40
24.99999999999833
 50
111.4657009599044
 51
117.62520813100549
  0
ARC
  5
25B1
  8
0
 10
75.000000000000142
 20
227.00000000000071
 30
0.0
 40
25.000000000000551
 50
258.73842823263112
 51
264.8979354037329
  0
ARC
  5
25B2
  8
0
 10
75.0
 20
227.00000000000051
 30
0.0
 40
24.99999999999967
 50
103.2838827780856
 51
109.4433899491878
  0
ARC
  5
25B3
  8
0
 10
75.000000000000057
 20
226.99999999999889
 30
0.0
 40
24.99999999999876
 50
266.9202464144492
 51
273.0797535855508
  0
ARC
  5
25B4
  8
0
 10
74.999999999999829
 20
227.00000000000199
 30
0.0
 40
24.999999999998241
 50
95.102064596267041
 51
101.26157176736901
  0
ARC
  5
25B5
  8
0
 10
75.000000000000057
 20
227.0000000000002
 30
0.0
 40
24.99999999999995
 50
275.10206459626698
 51
281.26157176736888
  0
ARC
  5
25B6
  8
0
 10
75.000000000000057
 20
227.00000000000301
 30
0.0
 40
24.99999999999714
 50
86.920246414449224
 51
93.07975358555079
  0
ARC
  5
25B7
  8
0
 10
75.000000000000341
 20
226.99999999999881
 30
0.0
 40
24.99999999999865
 50
283.28388277808568
 51
289.44338994918792
  0
ARC
  5
25B8
  8
0
 10
74.999999999999659
 20
226.9999999999977
 30
0.0
 40
25.000000000002569
 50
78.738428232631023
 51
84.897935403732944
  0
ARC
  5
25B9
  8
0
 10
75.000000000000341
 20
226.9999999999994
 30
0.0
 40
24.999999999999261
 50
291.46570095990262
 51
297.62520813100559
  0
ARC
  5
25BA
  8
0
 10
74.999999999999261
 20
226.99999999999761
 30
0.0
 40
25.00000000000275
 50
70.556610050812154
 51
76.716117221914317
  0
ARC
  5
25BB
  8
0
 10
74.999999999998323
 20
227.00000000000281
 30
0.0
 40
25.000000000003141
 50
299.64751914172138
 51
305.80702631282361
  0
ARC
  5
25BC
  8
0
 10
74.999999999999375
 20
226.99999999999849
 30
0.0
 40
25.000000000001759
 50
62.374791868994421
 51
68.534299040095618
  0
ARC
  5
25BD
  8
0
 10
75.000000000001933
 20
226.9999999999981
 30
0.0
 40
24.999999999997129
 50
307.82933732353882
 51
313.98884449464231
  0
ARC
  5
25BE
  8
0
 10
74.999999999999716
 20
226.9999999999998
 30
0.0
 40
25.000000000000561
 50
54.192973687176398
 51
60.352480858278582
  0
ARC
  5
25BF
  8
0
 10
74.999999999999488
 20
227.0000000000006
 30
0.0
 40
25.00000000000075
 50
316.01115550535712
 51
322.17066267645981
  0
ARC
  5
25C0
  8
0
 10
75.000000000003723
 20
227.00000000000449
 30
0.0
 40
24.99999999999423
 50
46.01115550535765
 51
52.17066267646122
  0
ARC
  5
25C1
  8
0
 10
75.000000000003041
 20
226.99999999999821
 30
0.0
 40
24.999999999996412
 50
324.19297368717753
 51
330.35248085827737
  0
ARC
  5
25C2
  8
0
 10
74.99999999999855
 20
226.99999999999881
 30
0.0
 40
25.000000000001972
 50
37.829337323540258
 51
43.988844494642869
  0
ARC
  5
25C3
  8
0
 10
74.999999999999375
 20
227.00000000000051
 30
0.0
 40
25.000000000000739
 50
332.37479186899589
 51
338.53429904009408
  0
ARC
  5
25C4
  8
0
 10
75.000000000000142
 20
227.00000000000031
 30
0.0
 40
24.999999999999829
 50
29.647519141722501
 51
35.807026312822522
  0
ARC
  5
25C5
  8
0
 10
75.000000000003041
 20
226.9999999999992
 30
0.0
 40
24.999999999996859
 50
340.5566100508106
 51
346.7161172219146
  0
ARC
  5
25C6
  8
0
 10
74.999999999998124
 20
226.9999999999992
 30
0.0
 40
25.00000000000216
 50
21.465700959905789
 51
27.62520813100393
  0
ARC
  5
25C7
  8
0
 10
75.000000000003041
 20
226.9999999999998
 30
0.0
 40
24.999999999996881
 50
348.73842823263112
 51
354.89793540373131
  0
ARC
  5
25C8
  8
0
 10
75.000000000000341
 20
227.00000000000031
 30
0.0
 40
24.999999999999691
 50
13.28388277808534
 51
19.443389949189498
  0
ARC
  5
25C9
  8
0
 10
75.000000000001023
 20
227.0000000000002
 30
0.0
 40
24.999999999999009
 50
356.92024641444749
 51
3.0797535855491138
  0
ARC
  5
25CA
  8
0
 10
75.000000000001648
 20
227.00000000000031
 30
0.0
 40
24.999999999998401
 50
5.1020645962654134
 51
11.26157176736888
  0
LINE
  5
25CB
  8
0
 10
50.099053461330243
 20
229.22325470387651
 30
0.0
 11
51.011276643623461
 21
228.7157073559417
 31
0.0
  0
LINE
  5
25CC
  8
0
 10
51.011276643623461
 20
228.7157073559417
 30
0.0
 11
50.036107059271387
 21
228.3431490028434
 31
0.0
  0
LINE
  5
25CD
  8
0
 10
50.668911326516373
 20
232.74439935616209
 30
0.0
 11
51.499617873393611
 21
232.11219521374929
 31
0.0
  0
LINE
  5
25CE
  8
0
 10
51.499617873393611
 20
232.11219521374929
 30
0.0
 11
50.481353527563357
 21
231.88221006918681
 31
0.0
  0
LINE
  5
25CF
  8
0
 10
51.734079992028967
 20
236.14860460303609
 30
0.0
 11
52.466359113755772
 21
235.40461351935861
 31
0.0
  0
LINE
  5
25D0
  8
0
 10
52.466359113755772
 20
235.40461351935861
 30
0.0
 11
51.425728932096433
 21
235.3218834176528
 31
0.0
  0
LINE
  5
25D1
  8
0
 10
53.272875695530963
 20
239.36657064258929
 30
0.0
 11
53.89182030090754
 21
238.52593813061759
 31
0.0
  0
LINE
  5
25D2
  8
0
 10
53.89182030090754
 20
238.52593813061759
 30
0.0
 11
52.850008512988097
 21
238.59214721806541
 31
0.0
  0
LINE
  5
25D3
  8
0
 10
55.253972994019392
 20
242.33278896610429
 30
0.0
 11
55.746983155769179
 21
241.41262787959809
 31
0.0
  0
LINE
  5
25D4
  8
0
 10
55.746983155769179
 20
241.41262787959809
 30
0.0
 11
54.725198045254558
 21
241.62642833011029
 31
0.0
  0
LINE
  5
25D5
  8
0
 10
57.637042459509928
 20
244.98687592238139
 30
0.0
 11
57.994081912463599
 21
244.00591808753671
 31
0.0
  0
LINE
  5
25D6
  8
0
 10
57.994081912463599
 20
244.00591808753671
 30
0.0
 11
57.01312407761889
 21
244.36295754049041
 31
0.0
  0
LINE
  5
25D7
  8
0
 10
60.373571669890033
 20
247.27480195474581
 30
0.0
 11
60.587372120402193
 21
246.2530168442311
 31
0.0
  0
LINE
  5
25D8
  8
0
 10
60.587372120402193
 20
246.2530168442311
 30
0.0
 11
59.667211033896109
 21
246.74602700598089
 31
0.0
  0
LINE
  5
25D9
  8
0
 10
63.407852781934992
 20
249.14999148701219
 30
0.0
 11
63.474061869382723
 21
248.10817969909269
 31
0.0
  0
LINE
  5
25DA
  8
0
 10
63.474061869382723
 20
248.10817969909269
 30
0.0
 11
62.63342935741111
 21
248.72712430446941
 31
0.0
  0
LINE
  5
25DB
  8
0
 10
66.678116582347627
 20
250.57427106790379
 30
0.0
 11
66.595386480641821
 21
249.5336408862444
 31
0.0
  0
LINE
  5
25DC
  8
0
 10
66.595386480641821
 20
249.5336408862444
 30
0.0
 11
65.851395396964307
 21
250.2659200079714
 31
0.0
  0
LINE
  5
25DD
  8
0
 10
70.117789930813558
 20
251.5186464724369
 30
0.0
 11
69.887804786251053
 21
250.50038212660661
 31
0.0
  0
LINE
  5
25DE
  8
0
 10
69.887804786251053
 20
250.50038212660661
 30
0.0
 11
69.255600643838264
 21
251.33108867348389
 31
0.0
  0
LINE
  5
25DF
  8
0
 10
73.656850997156852
 20
251.96389294072881
 30
0.0
 11
73.284292644058525
 21
250.98872335637691
 31
0.0
  0
LINE
  5
25E0
  8
0
 10
73.284292644058525
 20
250.98872335637691
 30
0.0
 11
72.77674529612392
 21
251.90094653867001
 31
0.0
  0
LINE
  5
25E1
  8
0
 10
77.22325470387625
 20
251.90094653867001
 30
0.0
 11
76.715707355941561
 21
250.98872335637671
 31
0.0
  0
LINE
  5
25E2
  8
0
 10
76.715707355941561
 20
250.98872335637671
 30
0.0
 11
76.343149002843234
 21
251.96389294072881
 31
0.0
  0
LINE
  5
25E3
  8
0
 10
80.744399356161864
 20
251.33108867348389
 30
0.0
 11
80.112195213749146
 21
250.50038212660661
 31
0.0
  0
LINE
  5
25E4
  8
0
 10
80.112195213749146
 20
250.50038212660661
 30
0.0
 11
79.882210069186669
 21
251.5186464724369
 31
0.0
  0
LINE
  5
25E5
  8
0
 10
84.148604603035722
 20
250.26592000797129
 30
0.0
 11
83.404613519358335
 21
249.5336408862444
 31
0.0
  0
LINE
  5
25E6
  8
0
 10
83.404613519358335
 20
249.5336408862444
 30
0.0
 11
83.321883417652543
 21
250.57427106790379
 31
0.0
  0
LINE
  5
25E7
  8
0
 10
87.366570642589124
 20
248.7271243044693
 30
0.0
 11
86.525938130617362
 21
248.10817969909269
 31
0.0
  0
LINE
  5
25E8
  8
0
 10
86.525938130617362
 20
248.10817969909269
 30
0.0
 11
86.592147218065236
 21
249.14999148701219
 31
0.0
  0
LINE
  5
25E9
  8
0
 10
90.332788966103976
 20
246.74602700598089
 30
0.0
 11
89.412627879598006
 21
246.25301684423101
 31
0.0
  0
LINE
  5
25EA
  8
0
 10
89.412627879598006
 20
246.25301684423101
 30
0.0
 11
89.626428330110059
 21
247.2748019547457
 31
0.0
  0
LINE
  5
25EB
  8
0
 10
92.986875922381145
 20
244.36295754049021
 30
0.0
 11
92.005918087536557
 21
244.0059180875366
 31
0.0
  0
LINE
  5
25EC
  8
0
 10
92.005918087536557
 20
244.0059180875366
 30
0.0
 11
92.362957540490129
 21
244.9868759223813
 31
0.0
  0
LINE
  5
25ED
  8
0
 10
95.274801954745556
 20
241.6264283301102
 30
0.0
 11
94.253016844230842
 21
241.41262787959801
 31
0.0
  0
LINE
  5
25EE
  8
0
 10
94.253016844230842
 20
241.41262787959801
 30
0.0
 11
94.746027005980693
 21
242.3327889661042
 31
0.0
  0
LINE
  5
25EF
  8
0
 10
97.149991487012073
 20
238.59214721806529
 30
0.0
 11
96.108179699092545
 21
238.5259381306175
 31
0.0
  0
LINE
  5
25F0
  8
0
 10
96.108179699092545
 20
238.5259381306175
 30
0.0
 11
96.7271243044691
 21
239.36657064258921
 31
0.0
  0
LINE
  5
25F1
  8
0
 10
98.574271067903751
 20
235.32188341765271
 30
0.0
 11
97.533640886244257
 21
235.40461351935849
 31
0.0
  0
LINE
  5
25F2
  8
0
 10
97.533640886244257
 20
235.40461351935849
 30
0.0
 11
98.265920007971147
 21
236.14860460303601
 31
0.0
  0
LINE
  5
25F3
  8
0
 10
99.518646472436743
 20
231.8822100691867
 30
0.0
 11
98.500382126606439
 21
232.1121952137492
 31
0.0
  0
LINE
  5
25F4
  8
0
 10
98.500382126606439
 20
232.1121952137492
 30
0.0
 11
99.331088673483748
 21
232.74439935616189
 31
0.0
  0
LINE
  5
25F5
  8
0
 10
99.963892940728627
 20
228.3431490028434
 30
0.0
 11
98.988723356376511
 21
228.7157073559417
 31
0.0
  0
LINE
  5
25F6
  8
0
 10
98.988723356376511
 20
228.7157073559417
 30
0.0
 11
99.900946538669885
 21
229.22325470387639
 31
0.0
  0
LINE
  5
25F7
  8
0
 10
99.900946538669885
 20
224.77674529612389
 30
0.0
 11
98.988723356376511
 21
225.28429264405861
 31
0.0
  0
LINE
  5
25F8
  8
0
 10
98.988723356376511
 20
225.28429264405861
 30
0.0
 11
99.963892940728627
 21
225.65685099715691
 31
0.0
  0
LINE
  5
25F9
  8
0
 10
99.331088673483748
 20
221.25560064383831
 30
0.0
 11
98.500382126606439
 21
221.887804786251
 31
0.0
  0
LINE
  5
25FA
  8
0
 10
98.500382126606439
 20
221.887804786251
 30
0.0
 11
99.518646472436615
 21
222.1177899308135
 31
0.0
  0
LINE
  5
25FB
  8
0
 10
98.265920007971147
 20
217.85139539696431
 30
0.0
 11
97.533640886244257
 21
218.59538648064179
 31
0.0
  0
LINE
  5
25FC
  8
0
 10
97.533640886244257
 20
218.59538648064179
 30
0.0
 11
98.574271067903624
 21
218.6781165823476
 31
0.0
  0
LINE
  5
25FD
  8
0
 10
96.7271243044691
 20
214.63342935741099
 30
0.0
 11
96.108179699092545
 21
215.47406186938281
 31
0.0
  0
LINE
  5
25FE
  8
0
 10
96.108179699092545
 20
215.47406186938281
 30
0.0
 11
97.149991487012073
 21
215.40785278193491
 31
0.0
  0
LINE
  5
25FF
  8
0
 10
94.746027005980693
 20
211.66721103389611
 30
0.0
 11
94.253016844230842
 21
212.58737212040219
 31
0.0
  0
LINE
  5
2600
  8
0
 10
94.253016844230842
 20
212.58737212040219
 30
0.0
 11
95.274801954745556
 21
212.37357166989011
 31
0.0
  0
LINE
  5
2601
  8
0
 10
92.362957540490129
 20
209.0131240776189
 30
0.0
 11
92.005918087536415
 21
209.9940819124636
 31
0.0
  0
LINE
  5
2602
  8
0
 10
92.005918087536415
 20
209.9940819124636
 30
0.0
 11
92.986875922381103
 21
209.6370424595099
 31
0.0
  0
LINE
  5
2603
  8
0
 10
89.626428330110059
 20
206.7251980452545
 30
0.0
 11
89.412627879597835
 21
207.7469831557693
 31
0.0
  0
LINE
  5
2604
  8
0
 10
89.412627879597835
 20
207.7469831557693
 30
0.0
 11
90.332788966103919
 21
207.25397299401951
 31
0.0
  0
LINE
  5
2605
  8
0
 10
86.592147218065108
 20
204.85000851298821
 30
0.0
 11
86.525938130617362
 21
205.8918203009076
 31
0.0
  0
LINE
  5
2606
  8
0
 10
86.525938130617362
 20
205.8918203009076
 30
0.0
 11
87.366570642589011
 21
205.27287569553101
 31
0.0
  0
LINE
  5
2607
  8
0
 10
83.321883417652487
 20
203.4257289320964
 30
0.0
 11
83.404613519358236
 21
204.466359113756
 31
0.0
  0
LINE
  5
2608
  8
0
 10
83.404613519358236
 20
204.466359113756
 30
0.0
 11
84.148604603035722
 21
203.73407999202911
 31
0.0
  0
LINE
  5
2609
  8
0
 10
79.882210069186556
 20
202.48135352756341
 30
0.0
 11
80.112195213749018
 21
203.4996178733937
 31
0.0
  0
LINE
  5
260A
  8
0
 10
80.112195213749018
 20
203.4996178733937
 30
0.0
 11
80.744399356161864
 21
202.66891132651639
 31
0.0
  0
LINE
  5
260B
  8
0
 10
76.343149002843177
 20
202.0361070592715
 30
0.0
 11
76.715707355941561
 21
203.01127664362369
 31
0.0
  0
LINE
  5
260C
  8
0
 10
76.715707355941561
 20
203.01127664362369
 30
0.0
 11
77.22325470387608
 21
202.09905346133041
 31
0.0
  0
LINE
  5
260D
  8
0
 10
72.776745296123806
 20
202.09905346133041
 30
0.0
 11
73.284292644058439
 21
203.01127664362369
 31
0.0
  0
LINE
  5
260E
  8
0
 10
73.284292644058439
 20
203.01127664362369
 30
0.0
 11
73.656850997156795
 21
202.0361070592715
 31
0.0
  0
LINE
  5
260F
  8
0
 10
69.255600643838079
 20
202.66891132651639
 30
0.0
 11
69.887804786250854
 21
203.4996178733937
 31
0.0
  0
LINE
  5
2610
  8
0
 10
69.887804786250854
 20
203.4996178733937
 30
0.0
 11
70.117789930813387
 21
202.48135352756361
 31
0.0
  0
LINE
  5
2611
  8
0
 10
65.851395396964094
 20
203.73407999202911
 30
0.0
 11
66.59538648064165
 21
204.466359113756
 31
0.0
  0
LINE
  5
2612
  8
0
 10
66.59538648064165
 20
204.466359113756
 30
0.0
 11
66.678116582347386
 21
203.4257289320966
 31
0.0
  0
LINE
  5
2613
  8
0
 10
62.633429357410989
 20
205.27287569553101
 30
0.0
 11
63.474061869382581
 21
205.8918203009076
 31
0.0
  0
LINE
  5
2614
  8
0
 10
63.474061869382581
 20
205.8918203009076
 30
0.0
 11
63.407852781934793
 21
204.85000851298821
 31
0.0
  0
LINE
  5
2615
  8
0
 10
59.66721103389591
 20
207.25397299401951
 30
0.0
 11
60.587372120402051
 21
207.7469831557693
 31
0.0
  0
LINE
  5
2616
  8
0
 10
60.587372120402051
 20
207.7469831557693
 30
0.0
 11
60.373571669889913
 21
206.7251980452547
 31
0.0
  0
LINE
  5
2617
  8
0
 10
57.013124077618812
 20
209.63704245951001
 30
0.0
 11
57.994081912463493
 21
209.9940819124638
 31
0.0
  0
LINE
  5
2618
  8
0
 10
57.994081912463493
 20
209.9940819124638
 30
0.0
 11
57.63704245950975
 21
209.01312407761901
 31
0.0
  0
LINE
  5
2619
  8
0
 10
54.725198045254437
 20
212.37357166989011
 30
0.0
 11
55.746983155769129
 21
212.58737212040231
 31
0.0
  0
LINE
  5
261A
  8
0
 10
55.746983155769129
 20
212.58737212040231
 30
0.0
 11
55.2539729940193
 21
211.66721103389631
 31
0.0
  0
LINE
  5
261B
  8
0
 10
52.85000851298804
 20
215.40785278193511
 30
0.0
 11
53.891820300907511
 21
215.47406186938281
 31
0.0
  0
LINE
  5
261C
  8
0
 10
53.891820300907511
 20
215.47406186938281
 30
0.0
 11
53.272875695530821
 21
214.6334293574113
 31
0.0
  0
LINE
  5
261D
  8
0
 10
51.425728932096348
 20
218.67811658234771
 30
0.0
 11
52.466359113755743
 21
218.59538648064191
 31
0.0
  0
LINE
  5
261E
  8
0
 10
52.466359113755743
 20
218.59538648064191
 30
0.0
 11
51.734079992028832
 21
217.85139539696451
 31
0.0
  0
LINE
  5
261F
  8
0
 10
50.481353527563321
 20
222.1177899308137
 30
0.0
 11
51.499617873393611
 21
221.88780478625111
 31
0.0
  0
LINE
  5
2620
  8
0
 10
51.499617873393611
 20
221.88780478625111
 30
0.0
 11
50.668911326516373
 21
221.25560064383851
 31
0.0
  0
LINE
  5
2621
  8
0
 10
50.036107059271387
 20
225.65685099715699
 30
0.0
 11
51.011276643623461
 21
225.2842926440587
 31
0.0
  0
LINE
  5
2622
  8
0
 10
51.011276643623461
 20
225.2842926440587
 30
0.0
 11
50.099053461330243
 21
224.77674529612409
 31
0.0
  0
LINE
  5
29C9
  8
3
 10
84.814410772622125
 20
132.0095
 30
0.0
 11
85.0
 21
132.0095
 31
0.0
  0
LINE
  5
29CA
  8
3
 10
85.0
 20
127.9905
 30
0.0
 11
84.814410772622125
 21
127.9905
 31
0.0
  0
LINE
  5
29CB
  8
2
 10
67.500000000000028
 20
148.0
 30
0.0
 11
82.500000000000057
 21
148.0
 31
0.0
  0
LINE
  5
29CC
  8
2
 10
67.500000000000028
 20
148.0
 30
0.0
 11
67.5
 21
125.2999999999999
 31
0.0
  0
LINE
  5
29CD
  8
2
 10
82.5
 20
127.5
 30
0.0
 11
82.5
 21
125.2999999999999
 31
0.0
  0
LINE
  5
29D0
  8
2
 10
75.000000000000028
 20
144.7320508075689
 30
0.0
 11
78.000000000000057
 21
143.0
 31
0.0
  0
LINE
  5
29D1
  8
2
 10
75.000000000000028
 20
144.7320508075689
 30
0.0
 11
72.000000000000014
 21
143.0
 31
0.0
  0
CIRCLE
  5
29D4
  8
2
 10
75.000000000000057
 20
227.0000000000002
 30
0.0
 40
3.0
  0
ARC
  5
29D5
  8
2
 10
75.000000000000057
 20
227.0000000000002
 30
0.0
 40
7.5
 50
206.30748104629529
 51
153.69251895370471
  0
ARC
  5
29D9
  8
2
 10
75.000000000000057
 20
227.0000000000002
 30
0.0
 40
10.0
 50
214.04773236999191
 51
145.9522676300079
  0
LINE
  5
29DA
  8
2
 10
84.606453592105865
 20
229.77777777777791
 30
0.0
 11
81.977832752443518
 21
229.77777777777791
 31
0.0
  0
LINE
  5
29DB
  8
2
 10
81.977832752443518
 20
224.22222222222251
 30
0.0
 11
84.606453592105865
 21
224.22222222222251
 31
0.0
  0
LINE
  5
29DC
  8
2
 10
85.335766605092374
 20
229.00950000000009
 30
0.0
 11
84.845266605092434
 21
229.5000000000002
 31
0.0
  0
LINE
  5
29DD
  8
2
 10
84.845266605092434
 20
224.5000000000002
 30
0.0
 11
85.335766605092374
 21
224.9905000000002
 31
0.0
  0
LINE
  5
29E0
  8
2
 10
84.845266605092434
 20
229.5000000000002
 30
0.0
 11
78.490500000000054
 21
229.5000000000002
 31
0.0
  0
LINE
  5
29E1
  8
2
 10
78.49049999999994
 20
224.5000000000002
 30
0.0
 11
84.845266605092434
 21
224.5000000000002
 31
0.0
  0
LINE
  5
29E3
  8
2
 10
84.845266605092434
 20
224.5000000000002
 30
0.0
 11
84.845266605092434
 21
229.5000000000002
 31
0.0
  0
LINE
  5
29E4
  8
2
 10
85.335766605092488
 20
228.44337567297421
 30
0.0
 11
83.002433271759003
 21
228.44337567297421
 31
0.0
  0
LINE
  5
29E5
  8
2
 10
85.335766605092488
 20
227.72168783648721
 30
0.0
 11
83.002433271759003
 21
227.72168783648721
 31
0.0
  0
LINE
  5
29E6
  8
2
 10
85.335766605092488
 20
225.55662432702599
 30
0.0
 11
83.002433271759003
 21
225.55662432702599
 31
0.0
  0
LINE
  5
29E7
  8
2
 10
85.335766605092488
 20
226.27831216351311
 30
0.0
 11
83.002433271759003
 21
226.27831216351311
 31
0.0
  0
LINE
  5
29E8
  8
2
 10
83.002433271759003
 20
228.44337567297421
 30
0.0
 11
83.002433271759003
 21
225.55662432702599
 31
0.0
  0
LINE
  5
29EC
  8
2
 10
85.335766605092488
 20
224.9905000000002
 30
0.0
 11
85.335766605092488
 21
229.0095000000002
 31
0.0
  0
LINE
  5
29ED
  8
2
 10
78.000000000000057
 20
229.0095000000002
 30
0.0
 11
85.335766605092488
 21
229.0095000000002
 31
0.0
  0
LINE
  5
29EE
  8
2
 10
78.000000000000057
 20
224.9905000000002
 30
0.0
 11
85.335766605092488
 21
224.9905000000002
 31
0.0
  0
LINE
  5
29F1
  8
2
 10
78.000000000000057
 20
229.0095000000002
 30
0.0
 11
78.000000000000057
 21
224.9905000000002
 31
0.0
  0
LINE
  5
2AE7
  8
1
 10
44.999999999999943
 20
74.999999999999957
 30
0.0
 11
105.0
 21
74.999999999999915
 31
0.0
  0
LINE
  5
2AE8
  8
1
 10
75.0
 20
44.999999999999872
 30
0.0
 11
75.0
 21
105.0
 31
0.0
  0
CIRCLE
  5
2AEA
  8
0
 10
75.0
 20
74.999999999999915
 30
0.0
 40
24.0
  0
CIRCLE
  5
2AEC
  8
0
 10
75.0
 20
74.999999999999915
 30
0.0
 40
23.199999999999999
  0
ARC
  5
2AEE
  8
0
 10
74.999999999996575
 20
74.999999999999531
 30
0.0
 40
24.999999999996579
 50
185.10206459626539
 51
191.26157176736871
  0
ARC
  5
2AEF
  8
0
 10
74.999999999999204
 20
74.999999999999915
 30
0.0
 40
24.99999999999919
 50
176.92024641445079
 51
183.0797535855491
  0
ARC
  5
2AF0
  8
0
 10
75.000000000000313
 20
75.000000000000128
 30
0.0
 40
25.00000000000033
 50
193.28388277808531
 51
199.44338994918951
  0
ARC
  5
2AF1
  8
0
 10
74.999999999999801
 20
75.000000000000128
 30
0.0
 40
24.999999999999769
 50
168.73842823263109
 51
174.89793540373449
  0
ARC
  5
2AF2
  8
0
 10
75.000000000002728
 20
75.000000000001236
 30
0.0
 40
25.000000000003041
 50
201.4657009599058
 51
207.62520813100389
  0
ARC
  5
2AF3
  8
0
 10
75.000000000000114
 20
74.999999999999915
 30
0.0
 40
25.000000000000188
 50
160.55661005081041
 51
166.7161172219146
  0
ARC
  5
2AF4
  8
0
 10
74.999999999998664
 20
74.999999999999019
 30
0.0
 40
24.999999999998359
 50
209.64751914172399
 51
215.80702631282091
  0
ARC
  5
2AF5
  8
0
 10
74.999999999999318
 20
75.000000000000327
 30
0.0
 40
24.999999999999272
 50
152.374791868996
 51
158.5342990400942
  0
ARC
  5
2AF6
  8
0
 10
74.999999999996874
 20
74.999999999997215
 30
0.0
 40
24.99999999999585
 50
217.8293373235403
 51
223.9888444946429
  0
ARC
  5
2AF7
  8
0
 10
75.0
 20
74.999999999999915
 30
0.0
 40
25.000000000000071
 50
144.19297368717909
 51
150.35248085827601
  0
ARC
  5
2AF8
  8
0
 10
75.000000000000313
 20
75.000000000000128
 30
0.0
 40
25.000000000000359
 50
226.01115550535761
 51
232.17066267645939
  0
ARC
  5
2AF9
  8
0
 10
74.999999999998977
 20
75.000000000000924
 30
0.0
 40
24.999999999998611
 50
136.0111555053571
 51
142.1706626764597
  0
ARC
  5
2AFA
  8
0
 10
75.000000000000909
 20
75.000000000001322
 30
0.0
 40
25.000000000001641
 50
234.19297368717639
 51
240.3524808582786
  0
ARC
  5
2AFB
  8
0
 10
75.000000000002416
 20
74.999999999997115
 30
0.0
 40
25.000000000003752
 50
127.8293373235405
 51
133.98884449463961
  0
ARC
  5
2AFC
  8
0
 10
74.999999999999545
 20
74.999999999998934
 30
0.0
 40
24.99999999999882
 50
242.37479186899441
 51
248.53429904009559
  0
ARC
  5
2AFD
  8
0
 10
75.000000000000909
 20
74.999999999998536
 30
0.0
 40
25.00000000000167
 50
119.6475191417214
 51
125.8070263128236
  0
ARC
  5
2AFE
  8
0
 10
74.999999999999318
 20
74.999999999997712
 30
0.0
 40
24.999999999997652
 50
250.55661005081211
 51
256.7161172219142
  0
ARC
  5
2AFF
  8
0
 10
74.999999999999318
 20
75.000000000001549
 30
0.0
 40
24.99999999999833
 50
111.4657009599044
 51
117.62520813100549
  0
ARC
  5
2B00
  8
0
 10
75.000000000000114
 20
75.000000000000554
 30
0.0
 40
25.000000000000551
 50
258.73842823263112
 51
264.8979354037329
  0
ARC
  5
2B01
  8
0
 10
74.999999999999943
 20
75.000000000000327
 30
0.0
 40
24.99999999999967
 50
103.2838827780856
 51
109.4433899491878
  0
ARC
  5
2B02
  8
0
 10
75.0
 20
74.999999999998764
 30
0.0
 40
24.99999999999876
 50
266.9202464144492
 51
273.0797535855508
  0
ARC
  5
2B03
  8
0
 10
74.999999999999801
 20
75.00000000000172
 30
0.0
 40
24.999999999998241
 50
95.102064596267041
 51
101.26157176736901
  0
ARC
  5
2B04
  8
0
 10
75.0
 20
74.999999999999915
 30
0.0
 40
24.99999999999995
 50
275.10206459626698
 51
281.26157176736888
  0
ARC
  5
2B05
  8
0
 10
75.0
 20
75.0000000000028
 30
0.0
 40
24.99999999999714
 50
86.920246414449224
 51
93.07975358555079
  0
ARC
  5
2B06
  8
0
 10
75.000000000000313
 20
74.999999999998593
 30
0.0
 40
24.99999999999865
 50
283.28388277808568
 51
289.44338994918792
  0
ARC
  5
2B07
  8
0
 10
74.999999999999602
 20
74.999999999997456
 30
0.0
 40
25.000000000002569
 50
78.738428232631023
 51
84.897935403732944
  0
ARC
  5
2B08
  8
0
 10
75.000000000000313
 20
74.999999999999332
 30
0.0
 40
24.999999999999261
 50
291.46570095990262
 51
297.62520813100559
  0
ARC
  5
2B09
  8
0
 10
74.999999999999204
 20
74.999999999997314
 30
0.0
 40
25.00000000000275
 50
70.556610050812154
 51
76.716117221914317
  0
ARC
  5
2B0A
  8
0
 10
74.999999999998295
 20
75.000000000002544
 30
0.0
 40
25.000000000003141
 50
299.64751914172138
 51
305.80702631282361
  0
ARC
  5
2B0B
  8
0
 10
74.999999999999318
 20
74.999999999998366
 30
0.0
 40
25.000000000001759
 50
62.374791868994421
 51
68.534299040095618
  0
ARC
  5
2B0C
  8
0
 10
75.000000000001933
 20
74.999999999997783
 30
0.0
 40
24.999999999997129
 50
307.82933732354059
 51
313.98884449464231
  0
ARC
  5
2B0D
  8
0
 10
74.999999999999659
 20
74.999999999999531
 30
0.0
 40
25.000000000000561
 50
54.192973687176398
 51
60.352480858278582
  0
ARC
  5
2B0E
  8
0
 10
74.99999999999946
 20
75.000000000000554
 30
0.0
 40
25.00000000000075
 50
316.01115550535712
 51
322.17066267645981
  0
ARC
  5
2B0F
  8
0
 10
75.000000000003695
 20
75.000000000004363
 30
0.0
 40
24.99999999999423
 50
46.01115550535765
 51
52.170662676459429
  0
ARC
  5
2B10
  8
0
 10
75.000000000003013
 20
74.999999999998138
 30
0.0
 40
24.999999999996412
 50
324.19297368717912
 51
330.35248085827601
  0
ARC
  5
2B11
  8
0
 10
74.999999999998522
 20
74.999999999998593
 30
0.0
 40
25.000000000001972
 50
37.829337323540258
 51
43.988844494642869
  0
ARC
  5
2B12
  8
0
 10
74.999999999999318
 20
75.000000000000327
 30
0.0
 40
25.000000000000739
 50
332.37479186899589
 51
338.53429904009408
  0
ARC
  5
2B13
  8
0
 10
75.000000000000114
 20
75.000000000000128
 30
0.0
 40
24.999999999999829
 50
29.647519141722501
 51
35.807026312820923
  0
ARC
  5
2B14
  8
0
 10
75.000000000003013
 20
74.999999999999019
 30
0.0
 40
24.999999999996859
 50
340.5566100508106
 51
346.7161172219146
  0
ARC
  5
2B15
  8
0
 10
74.999999999998067
 20
74.999999999999019
 30
0.0
 40
25.00000000000216
 50
21.465700959905789
 51
27.62520813100393
  0
ARC
  5
2B16
  8
0
 10
75.000000000003013
 20
74.999999999999531
 30
0.0
 40
24.999999999996881
 50
348.73842823263112
 51
354.89793540373131
  0
ARC
  5
2B17
  8
0
 10
75.000000000000313
 20
75.000000000000128
 30
0.0
 40
24.999999999999691
 50
13.28388277808534
 51
19.443389949189498
  0
ARC
  5
2B18
  8
0
 10
75.000000000001023
 20
75.000000000000043
 30
0.0
 40
24.999999999999009
 50
356.92024641444749
 51
3.0797535855491138
  0
ARC
  5
2B19
  8
0
 10
75.00000000000162
 20
75.000000000000128
 30
0.0
 40
24.999999999998401
 50
5.1020645962654134
 51
11.26157176736888
  0
LINE
  5
2B1A
  8
0
 10
50.099053461330179
 20
77.223254703876265
 30
0.0
 11
51.011276643623432
 21
76.71570735594166
 31
0.0
  0
LINE
  5
2B1B
  8
0
 10
51.011276643623432
 20
76.71570735594166
 30
0.0
 11
50.03610705927133
 21
76.343149002843276
 31
0.0
  0
LINE
  5
2B1C
  8
0
 10
50.668911326516309
 20
80.744399356161992
 30
0.0
 11
51.499617873393611
 21
80.112195213749175
 31
0.0
  0
LINE
  5
2B1D
  8
0
 10
51.499617873393611
 20
80.112195213749175
 30
0.0
 11
50.481353527563321
 21
79.882210069186684
 31
0.0
  0
LINE
  5
2B1E
  8
0
 10
51.73407999202891
 20
84.148604603035835
 30
0.0
 11
52.466359113755743
 21
83.404613519358392
 31
0.0
  0
LINE
  5
2B1F
  8
0
 10
52.466359113755743
 20
83.404613519358392
 30
0.0
 11
51.425728932096384
 21
83.321883417652657
 31
0.0
  0
LINE
  5
2B20
  8
0
 10
53.272875695530921
 20
87.366570642589167
 30
0.0
 11
53.891820300907511
 21
86.525938130617334
 31
0.0
  0
LINE
  5
2B21
  8
0
 10
53.891820300907511
 20
86.525938130617334
 30
0.0
 11
52.85000851298804
 21
86.592147218065264
 31
0.0
  0
LINE
  5
2B22
  8
0
 10
55.253972994019357
 20
90.332788966104019
 30
0.0
 11
55.746983155769158
 21
89.412627879597977
 31
0.0
  0
LINE
  5
2B23
  8
0
 10
55.746983155769158
 20
89.412627879597977
 30
0.0
 11
54.725198045254501
 21
89.626428330110016
 31
0.0
  0
LINE
  5
2B24
  8
0
 10
57.637042459509892
 20
92.986875922381216
 30
0.0
 11
57.994081912463571
 21
92.005918087536529
 31
0.0
  0
LINE
  5
2B25
  8
0
 10
57.994081912463571
 20
92.005918087536529
 30
0.0
 11
57.013124077618841
 21
92.362957540490214
 31
0.0
  0
LINE
  5
2B26
  8
0
 10
60.373571669889998
 20
95.274801954745584
 30
0.0
 11
60.587372120402172
 21
94.253016844230956
 31
0.0
  0
LINE
  5
2B27
  8
0
 10
60.587372120402172
 20
94.253016844230956
 30
0.0
 11
59.667211033896081
 21
94.746027005980736
 31
0.0
  0
LINE
  5
2B28
  8
0
 10
63.407852781934928
 20
97.149991487011917
 30
0.0
 11
63.474061869382687
 21
96.108179699092545
 31
0.0
  0
LINE
  5
2B29
  8
0
 10
63.474061869382687
 20
96.108179699092545
 30
0.0
 11
62.633429357411039
 21
96.727124304469115
 31
0.0
  0
LINE
  5
2B2A
  8
0
 10
66.67811658234757
 20
98.574271067903638
 30
0.0
 11
66.595386480641764
 21
97.533640886244214
 31
0.0
  0
LINE
  5
2B2B
  8
0
 10
66.595386480641764
 20
97.533640886244214
 30
0.0
 11
65.851395396964264
 21
98.265920007971133
 31
0.0
  0
LINE
  5
2B2C
  8
0
 10
70.117789930813501
 20
99.518646472436714
 30
0.0
 11
69.887804786251024
 21
98.500382126606397
 31
0.0
  0
LINE
  5
2B2D
  8
0
 10
69.887804786251024
 20
98.500382126606397
 30
0.0
 11
69.25560064383825
 21
99.331088673483706
 31
0.0
  0
LINE
  5
2B2E
  8
0
 10
73.656850997156823
 20
99.963892940728627
 30
0.0
 11
73.284292644058496
 21
98.988723356376667
 31
0.0
  0
LINE
  5
2B2F
  8
0
 10
73.284292644058496
 20
98.988723356376667
 30
0.0
 11
72.776745296123863
 21
99.900946538669714
 31
0.0
  0
LINE
  5
2B30
  8
0
 10
77.223254703876194
 20
99.900946538669714
 30
0.0
 11
76.715707355941504
 21
98.988723356376553
 31
0.0
  0
LINE
  5
2B31
  8
0
 10
76.715707355941504
 20
98.988723356376553
 30
0.0
 11
76.343149002843234
 21
99.963892940728627
 31
0.0
  0
LINE
  5
2B32
  8
0
 10
80.744399356161807
 20
99.331088673483677
 30
0.0
 11
80.112195213749104
 21
98.500382126606397
 31
0.0
  0
LINE
  5
2B33
  8
0
 10
80.112195213749104
 20
98.500382126606397
 30
0.0
 11
79.882210069186613
 21
99.5186464724366
 31
0.0
  0
LINE
  5
2B34
  8
0
 10
84.148604603035722
 20
98.265920007971133
 30
0.0
 11
83.404613519358293
 21
97.533640886244214
 31
0.0
  0
LINE
  5
2B35
  8
0
 10
83.404613519358293
 20
97.533640886244214
 30
0.0
 11
83.321883417652487
 21
98.574271067903638
 31
0.0
  0
LINE
  5
2B36
  8
0
 10
87.366570642589124
 20
96.727124304469115
 30
0.0
 11
86.525938130617362
 21
96.108179699092446
 31
0.0
  0
LINE
  5
2B37
  8
0
 10
86.525938130617362
 20
96.108179699092446
 30
0.0
 11
86.592147218065236
 21
97.149991487011917
 31
0.0
  0
LINE
  5
2B38
  8
0
 10
90.332788966103919
 20
94.746027005980594
 30
0.0
 11
89.412627879597949
 21
94.253016844230814
 31
0.0
  0
LINE
  5
2B39
  8
0
 10
89.412627879597949
 20
94.253016844230814
 30
0.0
 11
89.626428330110059
 21
95.274801954745584
 31
0.0
  0
LINE
  5
2B3A
  8
0
 10
92.986875922381103
 20
92.362957540490115
 30
0.0
 11
92.005918087536486
 21
92.005918087536344
 31
0.0
  0
LINE
  5
2B3B
  8
0
 10
92.005918087536486
 20
92.005918087536344
 30
0.0
 11
92.362957540490086
 21
92.986875922381117
 31
0.0
  0
LINE
  5
2B3C
  8
0
 10
95.274801954745499
 20
89.626428330110016
 30
0.0
 11
94.253016844230785
 21
89.412627879597821
 31
0.0
  0
LINE
  5
2B3D
  8
0
 10
94.253016844230785
 20
89.412627879597821
 30
0.0
 11
94.746027005980693
 21
90.33278896610399
 31
0.0
  0
LINE
  5
2B3E
  8
0
 10
97.149991487012031
 20
86.592147218065165
 30
0.0
 11
96.108179699092545
 21
86.525938130617334
 31
0.0
  0
LINE
  5
2B3F
  8
0
 10
96.108179699092545
 20
86.525938130617334
 30
0.0
 11
96.7271243044691
 21
87.366570642589039
 31
0.0
  0
LINE
  5
2B40
  8
0
 10
98.57427106790368
 20
83.321883417652515
 30
0.0
 11
97.533640886244214
 21
83.404613519358222
 31
0.0
  0
LINE
  5
2B41
  8
0
 10
97.533640886244214
 20
83.404613519358222
 30
0.0
 11
98.26592000797109
 21
84.148604603035693
 31
0.0
  0
LINE
  5
2B42
  8
0
 10
99.518646472436743
 20
79.882210069186542
 30
0.0
 11
98.500382126606439
 21
80.112195213749018
 31
0.0
  0
LINE
  5
2B43
  8
0
 10
98.500382126606439
 20
80.112195213749018
 30
0.0
 11
99.331088673483748
 21
80.744399356161708
 31
0.0
  0
LINE
  5
2B44
  8
0
 10
99.963892940728627
 20
76.343149002843134
 30
0.0
 11
98.988723356376511
 21
76.715707355941433
 31
0.0
  0
LINE
  5
2B45
  8
0
 10
98.988723356376511
 20
76.715707355941433
 30
0.0
 11
99.900946538669814
 21
77.223254703876123
 31
0.0
  0
LINE
  5
2B46
  8
0
 10
99.900946538669814
 20
72.776745296123707
 30
0.0
 11
98.988723356376511
 21
73.284292644058425
 31
0.0
  0
LINE
  5
2B47
  8
0
 10
98.988723356376511
 20
73.284292644058425
 30
0.0
 11
99.963892940728627
 21
73.656850997156724
 31
0.0
  0
LINE
  5
2B48
  8
0
 10
99.331088673483748
 20
69.255600643838179
 30
0.0
 11
98.500382126606439
 21
69.887804786250896
 31
0.0
  0
LINE
  5
2B49
  8
0
 10
98.500382126606439
 20
69.887804786250896
 30
0.0
 11
99.518646472436615
 21
70.117789930813316
 31
0.0
  0
LINE
  5
2B4A
  8
0
 10
98.26592000797109
 20
65.851395396964151
 30
0.0
 11
97.533640886244214
 21
66.595386480641693
 31
0.0
  0
LINE
  5
2B4B
  8
0
 10
97.533640886244214
 20
66.595386480641693
 30
0.0
 11
98.574271067903624
 21
66.678116582347442
 31
0.0
  0
LINE
  5
2B4C
  8
0
 10
96.7271243044691
 20
62.633429357410968
 30
0.0
 11
96.108179699092545
 21
63.474061869382567
 31
0.0
  0
LINE
  5
2B4D
  8
0
 10
96.108179699092545
 20
63.474061869382567
 30
0.0
 11
97.149991487012031
 21
63.407852781934857
 31
0.0
  0
LINE
  5
2B4E
  8
0
 10
94.746027005980693
 20
59.667211033895953
 30
0.0
 11
94.253016844230785
 21
60.587372120402101
 31
0.0
  0
LINE
  5
2B4F
  8
0
 10
94.253016844230785
 20
60.587372120402101
 30
0.0
 11
95.274801954745499
 21
60.37357166988987
 31
0.0
  0
LINE
  5
2B50
  8
0
 10
92.362957540490086
 20
57.01312407761877
 30
0.0
 11
92.005918087536415
 21
57.994081912463557
 31
0.0
  0
LINE
  5
2B51
  8
0
 10
92.005918087536415
 20
57.994081912463557
 30
0.0
 11
92.986875922381103
 21
57.637042459509743
 31
0.0
  0
LINE
  5
2B52
  8
0
 10
89.626428330110016
 20
54.72519804525443
 30
0.0
 11
89.412627879597764
 21
55.746983155769023
 31
0.0
  0
LINE
  5
2B53
  8
0
 10
89.412627879597764
 20
55.746983155769023
 30
0.0
 11
90.332788966103919
 21
55.253972994019293
 31
0.0
  0
LINE
  5
2B54
  8
0
 10
86.592147218065065
 20
52.850008512988033
 30
0.0
 11
86.525938130617305
 21
53.89182030090744
 31
0.0
  0
LINE
  5
2B55
  8
0
 10
86.525938130617305
 20
53.89182030090744
 30
0.0
 11
87.366570642589011
 21
53.272875695530892
 31
0.0
  0
LINE
  5
2B56
  8
0
 10
83.321883417652487
 20
51.425728932096419
 30
0.0
 11
83.404613519358179
 21
52.466359113755729
 31
0.0
  0
LINE
  5
2B57
  8
0
 10
83.404613519358179
 20
52.466359113755729
 30
0.0
 11
84.148604603035665
 21
51.734079992028903
 31
0.0
  0
LINE
  5
2B58
  8
0
 10
79.882210069186485
 20
50.48135352756325
 30
0.0
 11
80.112195213748976
 21
51.499617873393539
 31
0.0
  0
LINE
  5
2B59
  8
0
 10
80.112195213748976
 20
51.499617873393539
 30
0.0
 11
80.744399356161807
 21
50.668911326516231
 31
0.0
  0
LINE
  5
2B5A
  8
0
 10
76.34314900284312
 20
50.036107059271373
 30
0.0
 11
76.715707355941504
 21
51.011276643623482
 31
0.0
  0
LINE
  5
2B5B
  8
0
 10
76.715707355941504
 20
51.011276643623482
 30
0.0
 11
77.22325470387608
 21
50.099053461330172
 31
0.0
  0
LINE
  5
2B5C
  8
0
 10
72.776745296123778
 20
50.099053461330172
 30
0.0
 11
73.284292644058382
 21
51.011276643623482
 31
0.0
  0
LINE
  5
2B5D
  8
0
 10
73.284292644058382
 20
51.011276643623482
 30
0.0
 11
73.656850997156766
 21
50.036107059271373
 31
0.0
  0
LINE
  5
2B5E
  8
0
 10
69.255600643838079
 20
50.668911326516231
 30
0.0
 11
69.887804786250854
 21
51.499617873393539
 31
0.0
  0
LINE
  5
2B5F
  8
0
 10
69.887804786250854
 20
51.499617873393539
 30
0.0
 11
70.117789930813387
 21
50.48135352756325
 31
0.0
  0
LINE
  5
2B60
  8
0
 10
65.851395396964094
 20
51.734079992028903
 30
0.0
 11
66.59538648064165
 21
52.466359113755729
 31
0.0
  0
LINE
  5
2B61
  8
0
 10
66.59538648064165
 20
52.466359113755729
 30
0.0
 11
66.678116582347371
 21
51.425728932096419
 31
0.0
  0
LINE
  5
2B62
  8
0
 10
62.633429357410932
 20
53.272875695530892
 30
0.0
 11
63.474061869382581
 21
53.89182030090744
 31
0.0
  0
LINE
  5
2B63
  8
0
 10
63.474061869382581
 20
53.89182030090744
 30
0.0
 11
63.407852781934757
 21
52.850008512988033
 31
0.0
  0
LINE
  5
2B64
  8
0
 10
59.66721103389591
 20
55.25397299401935
 30
0.0
 11
60.587372120402051
 21
55.746983155769144
 31
0.0
  0
LINE
  5
2B65
  8
0
 10
60.587372120402051
 20
55.746983155769144
 30
0.0
 11
60.373571669889877
 21
54.72519804525443
 31
0.0
  0
LINE
  5
2B66
  8
0
 10
57.013124077618791
 20
57.637042459509857
 30
0.0
 11
57.994081912463457
 21
57.994081912463557
 31
0.0
  0
LINE
  5
2B67
  8
0
 10
57.994081912463457
 20
57.994081912463557
 30
0.0
 11
57.63704245950975
 21
57.013124077618883
 31
0.0
  0
LINE
  5
2B68
  8
0
 10
54.725198045254409
 20
60.373571669889976
 30
0.0
 11
55.746983155769101
 21
60.587372120402151
 31
0.0
  0
LINE
  5
2B69
  8
0
 10
55.746983155769101
 20
60.587372120402151
 30
0.0
 11
55.25397299401925
 21
59.667211033895953
 31
0.0
  0
LINE
  5
2B6A
  8
0
 10
52.850008512987984
 20
63.40785278193497
 30
0.0
 11
53.891820300907447
 21
63.47406186938268
 31
0.0
  0
LINE
  5
2B6B
  8
0
 10
53.891820300907447
 20
63.47406186938268
 30
0.0
 11
53.272875695530779
 21
62.633429357411032
 31
0.0
  0
LINE
  5
2B6C
  8
0
 10
51.425728932096312
 20
66.678116582347556
 30
0.0
 11
52.466359113755693
 21
66.59538648064175
 31
0.0
  0
LINE
  5
2B6D
  8
0
 10
52.466359113755693
 20
66.59538648064175
 30
0.0
 11
51.734079992028789
 21
65.851395396964264
 31
0.0
  0
LINE
  5
2B6E
  8
0
 10
50.481353527563272
 20
70.11778993081343
 30
0.0
 11
51.499617873393611
 21
69.887804786250953
 31
0.0
  0
LINE
  5
2B6F
  8
0
 10
51.499617873393611
 20
69.887804786250953
 30
0.0
 11
50.668911326516309
 21
69.255600643838235
 31
0.0
  0
LINE
  5
2B70
  8
0
 10
50.03610705927133
 20
73.656850997156866
 30
0.0
 11
51.011276643623432
 21
73.284292644058567
 31
0.0
  0
LINE
  5
2B71
  8
0
 10
51.011276643623432
 20
73.284292644058567
 30
0.0
 11
50.099053461330179
 21
72.776745296123849
 31
0.0
  0
LINE
  5
2C21
  8
2
 10
78.49049999999994
 20
229.5000000000002
 30
0.0
 11
78.000000000000057
 21
229.0095000000002
 31
0.0
  0
LINE
  5
2C22
  8
2
 10
78.000000000000057
 20
224.9905000000002
 30
0.0
 11
78.49049999999994
 21
224.5000000000002
 31
0.0
  0
LINE
  5
2C23
  8
2
 10
78.49049999999994
 20
229.5000000000002
 30
0.0
 11
78.49049999999994
 21
224.5000000000002
 31
0.0
  0
CIRCLE
  5
2C26
  8
0
 10
75.0
 20
74.999999999999915
 30
0.0
 40
3.0
  0
CIRCLE
  5
2C27
  8
0
 10
75.0
 20
74.999999999999915
 30
0.0
 40
7.5
  0
CIRCLE
  5
2C28
  8
0
 10
75.0
 20
74.999999999999915
 30
0.0
 40
10.0
  0
LINE
  5
2C29
  8
2
 10
84.606453592105865
 20
77.777777777777644
 30
0.0
 11
81.977832752443518
 21
77.777777777777644
 31
0.0
  0
LINE
  5
2C2A
  8
2
 10
81.977832752443518
 20
72.222222222222101
 30
0.0
 11
84.606453592105865
 21
72.222222222222101
 31
0.0
  0
LINE
  5
2C2B
  8
0
 10
85.335766605092303
 20
77.009499999999804
 30
0.0
 11
84.845266605092434
 21
77.499999999999915
 31
0.0
  0
LINE
  5
2C2C
  8
0
 10
84.845266605092434
 20
72.499999999999915
 30
0.0
 11
85.335766605092303
 21
72.990499999999926
 31
0.0
  0
LINE
  5
2C2D
  8
2
 10
84.682458365518528
 20
77.499999999999915
 30
0.0
 11
78.490499999999997
 21
77.499999999999915
 31
0.0
  0
LINE
  5
2C2E
  8
2
 10
78.49049999999994
 20
72.499999999999815
 30
0.0
 11
84.682458365518528
 21
72.499999999999915
 31
0.0
  0
LINE
  5
2C2F
  8
2
 10
84.845266605092434
 20
73.247651440308587
 30
0.0
 11
84.845266605092434
 21
76.752348559691242
 31
0.0
  0
LINE
  5
2C30
  8
2
 10
85.335766605092431
 20
76.443375672973943
 30
0.0
 11
83.002433271759003
 21
76.443375672973943
 31
0.0
  0
LINE
  5
2C31
  8
2
 10
85.335766605092431
 20
75.721687836486936
 30
0.0
 11
83.002433271759003
 21
75.721687836486936
 31
0.0
  0
LINE
  5
2C32
  8
2
 10
85.335766605092431
 20
73.556624327025801
 30
0.0
 11
83.002433271759003
 21
73.556624327025801
 31
0.0
  0
LINE
  5
2C33
  8
2
 10
85.335766605092431
 20
74.278312163512922
 30
0.0
 11
83.002433271759003
 21
74.278312163512922
 31
0.0
  0
LINE
  5
2C34
  8
2
 10
83.002433271759003
 20
76.443375672973943
 30
0.0
 11
83.002433271759003
 21
73.556624327025801
 31
0.0
  0
LINE
  5
2C35
  8
0
 10
85.335766605092431
 20
72.990499999999926
 30
0.0
 11
85.335766605092431
 21
77.009499999999932
 31
0.0
  0
LINE
  5
2C36
  8
2
 10
78.0
 20
77.009499999999932
 30
0.0
 11
84.796014993353154
 21
77.009499999999932
 31
0.0
  0
LINE
  5
2C37
  8
2
 10
78.0
 20
72.990499999999926
 30
0.0
 11
84.796014993353197
 21
72.990499999999926
 31
0.0
  0
LINE
  5
2C38
  8
2
 10
78.0
 20
77.009499999999932
 30
0.0
 11
78.0
 21
72.990499999999926
 31
0.0
  0
LINE
  5
2C39
  8
2
 10
78.49049999999994
 20
77.499999999999915
 30
0.0
 11
78.0
 21
77.009499999999932
 31
0.0
  0
LINE
  5
2C3A
  8
2
 10
78.0
 20
72.990499999999926
 30
0.0
 11
78.49049999999994
 21
72.499999999999915
 31
0.0
  0
LINE
  5
2C3B
  8
2
 10
78.49049999999994
 20
77.499999999999915
 30
0.0
 11
78.49049999999994
 21
72.499999999999915
 31
0.0
  0
LINE
  5
2C3C
  8
0
 10
84.845266605092434
 20
72.499999999999915
 30
0.0
 11
84.845266605092434
 21
73.247651440308843
 31
0.0
  0
LINE
  5
2C3D
  8
0
 10
84.845266605092434
 20
76.752348559691242
 30
0.0
 11
84.845266605092434
 21
77.499999999999915
 31
0.0
  0
LINE
  5
2C40
  8
3
 10
84.796014993353154
 20
77.009499999999932
 30
0.0
 11
85.335766605092431
 21
77.009499999999932
 31
0.0
  0
LINE
  5
2C41
  8
3
 10
85.335766605092431
 20
72.990499999999926
 30
0.0
 11
84.796014993353154
 21
72.990499999999926
 31
0.0
  0
LINE
  5
2C42
  8
0
 10
84.682458365518528
 20
77.499999999999915
 30
0.0
 11
84.845266605092434
 21
77.499999999999915
 31
0.0
  0
LINE
  5
2C43
  8
0
 10
84.845266605092434
 20
72.499999999999915
 30
0.0
 11
84.682458365518528
 21
72.499999999999915
 31
0.0
  0
TEXT
  5
2F9B
  8
0
 62
     3
 10
0.0
 20
0.0
 30
0.0
 40
10.0
  1
GH50N
  7
STANDARD1
  0
ENDSEC
  0
EOF
