  0
SECTION
  2
HEADER
  9
$ACADVER
  1
AC1009
  9
$INSBASE
 10
0.0
 20
0.0
 30
0.0
  9
$EXTMIN
 10
0.0
 20
-1.4802182810368341
 30
0.0
  9
$EXTMAX
 10
174.4773215042228003
 20
167.2046893957727036
 30
0.0
  9
$LIMMIN
 10
0.0
 20
0.0
  9
$LIMMAX
 10
187.5
 20
135.0
  9
$ORTHOMODE
 70
     1
  9
$REGENMODE
 70
     1
  9
$FILLMODE
 70
     1
  9
$QTEXTMODE
 70
     0
  9
$MIRRTEXT
 70
     0
  9
$DRAGMODE
 70
     2
  9
$LTSCALE
 40
5.0
  9
$OSMODE
 70
    37
  9
$ATTMODE
 70
     1
  9
$TEXTSIZE
 40
4.0
  9
$TRACEWID
 40
0.05
  9
$TEXTSTYLE
  7
STANDARD
  9
$CLAYER
  8
0
  9
$CELTYPE
  6
BYLAYER
  9
$CECOLOR
 62
   256
  9
$DIMSCALE
 40
0.5
  9
$DIMASZ
 40
3.0
  9
$DIMEXO
 40
2.0
  9
$DIMDLI
 40
0.38
  9
$DIMRND
 40
0.0
  9
$DIMDLE
 40
0.0
  9
$DIMEXE
 40
2.0
  9
$DIMTP
 40
0.0
  9
$DIMTM
 40
0.0
  9
$DIMTXT
 40
3.0
  9
$DIMCEN
 40
0.0
  9
$DIMTSZ
 40
0.0
  9
$DIMTOL
 70
     0
  9
$DIMLIM
 70
     0
  9
$DIMTIH
 70
     0
  9
$DIMTOH
 70
     0
  9
$DIMSE1
 70
     0
  9
$DIMSE2
 70
     0
  9
$DIMTAD
 70
     1
  9
$DIMZIN
 70
     0
  9
$DIMBLK
  1

  9
$DIMASO
 70
     0
  9
$DIMSHO
 70
     0
  9
$DIMPOST
  1

  9
$DIMAPOST
  1

  9
$DIMALT
 70
     0
  9
$DIMALTD
 70
     2
  9
$DIMALTF
 40
25.3999999999999986
  9
$DIMLFAC
 40
1.0
  9
$DIMTOFL
 70
     0
  9
$DIMTVP
 40
1.6000000000000001
  9
$DIMTIX
 70
     1
  9
$DIMSOXD
 70
     0
  9
$DIMSAH
 70
     0
  9
$DIMBLK1
  1

  9
$DIMBLK2
  1

  9
$DIMSTYLE
  2
STANDARD
  9
$DIMCLRD
 70
     0
  9
$DIMCLRE
 70
     0
  9
$DIMCLRT
 70
     0
  9
$DIMTFAC
 40
1.0
  9
$DIMGAP
 40
0.09
  9
$LUNITS
 70
     2
  9
$LUPREC
 70
     1
  9
$SKETCHINC
 40
0.1
  9
$FILLETRAD
 40
1.0
  9
$AUNITS
 70
     0
  9
$AUPREC
 70
     0
  9
$MENU
  1
E:\r13\win\SUPPORT\ACAD
  9
$ELEVATION
 40
0.0
  9
$PELEVATION
 40
0.0
  9
$THICKNESS
 40
0.0
  9
$LIMCHECK
 70
     0
  9
$BLIPMODE
 70
     0
  9
$CHAMFERA
 40
0.0
  9
$CHAMFERB
 40
0.0
  9
$SKPOLY
 70
     0
  9
$TDCREATE
 40
2449840.6143865738995373
  9
$TDUPDATE
 40
2460516.6896296301856637
  9
$TDINDWG
 40
0.377094294
  9
$TDUSRTIMER
 40
0.377094294
  9
$USRTIMER
 70
     1
  9
$ANGBASE
 50
0.0
  9
$ANGDIR
 70
     0
  9
$PDMODE
 70
     0
  9
$PDSIZE
 40
0.0
  9
$PLINEWID
 40
0.0
  9
$COORDS
 70
     1
  9
$SPLFRAME
 70
     0
  9
$SPLINETYPE
 70
     6
  9
$SPLINESEGS
 70
     8
  9
$ATTDIA
 70
     1
  9
$ATTREQ
 70
     1
  9
$HANDLING
 70
     1
  9
$HANDSEED
  5
292F
  9
$SURFTAB1
 70
     6
  9
$SURFTAB2
 70
     6
  9
$SURFTYPE
 70
     6
  9
$SURFU
 70
     6
  9
$SURFV
 70
     6
  9
$UCSNAME
  2

  9
$UCSORG
 10
0.0
 20
0.0
 30
0.0
  9
$UCSXDIR
 10
1.0
 20
0.0
 30
0.0
  9
$UCSYDIR
 10
0.0
 20
1.0
 30
0.0
  9
$PUCSNAME
  2

  9
$PUCSORG
 10
0.0
 20
0.0
 30
0.0
  9
$PUCSXDIR
 10
1.0
 20
0.0
 30
0.0
  9
$PUCSYDIR
 10
0.0
 20
1.0
 30
0.0
  9
$USERI1
 70
     0
  9
$USERI2
 70
     1
  9
$USERI3
 70
     1
  9
$USERI4
 70
     0
  9
$USERI5
 70
     0
  9
$USERR1
 40
0.0
  9
$USERR2
 40
0.0
  9
$USERR3
 40
0.0
  9
$USERR4
 40
0.0
  9
$USERR5
 40
0.0
  9
$WORLDVIEW
 70
     1
  9
$SHADEDGE
 70
     3
  9
$SHADEDIF
 70
    70
  9
$TILEMODE
 70
     1
  9
$MAXACTVP
 70
    16
  9
$PLIMCHECK
 70
     0
  9
$PEXTMIN
 10
1.0000000000000000E+20
 20
1.0000000000000000E+20
 30
1.0000000000000000E+20
  9
$PEXTMAX
 10
-1.0000000000000000E+20
 20
-1.0000000000000000E+20
 30
-1.0000000000000000E+20
  9
$PLIMMIN
 10
0.0
 20
0.0
  9
$PLIMMAX
 10
12.0
 20
9.0
  9
$UNITMODE
 70
     0
  9
$VISRETAIN
 70
     0
  9
$PLINEGEN
 70
     0
  9
$PSLTSCALE
 70
     0
  0
ENDSEC
  0
SECTION
  2
TABLES
  0
TABLE
  2
VPORT
 70
     1
  0
VPORT
  2
*ACTIVE
 70
     0
 10
0.0
 20
0.0
 11
1.0
 21
1.0
 12
270.109658560400419
 22
115.0
 13
0.0
 23
0.0
 14
5.0
 24
5.0
 15
5.0
 25
5.0
 16
0.0
 26
0.0
 36
1.0
 17
0.0
 27
0.0
 37
0.0
 40
230.129612834987114
 41
2.3485221674876842
 42
50.0
 43
0.0
 44
0.0
 50
0.0
 51
0.0
 71
     0
 72
   100
 73
     1
 74
     0
 75
     0
 76
     0
 77
     0
 78
     0
  0
ENDTAB
  0
TABLE
  2
LTYPE
 70
     2
  0
LTYPE
  2
CONTINUOUS
 70
     0
  3
Solid Line
 72
    65
 73
     0
 40
0.0
  0
LTYPE
  2
CENTER
 70
     0
  3
____ _ ____ _ ____ _ ____ _ ____ _ ____ _ ____
 72
    65
 73
     4
 40
2.0
 49
1.25
 49
-0.25
 49
0.25
 49
-0.25
  0
ENDTAB
  0
TABLE
  2
LAYER
 70
     3
  0
LAYER
  2
0
 70
     0
 62
     7
  6
CONTINUOUS
  0
LAYER
  2
1
 70
     0
 62
     1
  6
CENTER
  0
LAYER
  2
3
 70
     0
 62
     3
  6
CONTINUOUS
  0
ENDTAB
  0
TABLE
  2
STYLE
 70
     2
  0
STYLE
  2
STANDARD
 70
     0
 40
0.0
 41
1.0
 50
0.0
 71
     0
 42
4.0
  3
TXT
  4
BIGFONT
  0
STYLE
  2
STANDARD1
 70
     0
 40
0.0
 41
1.0
 50
0.0
 71
     0
 42
3.0
  3
txt
  4

  0
ENDTAB
  0
TABLE
  2
VIEW
 70
     1
  0
VIEW
  2
ALL
 70
     0
 40
179.6615229999999883
 10
141.9039180000000044
 20
89.8307609999999954
 41
0.0
 11
0.0
 21
0.0
 31
1.0
 12
0.0
 22
0.0
 32
0.0
 42
0.0
 43
0.0
 44
0.0
 50
0.0
 71
     0
  0
ENDTAB
  0
TABLE
  2
UCS
 70
     0
  0
ENDTAB
  0
TABLE
  2
APPID
 70
     7
  0
APPID
  2
ACAD
 70
     0
  0
APPID
  2
DCO15
 70
     0
  0
APPID
  2
ACAD_MLEADERVER
 70
     0
  0
APPID
  2
ACAD_NAV_VCDISPLAY
 70
     0
  0
APPID
  2
ACAD_EXEMPT_FROM_CAD_STANDARDS
 70
     0
  0
APPID
  2
ACAD_DSTYLE_DIMJAG
 70
     0
  0
APPID
  2
ACAD_DSTYLE_DIMTALN
 70
     0
  0
ENDTAB
  0
TABLE
  2
DIMSTYLE
 70
     2
  0
DIMSTYLE
  2
STANDARD
 70
     0
  3

  4

  5

  6

  7

 40
1.0
 41
0.18
 42
0.0625
 43
0.38
 44
0.18
 45
0.0
 46
0.0
 47
0.0
 48
0.0
140
0.18
141
0.09
142
0.0
143
25.3999999999999986
144
1.0
145
0.0
146
1.0
147
0.09
 71
     0
 72
     0
 73
     1
 74
     1
 75
     0
 76
     0
 77
     0
 78
     0
170
     0
171
     2
172
     0
173
     0
174
     0
175
     0
176
     0
177
     0
178
     0
  0
DIMSTYLE
  2
ISO-25
 70
     0
  3

  4

  5

  6

  7

 40
1.0
 41
2.5
 42
0.625
 43
3.75
 44
1.25
 45
0.0
 46
0.0
 47
0.0
 48
0.0
140
2.5
141
2.5
142
0.0
143
0.03937007874016
144
1.0
145
0.0
146
1.0
147
0.625
 71
     0
 72
     0
 73
     0
 74
     0
 75
     0
 76
     0
 77
     1
 78
     8
170
     0
171
     3
172
     1
173
     0
174
     0
175
     0
176
     0
177
     0
178
     0
  0
ENDTAB
  0
ENDSEC
  0
SECTION
  2
BLOCKS
  0
BLOCK
  8
0
  2
$MODEL_SPACE
 70
     0
 10
0.0
 20
0.0
 30
0.0
  3
$MODEL_SPACE
  1

  0
ENDBLK
  5
1BD
  8
0
  0
BLOCK
 67
     1
  8
0
  2
$PAPER_SPACE
 70
     0
 10
0.0
 20
0.0
 30
0.0
  3
$PAPER_SPACE
  1

  0
ENDBLK
  5
1BB
 67
     1
  8
0
  0
ENDSEC
  0
SECTION
  2
ENTITIES
  0
TEXT
  5
1928
  8
0
 62
     3
 10
0.0
 20
0.0
 30
0.0
 40
5.0
  1
GDX12L-6N-SUS
  7
STANDARD1
  0
LINE
  5
20C1
  8
0
 10
90.4648400471537855
 20
160.0046893957726013
 30
0.0
 11
114.5405219216934967
 21
160.0046893957726866
 31
0.0
  0
LINE
  5
20C3
  8
0
 10
114.5405219216934967
 20
156.4046893957726923
 30
0.0
 11
90.4648400471537855
 21
156.4046893957728059
 31
0.0
  0
ARC
  5
20C4
  8
0
 10
88.5717239375292991
 20
156.9839621190486127
 30
0.0
 40
2.06768277142131
 50
356.6475640845923749
 51
36.1842782393172797
  0
ARC
  5
20C5
  8
0
 10
88.5717742498151352
 20
159.4254017648985098
 30
0.0
 40
2.0676333621160889
 50
323.8152320741170911
 51
3.3529365106815701
  0
ARC
  5
20C6
  8
0
 10
86.3405219216934654
 20
158.2046893957727036
 30
0.0
 40
4.5000000000000302
 50
17.3460648988283594
 51
342.6539380454381103
  0
ARC
  5
20C8
  8
0
 10
114.5405219216934967
 20
158.2046893957727036
 30
0.0
 40
1.8000000000000109
 50
270.0
 51
90.0
  0
LINE
  5
20CA
  8
0
 10
80.8632963466418033
 20
160.6541791385558895
 30
0.0
 11
81.3405219083622057
 21
160.6541791450260064
 31
0.0
  0
POLYLINE
  5
20CB
  8
0
 10
81.7875608645643268
 20
160.2712192446577717
 30
0.0
 66
     1
 70
     8
  0
VERTEX
  8
0
  5
241B
 10
81.7876
 20
160.271
 30
0.00000
  70
    32
  0
VERTEX
  8
0
  5
241C
 10
81.7844
 20
160.274
 30
0.00000
  70
    32
  0
VERTEX
  8
0
  5
241D
 10
81.7812
 20
160.278
 30
0.00000
  70
    32
  0
VERTEX
  8
0
  5
241E
 10
81.7780
 20
160.281
 30
0.00000
  70
    32
  0
VERTEX
  8
0
  5
241F
 10
81.7748
 20
160.284
 30
0.00000
  70
    32
  0
VERTEX
  8
0
  5
2420
 10
81.7715
 20
160.287
 30
0.00000
  70
    32
  0
VERTEX
  8
0
  5
2421
 10
81.7683
 20
160.290
 30
0.00000
  70
    32
  0
VERTEX
  8
0
  5
2422
 10
81.7651
 20
160.293
 30
0.00000
  70
    32
  0
VERTEX
  8
0
  5
2423
 10
81.7619
 20
160.296
 30
0.00000
  70
    32
  0
VERTEX
  8
0
  5
2424
 10
81.7586
 20
160.300
 30
0.00000
  70
    32
  0
VERTEX
  8
0
  5
2425
 10
81.7554
 20
160.303
 30
0.00000
  70
    32
  0
VERTEX
  8
0
  5
2426
 10
81.7522
 20
160.306
 30
0.00000
  70
    32
  0
VERTEX
  8
0
  5
2427
 10
81.7489
 20
160.309
 30
0.00000
  70
    32
  0
VERTEX
  8
0
  5
2428
 10
81.7457
 20
160.312
 30
0.00000
  70
    32
  0
VERTEX
  8
0
  5
2429
 10
81.7424
 20
160.315
 30
0.00000
  70
    32
  0
VERTEX
  8
0
  5
242A
 10
81.7392
 20
160.318
 30
0.00000
  70
    32
  0
VERTEX
  8
0
  5
242B
 10
81.7359
 20
160.322
 30
0.00000
  70
    32
  0
VERTEX
  8
0
  5
242C
 10
81.7326
 20
160.325
 30
0.00000
  70
    32
  0
VERTEX
  8
0
  5
242D
 10
81.7293
 20
160.328
 30
0.00000
  70
    32
  0
VERTEX
  8
0
  5
242E
 10
81.7261
 20
160.331
 30
0.00000
  70
    32
  0
VERTEX
  8
0
  5
242F
 10
81.7228
 20
160.334
 30
0.00000
  70
    32
  0
VERTEX
  8
0
  5
2430
 10
81.7195
 20
160.337
 30
0.00000
  70
    32
  0
VERTEX
  8
0
  5
2431
 10
81.7162
 20
160.340
 30
0.00000
  70
    32
  0
VERTEX
  8
0
  5
2432
 10
81.7129
 20
160.343
 30
0.00000
  70
    32
  0
VERTEX
  8
0
  5
2433
 10
81.7096
 20
160.347
 30
0.00000
  70
    32
  0
VERTEX
  8
0
  5
2434
 10
81.7063
 20
160.350
 30
0.00000
  70
    32
  0
VERTEX
  8
0
  5
2435
 10
81.7030
 20
160.353
 30
0.00000
  70
    32
  0
VERTEX
  8
0
  5
2436
 10
81.6996
 20
160.356
 30
0.00000
  70
    32
  0
VERTEX
  8
0
  5
2437
 10
81.6963
 20
160.359
 30
0.00000
  70
    32
  0
VERTEX
  8
0
  5
2438
 10
81.6930
 20
160.362
 30
0.00000
  70
    32
  0
VERTEX
  8
0
  5
2439
 10
81.6897
 20
160.365
 30
0.00000
  70
    32
  0
VERTEX
  8
0
  5
243A
 10
81.6863
 20
160.368
 30
0.00000
  70
    32
  0
VERTEX
  8
0
  5
243B
 10
81.6830
 20
160.371
 30
0.00000
  70
    32
  0
VERTEX
  8
0
  5
243C
 10
81.6796
 20
160.374
 30
0.00000
  70
    32
  0
VERTEX
  8
0
  5
243D
 10
81.6763
 20
160.377
 30
0.00000
  70
    32
  0
VERTEX
  8
0
  5
243E
 10
81.6729
 20
160.381
 30
0.00000
  70
    32
  0
VERTEX
  8
0
  5
243F
 10
81.6696
 20
160.384
 30
0.00000
  70
    32
  0
VERTEX
  8
0
  5
2440
 10
81.6662
 20
160.387
 30
0.00000
  70
    32
  0
VERTEX
  8
0
  5
2441
 10
81.6628
 20
160.390
 30
0.00000
  70
    32
  0
VERTEX
  8
0
  5
2442
 10
81.6594
 20
160.393
 30
0.00000
  70
    32
  0
VERTEX
  8
0
  5
2443
 10
81.6561
 20
160.396
 30
0.00000
  70
    32
  0
VERTEX
  8
0
  5
2444
 10
81.6527
 20
160.399
 30
0.00000
  70
    32
  0
VERTEX
  8
0
  5
2445
 10
81.6493
 20
160.402
 30
0.00000
  70
    32
  0
VERTEX
  8
0
  5
2446
 10
81.6459
 20
160.405
 30
0.00000
  70
    32
  0
VERTEX
  8
0
  5
2447
 10
81.6425
 20
160.408
 30
0.00000
  70
    32
  0
VERTEX
  8
0
  5
2448
 10
81.6391
 20
160.411
 30
0.00000
  70
    32
  0
VERTEX
  8
0
  5
2449
 10
81.6357
 20
160.414
 30
0.00000
  70
    32
  0
VERTEX
  8
0
  5
244A
 10
81.6323
 20
160.417
 30
0.00000
  70
    32
  0
VERTEX
  8
0
  5
244B
 10
81.6288
 20
160.420
 30
0.00000
  70
    32
  0
VERTEX
  8
0
  5
244C
 10
81.6254
 20
160.423
 30
0.00000
  70
    32
  0
VERTEX
  8
0
  5
244D
 10
81.6220
 20
160.426
 30
0.00000
  70
    32
  0
VERTEX
  8
0
  5
244E
 10
81.6186
 20
160.429
 30
0.00000
  70
    32
  0
VERTEX
  8
0
  5
244F
 10
81.6151
 20
160.432
 30
0.00000
  70
    32
  0
VERTEX
  8
0
  5
2450
 10
81.6117
 20
160.435
 30
0.00000
  70
    32
  0
VERTEX
  8
0
  5
2451
 10
81.6082
 20
160.438
 30
0.00000
  70
    32
  0
VERTEX
  8
0
  5
2452
 10
81.6048
 20
160.441
 30
0.00000
  70
    32
  0
VERTEX
  8
0
  5
2453
 10
81.6013
 20
160.444
 30
0.00000
  70
    32
  0
VERTEX
  8
0
  5
2454
 10
81.5979
 20
160.448
 30
0.00000
  70
    32
  0
VERTEX
  8
0
  5
2455
 10
81.5944
 20
160.451
 30
0.00000
  70
    32
  0
VERTEX
  8
0
  5
2456
 10
81.5909
 20
160.454
 30
0.00000
  70
    32
  0
VERTEX
  8
0
  5
2457
 10
81.5875
 20
160.457
 30
0.00000
  70
    32
  0
VERTEX
  8
0
  5
2458
 10
81.5840
 20
160.460
 30
0.00000
  70
    32
  0
VERTEX
  8
0
  5
2459
 10
81.5805
 20
160.463
 30
0.00000
  70
    32
  0
VERTEX
  8
0
  5
245A
 10
81.5770
 20
160.466
 30
0.00000
  70
    32
  0
VERTEX
  8
0
  5
245B
 10
81.5735
 20
160.469
 30
0.00000
  70
    32
  0
VERTEX
  8
0
  5
245C
 10
81.5700
 20
160.472
 30
0.00000
  70
    32
  0
VERTEX
  8
0
  5
245D
 10
81.5665
 20
160.475
 30
0.00000
  70
    32
  0
VERTEX
  8
0
  5
245E
 10
81.5630
 20
160.478
 30
0.00000
  70
    32
  0
VERTEX
  8
0
  5
245F
 10
81.5595
 20
160.480
 30
0.00000
  70
    32
  0
VERTEX
  8
0
  5
2460
 10
81.5560
 20
160.483
 30
0.00000
  70
    32
  0
VERTEX
  8
0
  5
2461
 10
81.5525
 20
160.486
 30
0.00000
  70
    32
  0
VERTEX
  8
0
  5
2462
 10
81.5489
 20
160.489
 30
0.00000
  70
    32
  0
VERTEX
  8
0
  5
2463
 10
81.5454
 20
160.492
 30
0.00000
  70
    32
  0
VERTEX
  8
0
  5
2464
 10
81.5419
 20
160.495
 30
0.00000
  70
    32
  0
VERTEX
  8
0
  5
2465
 10
81.5383
 20
160.498
 30
0.00000
  70
    32
  0
VERTEX
  8
0
  5
2466
 10
81.5348
 20
160.501
 30
0.00000
  70
    32
  0
VERTEX
  8
0
  5
2467
 10
81.5312
 20
160.504
 30
0.00000
  70
    32
  0
VERTEX
  8
0
  5
2468
 10
81.5277
 20
160.507
 30
0.00000
  70
    32
  0
VERTEX
  8
0
  5
2469
 10
81.5241
 20
160.510
 30
0.00000
  70
    32
  0
VERTEX
  8
0
  5
246A
 10
81.5206
 20
160.513
 30
0.00000
  70
    32
  0
VERTEX
  8
0
  5
246B
 10
81.5170
 20
160.516
 30
0.00000
  70
    32
  0
VERTEX
  8
0
  5
246C
 10
81.5134
 20
160.519
 30
0.00000
  70
    32
  0
VERTEX
  8
0
  5
246D
 10
81.5098
 20
160.522
 30
0.00000
  70
    32
  0
VERTEX
  8
0
  5
246E
 10
81.5063
 20
160.525
 30
0.00000
  70
    32
  0
VERTEX
  8
0
  5
246F
 10
81.5027
 20
160.528
 30
0.00000
  70
    32
  0
VERTEX
  8
0
  5
2470
 10
81.4991
 20
160.531
 30
0.00000
  70
    32
  0
VERTEX
  8
0
  5
2471
 10
81.4955
 20
160.534
 30
0.00000
  70
    32
  0
VERTEX
  8
0
  5
2472
 10
81.4919
 20
160.537
 30
0.00000
  70
    32
  0
VERTEX
  8
0
  5
2473
 10
81.4883
 20
160.540
 30
0.00000
  70
    32
  0
VERTEX
  8
0
  5
2474
 10
81.4847
 20
160.542
 30
0.00000
  70
    32
  0
VERTEX
  8
0
  5
2475
 10
81.4811
 20
160.545
 30
0.00000
  70
    32
  0
VERTEX
  8
0
  5
2476
 10
81.4775
 20
160.548
 30
0.00000
  70
    32
  0
VERTEX
  8
0
  5
2477
 10
81.4738
 20
160.551
 30
0.00000
  70
    32
  0
VERTEX
  8
0
  5
2478
 10
81.4702
 20
160.554
 30
0.00000
  70
    32
  0
VERTEX
  8
0
  5
2479
 10
81.4666
 20
160.557
 30
0.00000
  70
    32
  0
VERTEX
  8
0
  5
247A
 10
81.4629
 20
160.560
 30
0.00000
  70
    32
  0
VERTEX
  8
0
  5
247B
 10
81.4593
 20
160.563
 30
0.00000
  70
    32
  0
VERTEX
  8
0
  5
247C
 10
81.4557
 20
160.566
 30
0.00000
  70
    32
  0
VERTEX
  8
0
  5
247D
 10
81.4520
 20
160.569
 30
0.00000
  70
    32
  0
VERTEX
  8
0
  5
247E
 10
81.4484
 20
160.572
 30
0.00000
  70
    32
  0
VERTEX
  8
0
  5
247F
 10
81.4447
 20
160.574
 30
0.00000
  70
    32
  0
VERTEX
  8
0
  5
2480
 10
81.4410
 20
160.577
 30
0.00000
  70
    32
  0
VERTEX
  8
0
  5
2481
 10
81.4374
 20
160.580
 30
0.00000
  70
    32
  0
VERTEX
  8
0
  5
2482
 10
81.4337
 20
160.583
 30
0.00000
  70
    32
  0
VERTEX
  8
0
  5
2483
 10
81.4300
 20
160.586
 30
0.00000
  70
    32
  0
VERTEX
  8
0
  5
2484
 10
81.4264
 20
160.589
 30
0.00000
  70
    32
  0
VERTEX
  8
0
  5
2485
 10
81.4227
 20
160.592
 30
0.00000
  70
    32
  0
VERTEX
  8
0
  5
2486
 10
81.4190
 20
160.595
 30
0.00000
  70
    32
  0
VERTEX
  8
0
  5
2487
 10
81.4153
 20
160.597
 30
0.00000
  70
    32
  0
VERTEX
  8
0
  5
2488
 10
81.4116
 20
160.600
 30
0.00000
  70
    32
  0
VERTEX
  8
0
  5
2489
 10
81.4079
 20
160.603
 30
0.00000
  70
    32
  0
VERTEX
  8
0
  5
248A
 10
81.4042
 20
160.606
 30
0.00000
  70
    32
  0
VERTEX
  8
0
  5
248B
 10
81.4005
 20
160.609
 30
0.00000
  70
    32
  0
VERTEX
  8
0
  5
248C
 10
81.3968
 20
160.612
 30
0.00000
  70
    32
  0
VERTEX
  8
0
  5
248D
 10
81.3930
 20
160.615
 30
0.00000
  70
    32
  0
VERTEX
  8
0
  5
248E
 10
81.3893
 20
160.617
 30
0.00000
  70
    32
  0
VERTEX
  8
0
  5
248F
 10
81.3856
 20
160.620
 30
0.00000
  70
    32
  0
VERTEX
  8
0
  5
2490
 10
81.3819
 20
160.623
 30
0.00000
  70
    32
  0
VERTEX
  8
0
  5
2491
 10
81.3781
 20
160.626
 30
0.00000
  70
    32
  0
VERTEX
  8
0
  5
2492
 10
81.3744
 20
160.629
 30
0.00000
  70
    32
  0
VERTEX
  8
0
  5
2493
 10
81.3706
 20
160.632
 30
0.00000
  70
    32
  0
VERTEX
  8
0
  5
2494
 10
81.3669
 20
160.634
 30
0.00000
  70
    32
  0
VERTEX
  8
0
  5
2495
 10
81.3631
 20
160.637
 30
0.00000
  70
    32
  0
VERTEX
  8
0
  5
2496
 10
81.3594
 20
160.640
 30
0.00000
  70
    32
  0
VERTEX
  8
0
  5
2497
 10
81.3556
 20
160.643
 30
0.00000
  70
    32
  0
VERTEX
  8
0
  5
2498
 10
81.3518
 20
160.646
 30
0.00000
  70
    32
  0
VERTEX
  8
0
  5
2499
 10
81.3481
 20
160.649
 30
0.00000
  70
    32
  0
VERTEX
  8
0
  5
249A
 10
81.3443
 20
160.651
 30
0.00000
  70
    32
  0
VERTEX
  8
0
  5
249B
 10
81.3405
 20
160.654
 30
0.00000
  70
    32
  0
SEQEND
  8
0
  5
249C
  0
ARC
  5
20CC
  8
0
 10
86.3405219238683515
 20
158.2046893961652927
 30
0.0
 40
5.0000000021427029
 50
155.5873194610477128
 51
204.4126805385920136
  0
POLYLINE
  5
20CD
  8
0
 10
81.3405225893886978
 20
155.7552001481018635
 30
0.0
 66
     1
 70
     8
  0
VERTEX
  8
0
  5
249D
 10
81.3405
 20
155.755
 30
0.00000
  70
    32
  0
VERTEX
  8
0
  5
249E
 10
81.3443
 20
155.758
 30
0.00000
  70
    32
  0
VERTEX
  8
0
  5
249F
 10
81.3481
 20
155.761
 30
0.00000
  70
    32
  0
VERTEX
  8
0
  5
24A0
 10
81.3518
 20
155.764
 30
0.00000
  70
    32
  0
VERTEX
  8
0
  5
24A1
 10
81.3556
 20
155.766
 30
0.00000
  70
    32
  0
VERTEX
  8
0
  5
24A2
 10
81.3594
 20
155.769
 30
0.00000
  70
    32
  0
VERTEX
  8
0
  5
24A3
 10
81.3631
 20
155.772
 30
0.00000
  70
    32
  0
VERTEX
  8
0
  5
24A4
 10
81.3669
 20
155.775
 30
0.00000
  70
    32
  0
VERTEX
  8
0
  5
24A5
 10
81.3706
 20
155.778
 30
0.00000
  70
    32
  0
VERTEX
  8
0
  5
24A6
 10
81.3744
 20
155.781
 30
0.00000
  70
    32
  0
VERTEX
  8
0
  5
24A7
 10
81.3781
 20
155.783
 30
0.00000
  70
    32
  0
VERTEX
  8
0
  5
24A8
 10
81.3819
 20
155.786
 30
0.00000
  70
    32
  0
VERTEX
  8
0
  5
24A9
 10
81.3856
 20
155.789
 30
0.00000
  70
    32
  0
VERTEX
  8
0
  5
24AA
 10
81.3893
 20
155.792
 30
0.00000
  70
    32
  0
VERTEX
  8
0
  5
24AB
 10
81.3930
 20
155.795
 30
0.00000
  70
    32
  0
VERTEX
  8
0
  5
24AC
 10
81.3968
 20
155.798
 30
0.00000
  70
    32
  0
VERTEX
  8
0
  5
24AD
 10
81.4005
 20
155.800
 30
0.00000
  70
    32
  0
VERTEX
  8
0
  5
24AE
 10
81.4042
 20
155.803
 30
0.00000
  70
    32
  0
VERTEX
  8
0
  5
24AF
 10
81.4079
 20
155.806
 30
0.00000
  70
    32
  0
VERTEX
  8
0
  5
24B0
 10
81.4116
 20
155.809
 30
0.00000
  70
    32
  0
VERTEX
  8
0
  5
24B1
 10
81.4153
 20
155.812
 30
0.00000
  70
    32
  0
VERTEX
  8
0
  5
24B2
 10
81.4190
 20
155.815
 30
0.00000
  70
    32
  0
VERTEX
  8
0
  5
24B3
 10
81.4227
 20
155.818
 30
0.00000
  70
    32
  0
VERTEX
  8
0
  5
24B4
 10
81.4264
 20
155.821
 30
0.00000
  70
    32
  0
VERTEX
  8
0
  5
24B5
 10
81.4300
 20
155.823
 30
0.00000
  70
    32
  0
VERTEX
  8
0
  5
24B6
 10
81.4337
 20
155.826
 30
0.00000
  70
    32
  0
VERTEX
  8
0
  5
24B7
 10
81.4374
 20
155.829
 30
0.00000
  70
    32
  0
VERTEX
  8
0
  5
24B8
 10
81.4410
 20
155.832
 30
0.00000
  70
    32
  0
VERTEX
  8
0
  5
24B9
 10
81.4447
 20
155.835
 30
0.00000
  70
    32
  0
VERTEX
  8
0
  5
24BA
 10
81.4484
 20
155.838
 30
0.00000
  70
    32
  0
VERTEX
  8
0
  5
24BB
 10
81.4520
 20
155.841
 30
0.00000
  70
    32
  0
VERTEX
  8
0
  5
24BC
 10
81.4557
 20
155.844
 30
0.00000
  70
    32
  0
VERTEX
  8
0
  5
24BD
 10
81.4593
 20
155.847
 30
0.00000
  70
    32
  0
VERTEX
  8
0
  5
24BE
 10
81.4629
 20
155.849
 30
0.00000
  70
    32
  0
VERTEX
  8
0
  5
24BF
 10
81.4666
 20
155.852
 30
0.00000
  70
    32
  0
VERTEX
  8
0
  5
24C0
 10
81.4702
 20
155.855
 30
0.00000
  70
    32
  0
VERTEX
  8
0
  5
24C1
 10
81.4738
 20
155.858
 30
0.00000
  70
    32
  0
VERTEX
  8
0
  5
24C2
 10
81.4775
 20
155.861
 30
0.00000
  70
    32
  0
VERTEX
  8
0
  5
24C3
 10
81.4811
 20
155.864
 30
0.00000
  70
    32
  0
VERTEX
  8
0
  5
24C4
 10
81.4847
 20
155.867
 30
0.00000
  70
    32
  0
VERTEX
  8
0
  5
24C5
 10
81.4883
 20
155.870
 30
0.00000
  70
    32
  0
VERTEX
  8
0
  5
24C6
 10
81.4919
 20
155.873
 30
0.00000
  70
    32
  0
VERTEX
  8
0
  5
24C7
 10
81.4955
 20
155.876
 30
0.00000
  70
    32
  0
VERTEX
  8
0
  5
24C8
 10
81.4991
 20
155.879
 30
0.00000
  70
    32
  0
VERTEX
  8
0
  5
24C9
 10
81.5027
 20
155.882
 30
0.00000
  70
    32
  0
VERTEX
  8
0
  5
24CA
 10
81.5063
 20
155.884
 30
0.00000
  70
    32
  0
VERTEX
  8
0
  5
24CB
 10
81.5098
 20
155.887
 30
0.00000
  70
    32
  0
VERTEX
  8
0
  5
24CC
 10
81.5134
 20
155.890
 30
0.00000
  70
    32
  0
VERTEX
  8
0
  5
24CD
 10
81.5170
 20
155.893
 30
0.00000
  70
    32
  0
VERTEX
  8
0
  5
24CE
 10
81.5206
 20
155.896
 30
0.00000
  70
    32
  0
VERTEX
  8
0
  5
24CF
 10
81.5241
 20
155.899
 30
0.00000
  70
    32
  0
VERTEX
  8
0
  5
24D0
 10
81.5277
 20
155.902
 30
0.00000
  70
    32
  0
VERTEX
  8
0
  5
24D1
 10
81.5312
 20
155.905
 30
0.00000
  70
    32
  0
VERTEX
  8
0
  5
24D2
 10
81.5348
 20
155.908
 30
0.00000
  70
    32
  0
VERTEX
  8
0
  5
24D3
 10
81.5383
 20
155.911
 30
0.00000
  70
    32
  0
VERTEX
  8
0
  5
24D4
 10
81.5419
 20
155.914
 30
0.00000
  70
    32
  0
VERTEX
  8
0
  5
24D5
 10
81.5454
 20
155.917
 30
0.00000
  70
    32
  0
VERTEX
  8
0
  5
24D6
 10
81.5489
 20
155.920
 30
0.00000
  70
    32
  0
VERTEX
  8
0
  5
24D7
 10
81.5525
 20
155.923
 30
0.00000
  70
    32
  0
VERTEX
  8
0
  5
24D8
 10
81.5560
 20
155.926
 30
0.00000
  70
    32
  0
VERTEX
  8
0
  5
24D9
 10
81.5595
 20
155.929
 30
0.00000
  70
    32
  0
VERTEX
  8
0
  5
24DA
 10
81.5630
 20
155.932
 30
0.00000
  70
    32
  0
VERTEX
  8
0
  5
24DB
 10
81.5665
 20
155.935
 30
0.00000
  70
    32
  0
VERTEX
  8
0
  5
24DC
 10
81.5700
 20
155.938
 30
0.00000
  70
    32
  0
VERTEX
  8
0
  5
24DD
 10
81.5735
 20
155.941
 30
0.00000
  70
    32
  0
VERTEX
  8
0
  5
24DE
 10
81.5770
 20
155.944
 30
0.00000
  70
    32
  0
VERTEX
  8
0
  5
24DF
 10
81.5805
 20
155.947
 30
0.00000
  70
    32
  0
VERTEX
  8
0
  5
24E0
 10
81.5840
 20
155.950
 30
0.00000
  70
    32
  0
VERTEX
  8
0
  5
24E1
 10
81.5875
 20
155.953
 30
0.00000
  70
    32
  0
VERTEX
  8
0
  5
24E2
 10
81.5909
 20
155.956
 30
0.00000
  70
    32
  0
VERTEX
  8
0
  5
24E3
 10
81.5944
 20
155.959
 30
0.00000
  70
    32
  0
VERTEX
  8
0
  5
24E4
 10
81.5979
 20
155.962
 30
0.00000
  70
    32
  0
VERTEX
  8
0
  5
24E5
 10
81.6013
 20
155.965
 30
0.00000
  70
    32
  0
VERTEX
  8
0
  5
24E6
 10
81.6048
 20
155.968
 30
0.00000
  70
    32
  0
VERTEX
  8
0
  5
24E7
 10
81.6082
 20
155.971
 30
0.00000
  70
    32
  0
VERTEX
  8
0
  5
24E8
 10
81.6117
 20
155.974
 30
0.00000
  70
    32
  0
VERTEX
  8
0
  5
24E9
 10
81.6151
 20
155.977
 30
0.00000
  70
    32
  0
VERTEX
  8
0
  5
24EA
 10
81.6186
 20
155.980
 30
0.00000
  70
    32
  0
VERTEX
  8
0
  5
24EB
 10
81.6220
 20
155.983
 30
0.00000
  70
    32
  0
VERTEX
  8
0
  5
24EC
 10
81.6254
 20
155.986
 30
0.00000
  70
    32
  0
VERTEX
  8
0
  5
24ED
 10
81.6288
 20
155.989
 30
0.00000
  70
    32
  0
VERTEX
  8
0
  5
24EE
 10
81.6323
 20
155.992
 30
0.00000
  70
    32
  0
VERTEX
  8
0
  5
24EF
 10
81.6357
 20
155.995
 30
0.00000
  70
    32
  0
VERTEX
  8
0
  5
24F0
 10
81.6391
 20
155.998
 30
0.00000
  70
    32
  0
VERTEX
  8
0
  5
24F1
 10
81.6425
 20
156.001
 30
0.00000
  70
    32
  0
VERTEX
  8
0
  5
24F2
 10
81.6459
 20
156.004
 30
0.00000
  70
    32
  0
VERTEX
  8
0
  5
24F3
 10
81.6493
 20
156.007
 30
0.00000
  70
    32
  0
VERTEX
  8
0
  5
24F4
 10
81.6527
 20
156.010
 30
0.00000
  70
    32
  0
VERTEX
  8
0
  5
24F5
 10
81.6561
 20
156.014
 30
0.00000
  70
    32
  0
VERTEX
  8
0
  5
24F6
 10
81.6594
 20
156.017
 30
0.00000
  70
    32
  0
VERTEX
  8
0
  5
24F7
 10
81.6628
 20
156.020
 30
0.00000
  70
    32
  0
VERTEX
  8
0
  5
24F8
 10
81.6662
 20
156.023
 30
0.00000
  70
    32
  0
VERTEX
  8
0
  5
24F9
 10
81.6696
 20
156.026
 30
0.00000
  70
    32
  0
VERTEX
  8
0
  5
24FA
 10
81.6729
 20
156.029
 30
0.00000
  70
    32
  0
VERTEX
  8
0
  5
24FB
 10
81.6763
 20
156.032
 30
0.00000
  70
    32
  0
VERTEX
  8
0
  5
24FC
 10
81.6796
 20
156.035
 30
0.00000
  70
    32
  0
VERTEX
  8
0
  5
24FD
 10
81.6830
 20
156.038
 30
0.00000
  70
    32
  0
VERTEX
  8
0
  5
24FE
 10
81.6863
 20
156.041
 30
0.00000
  70
    32
  0
VERTEX
  8
0
  5
24FF
 10
81.6897
 20
156.044
 30
0.00000
  70
    32
  0
VERTEX
  8
0
  5
2500
 10
81.6930
 20
156.047
 30
0.00000
  70
    32
  0
VERTEX
  8
0
  5
2501
 10
81.6963
 20
156.050
 30
0.00000
  70
    32
  0
VERTEX
  8
0
  5
2502
 10
81.6996
 20
156.054
 30
0.00000
  70
    32
  0
VERTEX
  8
0
  5
2503
 10
81.7030
 20
156.057
 30
0.00000
  70
    32
  0
VERTEX
  8
0
  5
2504
 10
81.7063
 20
156.060
 30
0.00000
  70
    32
  0
VERTEX
  8
0
  5
2505
 10
81.7096
 20
156.063
 30
0.00000
  70
    32
  0
VERTEX
  8
0
  5
2506
 10
81.7129
 20
156.066
 30
0.00000
  70
    32
  0
VERTEX
  8
0
  5
2507
 10
81.7162
 20
156.069
 30
0.00000
  70
    32
  0
VERTEX
  8
0
  5
2508
 10
81.7195
 20
156.072
 30
0.00000
  70
    32
  0
VERTEX
  8
0
  5
2509
 10
81.7228
 20
156.075
 30
0.00000
  70
    32
  0
VERTEX
  8
0
  5
250A
 10
81.7261
 20
156.078
 30
0.00000
  70
    32
  0
VERTEX
  8
0
  5
250B
 10
81.7293
 20
156.082
 30
0.00000
  70
    32
  0
VERTEX
  8
0
  5
250C
 10
81.7326
 20
156.085
 30
0.00000
  70
    32
  0
VERTEX
  8
0
  5
250D
 10
81.7359
 20
156.088
 30
0.00000
  70
    32
  0
VERTEX
  8
0
  5
250E
 10
81.7392
 20
156.091
 30
0.00000
  70
    32
  0
VERTEX
  8
0
  5
250F
 10
81.7424
 20
156.094
 30
0.00000
  70
    32
  0
VERTEX
  8
0
  5
2510
 10
81.7457
 20
156.097
 30
0.00000
  70
    32
  0
VERTEX
  8
0
  5
2511
 10
81.7489
 20
156.100
 30
0.00000
  70
    32
  0
VERTEX
  8
0
  5
2512
 10
81.7522
 20
156.103
 30
0.00000
  70
    32
  0
VERTEX
  8
0
  5
2513
 10
81.7554
 20
156.107
 30
0.00000
  70
    32
  0
VERTEX
  8
0
  5
2514
 10
81.7586
 20
156.110
 30
0.00000
  70
    32
  0
VERTEX
  8
0
  5
2515
 10
81.7619
 20
156.113
 30
0.00000
  70
    32
  0
VERTEX
  8
0
  5
2516
 10
81.7651
 20
156.116
 30
0.00000
  70
    32
  0
VERTEX
  8
0
  5
2517
 10
81.7683
 20
156.119
 30
0.00000
  70
    32
  0
VERTEX
  8
0
  5
2518
 10
81.7715
 20
156.122
 30
0.00000
  70
    32
  0
VERTEX
  8
0
  5
2519
 10
81.7748
 20
156.126
 30
0.00000
  70
    32
  0
VERTEX
  8
0
  5
251A
 10
81.7780
 20
156.129
 30
0.00000
  70
    32
  0
VERTEX
  8
0
  5
251B
 10
81.7812
 20
156.132
 30
0.00000
  70
    32
  0
VERTEX
  8
0
  5
251C
 10
81.7844
 20
156.135
 30
0.00000
  70
    32
  0
VERTEX
  8
0
  5
251D
 10
81.7876
 20
156.138
 30
0.00000
  70
    32
  0
SEQEND
  8
0
  5
251E
  0
LINE
  5
20CE
  8
0
 10
81.3405227337253507
 20
155.7552000453538028
 30
0.0
 11
80.8632963488973644
 21
155.7551996479460001
 31
0.0
  0
LINE
  5
20D0
  8
0
 10
81.3405227405268363
 20
154.8880633709802055
 30
0.0
 11
81.3405227337253507
 21
155.7552000453538028
 31
0.0
  0
ARC
  5
20D1
  8
0
 10
86.3405219216934654
 20
158.2046893957727036
 30
0.0
 40
4.9999999999999991
 50
204.4126805447893958
 51
317.0037354933704137
  0
POLYLINE
  5
20D2
  8
0
 10
89.9975127420824208
 20
154.7949360118135189
 30
0.0
 66
     1
 70
     8
  0
VERTEX
  8
0
  5
251F
 10
89.9975
 20
154.795
 30
0.00000
  70
    32
  0
VERTEX
  8
0
  5
2520
 10
90.0108
 20
154.797
 30
0.00000
  70
    32
  0
VERTEX
  8
0
  5
2521
 10
90.0240
 20
154.799
 30
0.00000
  70
    32
  0
VERTEX
  8
0
  5
2522
 10
90.0373
 20
154.802
 30
0.00000
  70
    32
  0
VERTEX
  8
0
  5
2523
 10
90.0505
 20
154.804
 30
0.00000
  70
    32
  0
VERTEX
  8
0
  5
2524
 10
90.0637
 20
154.806
 30
0.00000
  70
    32
  0
VERTEX
  8
0
  5
2525
 10
90.0769
 20
154.809
 30
0.00000
  70
    32
  0
VERTEX
  8
0
  5
2526
 10
90.0901
 20
154.811
 30
0.00000
  70
    32
  0
VERTEX
  8
0
  5
2527
 10
90.1033
 20
154.814
 30
0.00000
  70
    32
  0
VERTEX
  8
0
  5
2528
 10
90.1165
 20
154.816
 30
0.00000
  70
    32
  0
VERTEX
  8
0
  5
2529
 10
90.1297
 20
154.819
 30
0.00000
  70
    32
  0
VERTEX
  8
0
  5
252A
 10
90.1428
 20
154.821
 30
0.00000
  70
    32
  0
VERTEX
  8
0
  5
252B
 10
90.1560
 20
154.824
 30
0.00000
  70
    32
  0
VERTEX
  8
0
  5
252C
 10
90.1691
 20
154.826
 30
0.00000
  70
    32
  0
VERTEX
  8
0
  5
252D
 10
90.1823
 20
154.829
 30
0.00000
  70
    32
  0
VERTEX
  8
0
  5
252E
 10
90.1954
 20
154.831
 30
0.00000
  70
    32
  0
VERTEX
  8
0
  5
252F
 10
90.2085
 20
154.834
 30
0.00000
  70
    32
  0
VERTEX
  8
0
  5
2530
 10
90.2216
 20
154.837
 30
0.00000
  70
    32
  0
VERTEX
  8
0
  5
2531
 10
90.2347
 20
154.839
 30
0.00000
  70
    32
  0
VERTEX
  8
0
  5
2532
 10
90.2478
 20
154.842
 30
0.00000
  70
    32
  0
VERTEX
  8
0
  5
2533
 10
90.2608
 20
154.845
 30
0.00000
  70
    32
  0
VERTEX
  8
0
  5
2534
 10
90.2739
 20
154.848
 30
0.00000
  70
    32
  0
VERTEX
  8
0
  5
2535
 10
90.2869
 20
154.851
 30
0.00000
  70
    32
  0
VERTEX
  8
0
  5
2536
 10
90.3000
 20
154.853
 30
0.00000
  70
    32
  0
VERTEX
  8
0
  5
2537
 10
90.3130
 20
154.856
 30
0.00000
  70
    32
  0
VERTEX
  8
0
  5
2538
 10
90.3260
 20
154.859
 30
0.00000
  70
    32
  0
VERTEX
  8
0
  5
2539
 10
90.3390
 20
154.862
 30
0.00000
  70
    32
  0
VERTEX
  8
0
  5
253A
 10
90.3520
 20
154.865
 30
0.00000
  70
    32
  0
VERTEX
  8
0
  5
253B
 10
90.3650
 20
154.868
 30
0.00000
  70
    32
  0
VERTEX
  8
0
  5
253C
 10
90.3780
 20
154.871
 30
0.00000
  70
    32
  0
VERTEX
  8
0
  5
253D
 10
90.3909
 20
154.874
 30
0.00000
  70
    32
  0
VERTEX
  8
0
  5
253E
 10
90.4039
 20
154.877
 30
0.00000
  70
    32
  0
VERTEX
  8
0
  5
253F
 10
90.4168
 20
154.880
 30
0.00000
  70
    32
  0
VERTEX
  8
0
  5
2540
 10
90.4297
 20
154.883
 30
0.00000
  70
    32
  0
VERTEX
  8
0
  5
2541
 10
90.4426
 20
154.886
 30
0.00000
  70
    32
  0
VERTEX
  8
0
  5
2542
 10
90.4555
 20
154.890
 30
0.00000
  70
    32
  0
VERTEX
  8
0
  5
2543
 10
90.4684
 20
154.893
 30
0.00000
  70
    32
  0
VERTEX
  8
0
  5
2544
 10
90.4813
 20
154.896
 30
0.00000
  70
    32
  0
VERTEX
  8
0
  5
2545
 10
90.4942
 20
154.899
 30
0.00000
  70
    32
  0
VERTEX
  8
0
  5
2546
 10
90.5070
 20
154.902
 30
0.00000
  70
    32
  0
VERTEX
  8
0
  5
2547
 10
90.5198
 20
154.906
 30
0.00000
  70
    32
  0
VERTEX
  8
0
  5
2548
 10
90.5327
 20
154.909
 30
0.00000
  70
    32
  0
VERTEX
  8
0
  5
2549
 10
90.5455
 20
154.912
 30
0.00000
  70
    32
  0
VERTEX
  8
0
  5
254A
 10
90.5583
 20
154.916
 30
0.00000
  70
    32
  0
VERTEX
  8
0
  5
254B
 10
90.5711
 20
154.919
 30
0.00000
  70
    32
  0
VERTEX
  8
0
  5
254C
 10
90.5838
 20
154.923
 30
0.00000
  70
    32
  0
VERTEX
  8
0
  5
254D
 10
90.5966
 20
154.926
 30
0.00000
  70
    32
  0
VERTEX
  8
0
  5
254E
 10
90.6093
 20
154.930
 30
0.00000
  70
    32
  0
VERTEX
  8
0
  5
254F
 10
90.6221
 20
154.933
 30
0.00000
  70
    32
  0
VERTEX
  8
0
  5
2550
 10
90.6348
 20
154.937
 30
0.00000
  70
    32
  0
VERTEX
  8
0
  5
2551
 10
90.6475
 20
154.940
 30
0.00000
  70
    32
  0
VERTEX
  8
0
  5
2552
 10
90.6602
 20
154.944
 30
0.00000
  70
    32
  0
VERTEX
  8
0
  5
2553
 10
90.6728
 20
154.947
 30
0.00000
  70
    32
  0
VERTEX
  8
0
  5
2554
 10
90.6855
 20
154.951
 30
0.00000
  70
    32
  0
VERTEX
  8
0
  5
2555
 10
90.6982
 20
154.955
 30
0.00000
  70
    32
  0
VERTEX
  8
0
  5
2556
 10
90.7108
 20
154.958
 30
0.00000
  70
    32
  0
VERTEX
  8
0
  5
2557
 10
90.7234
 20
154.962
 30
0.00000
  70
    32
  0
VERTEX
  8
0
  5
2558
 10
90.7360
 20
154.966
 30
0.00000
  70
    32
  0
VERTEX
  8
0
  5
2559
 10
90.7486
 20
154.969
 30
0.00000
  70
    32
  0
VERTEX
  8
0
  5
255A
 10
90.7612
 20
154.973
 30
0.00000
  70
    32
  0
VERTEX
  8
0
  5
255B
 10
90.7737
 20
154.977
 30
0.00000
  70
    32
  0
VERTEX
  8
0
  5
255C
 10
90.7863
 20
154.981
 30
0.00000
  70
    32
  0
VERTEX
  8
0
  5
255D
 10
90.7988
 20
154.985
 30
0.00000
  70
    32
  0
VERTEX
  8
0
  5
255E
 10
90.8113
 20
154.989
 30
0.00000
  70
    32
  0
VERTEX
  8
0
  5
255F
 10
90.8238
 20
154.993
 30
0.00000
  70
    32
  0
VERTEX
  8
0
  5
2560
 10
90.8363
 20
154.996
 30
0.00000
  70
    32
  0
VERTEX
  8
0
  5
2561
 10
90.8488
 20
155.000
 30
0.00000
  70
    32
  0
VERTEX
  8
0
  5
2562
 10
90.8612
 20
155.004
 30
0.00000
  70
    32
  0
VERTEX
  8
0
  5
2563
 10
90.8737
 20
155.008
 30
0.00000
  70
    32
  0
VERTEX
  8
0
  5
2564
 10
90.8861
 20
155.013
 30
0.00000
  70
    32
  0
VERTEX
  8
0
  5
2565
 10
90.8985
 20
155.017
 30
0.00000
  70
    32
  0
VERTEX
  8
0
  5
2566
 10
90.9109
 20
155.021
 30
0.00000
  70
    32
  0
VERTEX
  8
0
  5
2567
 10
90.9232
 20
155.025
 30
0.00000
  70
    32
  0
VERTEX
  8
0
  5
2568
 10
90.9356
 20
155.029
 30
0.00000
  70
    32
  0
VERTEX
  8
0
  5
2569
 10
90.9479
 20
155.033
 30
0.00000
  70
    32
  0
VERTEX
  8
0
  5
256A
 10
90.9603
 20
155.037
 30
0.00000
  70
    32
  0
VERTEX
  8
0
  5
256B
 10
90.9726
 20
155.042
 30
0.00000
  70
    32
  0
VERTEX
  8
0
  5
256C
 10
90.9849
 20
155.046
 30
0.00000
  70
    32
  0
VERTEX
  8
0
  5
256D
 10
90.9972
 20
155.050
 30
0.00000
  70
    32
  0
VERTEX
  8
0
  5
256E
 10
91.0094
 20
155.054
 30
0.00000
  70
    32
  0
VERTEX
  8
0
  5
256F
 10
91.0217
 20
155.059
 30
0.00000
  70
    32
  0
VERTEX
  8
0
  5
2570
 10
91.0339
 20
155.063
 30
0.00000
  70
    32
  0
VERTEX
  8
0
  5
2571
 10
91.0461
 20
155.067
 30
0.00000
  70
    32
  0
VERTEX
  8
0
  5
2572
 10
91.0583
 20
155.072
 30
0.00000
  70
    32
  0
VERTEX
  8
0
  5
2573
 10
91.0705
 20
155.076
 30
0.00000
  70
    32
  0
VERTEX
  8
0
  5
2574
 10
91.0826
 20
155.081
 30
0.00000
  70
    32
  0
VERTEX
  8
0
  5
2575
 10
91.0948
 20
155.085
 30
0.00000
  70
    32
  0
VERTEX
  8
0
  5
2576
 10
91.1069
 20
155.090
 30
0.00000
  70
    32
  0
VERTEX
  8
0
  5
2577
 10
91.1190
 20
155.094
 30
0.00000
  70
    32
  0
VERTEX
  8
0
  5
2578
 10
91.1311
 20
155.099
 30
0.00000
  70
    32
  0
VERTEX
  8
0
  5
2579
 10
91.1431
 20
155.103
 30
0.00000
  70
    32
  0
VERTEX
  8
0
  5
257A
 10
91.1552
 20
155.108
 30
0.00000
  70
    32
  0
VERTEX
  8
0
  5
257B
 10
91.1672
 20
155.112
 30
0.00000
  70
    32
  0
VERTEX
  8
0
  5
257C
 10
91.1792
 20
155.117
 30
0.00000
  70
    32
  0
VERTEX
  8
0
  5
257D
 10
91.1912
 20
155.122
 30
0.00000
  70
    32
  0
VERTEX
  8
0
  5
257E
 10
91.2032
 20
155.126
 30
0.00000
  70
    32
  0
VERTEX
  8
0
  5
257F
 10
91.2152
 20
155.131
 30
0.00000
  70
    32
  0
VERTEX
  8
0
  5
2580
 10
91.2271
 20
155.136
 30
0.00000
  70
    32
  0
VERTEX
  8
0
  5
2581
 10
91.2390
 20
155.141
 30
0.00000
  70
    32
  0
VERTEX
  8
0
  5
2582
 10
91.2510
 20
155.145
 30
0.00000
  70
    32
  0
VERTEX
  8
0
  5
2583
 10
91.2628
 20
155.150
 30
0.00000
  70
    32
  0
VERTEX
  8
0
  5
2584
 10
91.2747
 20
155.155
 30
0.00000
  70
    32
  0
VERTEX
  8
0
  5
2585
 10
91.2866
 20
155.160
 30
0.00000
  70
    32
  0
VERTEX
  8
0
  5
2586
 10
91.2984
 20
155.165
 30
0.00000
  70
    32
  0
VERTEX
  8
0
  5
2587
 10
91.3102
 20
155.170
 30
0.00000
  70
    32
  0
VERTEX
  8
0
  5
2588
 10
91.3220
 20
155.175
 30
0.00000
  70
    32
  0
VERTEX
  8
0
  5
2589
 10
91.3338
 20
155.180
 30
0.00000
  70
    32
  0
VERTEX
  8
0
  5
258A
 10
91.3455
 20
155.185
 30
0.00000
  70
    32
  0
VERTEX
  8
0
  5
258B
 10
91.3573
 20
155.190
 30
0.00000
  70
    32
  0
VERTEX
  8
0
  5
258C
 10
91.3690
 20
155.195
 30
0.00000
  70
    32
  0
VERTEX
  8
0
  5
258D
 10
91.3807
 20
155.200
 30
0.00000
  70
    32
  0
VERTEX
  8
0
  5
258E
 10
91.3923
 20
155.205
 30
0.00000
  70
    32
  0
VERTEX
  8
0
  5
258F
 10
91.4040
 20
155.210
 30
0.00000
  70
    32
  0
VERTEX
  8
0
  5
2590
 10
91.4156
 20
155.215
 30
0.00000
  70
    32
  0
VERTEX
  8
0
  5
2591
 10
91.4273
 20
155.220
 30
0.00000
  70
    32
  0
VERTEX
  8
0
  5
2592
 10
91.4388
 20
155.225
 30
0.00000
  70
    32
  0
VERTEX
  8
0
  5
2593
 10
91.4504
 20
155.231
 30
0.00000
  70
    32
  0
VERTEX
  8
0
  5
2594
 10
91.4620
 20
155.236
 30
0.00000
  70
    32
  0
VERTEX
  8
0
  5
2595
 10
91.4735
 20
155.241
 30
0.00000
  70
    32
  0
VERTEX
  8
0
  5
2596
 10
91.4850
 20
155.246
 30
0.00000
  70
    32
  0
VERTEX
  8
0
  5
2597
 10
91.4965
 20
155.252
 30
0.00000
  70
    32
  0
VERTEX
  8
0
  5
2598
 10
91.5080
 20
155.257
 30
0.00000
  70
    32
  0
VERTEX
  8
0
  5
2599
 10
91.5194
 20
155.262
 30
0.00000
  70
    32
  0
VERTEX
  8
0
  5
259A
 10
91.5309
 20
155.268
 30
0.00000
  70
    32
  0
VERTEX
  8
0
  5
259B
 10
91.5423
 20
155.273
 30
0.00000
  70
    32
  0
VERTEX
  8
0
  5
259C
 10
91.5537
 20
155.279
 30
0.00000
  70
    32
  0
VERTEX
  8
0
  5
259D
 10
91.5651
 20
155.284
 30
0.00000
  70
    32
  0
VERTEX
  8
0
  5
259E
 10
91.5764
 20
155.289
 30
0.00000
  70
    32
  0
VERTEX
  8
0
  5
259F
 10
91.5877
 20
155.295
 30
0.00000
  70
    32
  0
SEQEND
  8
0
  5
25A0
  0
POLYLINE
  5
20D5
  8
0
 10
91.5877246157587024
 20
161.1144770063042984
 30
0.0
 66
     1
 70
     8
  0
VERTEX
  8
0
  5
25A1
 10
91.5877
 20
161.114
 30
0.00000
  70
    32
  0
VERTEX
  8
0
  5
25A2
 10
91.5764
 20
161.120
 30
0.00000
  70
    32
  0
VERTEX
  8
0
  5
25A3
 10
91.5651
 20
161.125
 30
0.00000
  70
    32
  0
VERTEX
  8
0
  5
25A4
 10
91.5537
 20
161.131
 30
0.00000
  70
    32
  0
VERTEX
  8
0
  5
25A5
 10
91.5423
 20
161.136
 30
0.00000
  70
    32
  0
VERTEX
  8
0
  5
25A6
 10
91.5309
 20
161.142
 30
0.00000
  70
    32
  0
VERTEX
  8
0
  5
25A7
 10
91.5194
 20
161.147
 30
0.00000
  70
    32
  0
VERTEX
  8
0
  5
25A8
 10
91.5080
 20
161.152
 30
0.00000
  70
    32
  0
VERTEX
  8
0
  5
25A9
 10
91.4965
 20
161.158
 30
0.00000
  70
    32
  0
VERTEX
  8
0
  5
25AA
 10
91.4850
 20
161.163
 30
0.00000
  70
    32
  0
VERTEX
  8
0
  5
25AB
 10
91.4735
 20
161.168
 30
0.00000
  70
    32
  0
VERTEX
  8
0
  5
25AC
 10
91.4620
 20
161.174
 30
0.00000
  70
    32
  0
VERTEX
  8
0
  5
25AD
 10
91.4504
 20
161.179
 30
0.00000
  70
    32
  0
VERTEX
  8
0
  5
25AE
 10
91.4388
 20
161.184
 30
0.00000
  70
    32
  0
VERTEX
  8
0
  5
25AF
 10
91.4273
 20
161.189
 30
0.00000
  70
    32
  0
VERTEX
  8
0
  5
25B0
 10
91.4156
 20
161.194
 30
0.00000
  70
    32
  0
VERTEX
  8
0
  5
25B1
 10
91.4040
 20
161.199
 30
0.00000
  70
    32
  0
VERTEX
  8
0
  5
25B2
 10
91.3923
 20
161.205
 30
0.00000
  70
    32
  0
VERTEX
  8
0
  5
25B3
 10
91.3807
 20
161.210
 30
0.00000
  70
    32
  0
VERTEX
  8
0
  5
25B4
 10
91.3690
 20
161.215
 30
0.00000
  70
    32
  0
VERTEX
  8
0
  5
25B5
 10
91.3573
 20
161.220
 30
0.00000
  70
    32
  0
VERTEX
  8
0
  5
25B6
 10
91.3455
 20
161.225
 30
0.00000
  70
    32
  0
VERTEX
  8
0
  5
25B7
 10
91.3338
 20
161.230
 30
0.00000
  70
    32
  0
VERTEX
  8
0
  5
25B8
 10
91.3220
 20
161.235
 30
0.00000
  70
    32
  0
VERTEX
  8
0
  5
25B9
 10
91.3102
 20
161.240
 30
0.00000
  70
    32
  0
VERTEX
  8
0
  5
25BA
 10
91.2984
 20
161.244
 30
0.00000
  70
    32
  0
VERTEX
  8
0
  5
25BB
 10
91.2866
 20
161.249
 30
0.00000
  70
    32
  0
VERTEX
  8
0
  5
25BC
 10
91.2747
 20
161.254
 30
0.00000
  70
    32
  0
VERTEX
  8
0
  5
25BD
 10
91.2628
 20
161.259
 30
0.00000
  70
    32
  0
VERTEX
  8
0
  5
25BE
 10
91.2510
 20
161.264
 30
0.00000
  70
    32
  0
VERTEX
  8
0
  5
25BF
 10
91.2390
 20
161.269
 30
0.00000
  70
    32
  0
VERTEX
  8
0
  5
25C0
 10
91.2271
 20
161.273
 30
0.00000
  70
    32
  0
VERTEX
  8
0
  5
25C1
 10
91.2152
 20
161.278
 30
0.00000
  70
    32
  0
VERTEX
  8
0
  5
25C2
 10
91.2032
 20
161.283
 30
0.00000
  70
    32
  0
VERTEX
  8
0
  5
25C3
 10
91.1912
 20
161.288
 30
0.00000
  70
    32
  0
VERTEX
  8
0
  5
25C4
 10
91.1792
 20
161.292
 30
0.00000
  70
    32
  0
VERTEX
  8
0
  5
25C5
 10
91.1672
 20
161.297
 30
0.00000
  70
    32
  0
VERTEX
  8
0
  5
25C6
 10
91.1552
 20
161.302
 30
0.00000
  70
    32
  0
VERTEX
  8
0
  5
25C7
 10
91.1431
 20
161.306
 30
0.00000
  70
    32
  0
VERTEX
  8
0
  5
25C8
 10
91.1311
 20
161.311
 30
0.00000
  70
    32
  0
VERTEX
  8
0
  5
25C9
 10
91.1190
 20
161.315
 30
0.00000
  70
    32
  0
VERTEX
  8
0
  5
25CA
 10
91.1069
 20
161.320
 30
0.00000
  70
    32
  0
VERTEX
  8
0
  5
25CB
 10
91.0948
 20
161.324
 30
0.00000
  70
    32
  0
VERTEX
  8
0
  5
25CC
 10
91.0826
 20
161.329
 30
0.00000
  70
    32
  0
VERTEX
  8
0
  5
25CD
 10
91.0705
 20
161.333
 30
0.00000
  70
    32
  0
VERTEX
  8
0
  5
25CE
 10
91.0583
 20
161.338
 30
0.00000
  70
    32
  0
VERTEX
  8
0
  5
25CF
 10
91.0461
 20
161.342
 30
0.00000
  70
    32
  0
VERTEX
  8
0
  5
25D0
 10
91.0339
 20
161.346
 30
0.00000
  70
    32
  0
VERTEX
  8
0
  5
25D1
 10
91.0217
 20
161.351
 30
0.00000
  70
    32
  0
VERTEX
  8
0
  5
25D2
 10
91.0094
 20
161.355
 30
0.00000
  70
    32
  0
VERTEX
  8
0
  5
25D3
 10
90.9972
 20
161.359
 30
0.00000
  70
    32
  0
VERTEX
  8
0
  5
25D4
 10
90.9849
 20
161.364
 30
0.00000
  70
    32
  0
VERTEX
  8
0
  5
25D5
 10
90.9726
 20
161.368
 30
0.00000
  70
    32
  0
VERTEX
  8
0
  5
25D6
 10
90.9603
 20
161.372
 30
0.00000
  70
    32
  0
VERTEX
  8
0
  5
25D7
 10
90.9479
 20
161.376
 30
0.00000
  70
    32
  0
VERTEX
  8
0
  5
25D8
 10
90.9356
 20
161.380
 30
0.00000
  70
    32
  0
VERTEX
  8
0
  5
25D9
 10
90.9232
 20
161.385
 30
0.00000
  70
    32
  0
VERTEX
  8
0
  5
25DA
 10
90.9109
 20
161.389
 30
0.00000
  70
    32
  0
VERTEX
  8
0
  5
25DB
 10
90.8985
 20
161.393
 30
0.00000
  70
    32
  0
VERTEX
  8
0
  5
25DC
 10
90.8861
 20
161.397
 30
0.00000
  70
    32
  0
VERTEX
  8
0
  5
25DD
 10
90.8737
 20
161.401
 30
0.00000
  70
    32
  0
VERTEX
  8
0
  5
25DE
 10
90.8612
 20
161.405
 30
0.00000
  70
    32
  0
VERTEX
  8
0
  5
25DF
 10
90.8488
 20
161.409
 30
0.00000
  70
    32
  0
VERTEX
  8
0
  5
25E0
 10
90.8363
 20
161.413
 30
0.00000
  70
    32
  0
VERTEX
  8
0
  5
25E1
 10
90.8238
 20
161.417
 30
0.00000
  70
    32
  0
VERTEX
  8
0
  5
25E2
 10
90.8113
 20
161.421
 30
0.00000
  70
    32
  0
VERTEX
  8
0
  5
25E3
 10
90.7988
 20
161.425
 30
0.00000
  70
    32
  0
VERTEX
  8
0
  5
25E4
 10
90.7863
 20
161.428
 30
0.00000
  70
    32
  0
VERTEX
  8
0
  5
25E5
 10
90.7737
 20
161.432
 30
0.00000
  70
    32
  0
VERTEX
  8
0
  5
25E6
 10
90.7612
 20
161.436
 30
0.00000
  70
    32
  0
VERTEX
  8
0
  5
25E7
 10
90.7486
 20
161.440
 30
0.00000
  70
    32
  0
VERTEX
  8
0
  5
25E8
 10
90.7360
 20
161.444
 30
0.00000
  70
    32
  0
VERTEX
  8
0
  5
25E9
 10
90.7234
 20
161.447
 30
0.00000
  70
    32
  0
VERTEX
  8
0
  5
25EA
 10
90.7108
 20
161.451
 30
0.00000
  70
    32
  0
VERTEX
  8
0
  5
25EB
 10
90.6982
 20
161.455
 30
0.00000
  70
    32
  0
VERTEX
  8
0
  5
25EC
 10
90.6855
 20
161.458
 30
0.00000
  70
    32
  0
VERTEX
  8
0
  5
25ED
 10
90.6728
 20
161.462
 30
0.00000
  70
    32
  0
VERTEX
  8
0
  5
25EE
 10
90.6602
 20
161.466
 30
0.00000
  70
    32
  0
VERTEX
  8
0
  5
25EF
 10
90.6475
 20
161.469
 30
0.00000
  70
    32
  0
VERTEX
  8
0
  5
25F0
 10
90.6348
 20
161.473
 30
0.00000
  70
    32
  0
VERTEX
  8
0
  5
25F1
 10
90.6221
 20
161.476
 30
0.00000
  70
    32
  0
VERTEX
  8
0
  5
25F2
 10
90.6093
 20
161.480
 30
0.00000
  70
    32
  0
VERTEX
  8
0
  5
25F3
 10
90.5966
 20
161.483
 30
0.00000
  70
    32
  0
VERTEX
  8
0
  5
25F4
 10
90.5838
 20
161.487
 30
0.00000
  70
    32
  0
VERTEX
  8
0
  5
25F5
 10
90.5711
 20
161.490
 30
0.00000
  70
    32
  0
VERTEX
  8
0
  5
25F6
 10
90.5583
 20
161.494
 30
0.00000
  70
    32
  0
VERTEX
  8
0
  5
25F7
 10
90.5455
 20
161.497
 30
0.00000
  70
    32
  0
VERTEX
  8
0
  5
25F8
 10
90.5327
 20
161.500
 30
0.00000
  70
    32
  0
VERTEX
  8
0
  5
25F9
 10
90.5198
 20
161.504
 30
0.00000
  70
    32
  0
VERTEX
  8
0
  5
25FA
 10
90.5070
 20
161.507
 30
0.00000
  70
    32
  0
VERTEX
  8
0
  5
25FB
 10
90.4942
 20
161.510
 30
0.00000
  70
    32
  0
VERTEX
  8
0
  5
25FC
 10
90.4813
 20
161.513
 30
0.00000
  70
    32
  0
VERTEX
  8
0
  5
25FD
 10
90.4684
 20
161.517
 30
0.00000
  70
    32
  0
VERTEX
  8
0
  5
25FE
 10
90.4555
 20
161.520
 30
0.00000
  70
    32
  0
VERTEX
  8
0
  5
25FF
 10
90.4426
 20
161.523
 30
0.00000
  70
    32
  0
VERTEX
  8
0
  5
2600
 10
90.4297
 20
161.526
 30
0.00000
  70
    32
  0
VERTEX
  8
0
  5
2601
 10
90.4168
 20
161.529
 30
0.00000
  70
    32
  0
VERTEX
  8
0
  5
2602
 10
90.4039
 20
161.532
 30
0.00000
  70
    32
  0
VERTEX
  8
0
  5
2603
 10
90.3909
 20
161.535
 30
0.00000
  70
    32
  0
VERTEX
  8
0
  5
2604
 10
90.3780
 20
161.538
 30
0.00000
  70
    32
  0
VERTEX
  8
0
  5
2605
 10
90.3650
 20
161.541
 30
0.00000
  70
    32
  0
VERTEX
  8
0
  5
2606
 10
90.3520
 20
161.544
 30
0.00000
  70
    32
  0
VERTEX
  8
0
  5
2607
 10
90.3390
 20
161.547
 30
0.00000
  70
    32
  0
VERTEX
  8
0
  5
2608
 10
90.3260
 20
161.550
 30
0.00000
  70
    32
  0
VERTEX
  8
0
  5
2609
 10
90.3130
 20
161.553
 30
0.00000
  70
    32
  0
VERTEX
  8
0
  5
260A
 10
90.3000
 20
161.556
 30
0.00000
  70
    32
  0
VERTEX
  8
0
  5
260B
 10
90.2869
 20
161.559
 30
0.00000
  70
    32
  0
VERTEX
  8
0
  5
260C
 10
90.2739
 20
161.562
 30
0.00000
  70
    32
  0
VERTEX
  8
0
  5
260D
 10
90.2608
 20
161.564
 30
0.00000
  70
    32
  0
VERTEX
  8
0
  5
260E
 10
90.2478
 20
161.567
 30
0.00000
  70
    32
  0
VERTEX
  8
0
  5
260F
 10
90.2347
 20
161.570
 30
0.00000
  70
    32
  0
VERTEX
  8
0
  5
2610
 10
90.2216
 20
161.573
 30
0.00000
  70
    32
  0
VERTEX
  8
0
  5
2611
 10
90.2085
 20
161.575
 30
0.00000
  70
    32
  0
VERTEX
  8
0
  5
2612
 10
90.1954
 20
161.578
 30
0.00000
  70
    32
  0
VERTEX
  8
0
  5
2613
 10
90.1823
 20
161.581
 30
0.00000
  70
    32
  0
VERTEX
  8
0
  5
2614
 10
90.1691
 20
161.583
 30
0.00000
  70
    32
  0
VERTEX
  8
0
  5
2615
 10
90.1560
 20
161.586
 30
0.00000
  70
    32
  0
VERTEX
  8
0
  5
2616
 10
90.1428
 20
161.588
 30
0.00000
  70
    32
  0
VERTEX
  8
0
  5
2617
 10
90.1297
 20
161.591
 30
0.00000
  70
    32
  0
VERTEX
  8
0
  5
2618
 10
90.1165
 20
161.593
 30
0.00000
  70
    32
  0
VERTEX
  8
0
  5
2619
 10
90.1033
 20
161.596
 30
0.00000
  70
    32
  0
VERTEX
  8
0
  5
261A
 10
90.0901
 20
161.598
 30
0.00000
  70
    32
  0
VERTEX
  8
0
  5
261B
 10
90.0769
 20
161.601
 30
0.00000
  70
    32
  0
VERTEX
  8
0
  5
261C
 10
90.0637
 20
161.603
 30
0.00000
  70
    32
  0
VERTEX
  8
0
  5
261D
 10
90.0505
 20
161.605
 30
0.00000
  70
    32
  0
VERTEX
  8
0
  5
261E
 10
90.0373
 20
161.608
 30
0.00000
  70
    32
  0
VERTEX
  8
0
  5
261F
 10
90.0240
 20
161.610
 30
0.00000
  70
    32
  0
VERTEX
  8
0
  5
2620
 10
90.0108
 20
161.612
 30
0.00000
  70
    32
  0
VERTEX
  8
0
  5
2621
 10
89.9975
 20
161.614
 30
0.00000
  70
    32
  0
SEQEND
  8
0
  5
2622
  0
ARC
  5
20D6
  8
0
 10
86.3405219216934654
 20
158.2046893957727036
 30
0.0
 40
5.0000000004067431
 50
42.9962645195413984
 51
155.5873194534866002
  0
LINE
  5
20D7
  8
0
 10
81.3405219083622057
 20
160.6541791450260064
 30
0.0
 11
81.3405219083621347
 21
161.5213141660302938
 31
0.0
  0
ARC
  5
20D8
  8
0
 10
86.340521921693437
 20
158.2046893957725899
 30
0.0
 40
6.0000000000000728
 50
29.0101532025875706
 51
330.9898503611416913
  0
ARC
  5
20DA
  8
0
 10
86.4622981878964936
 20
158.2951680061077866
 30
0.0
 40
4.8492604551969078
 50
20.6422859959320917
 51
43.1955844321934705
  0
ARC
  5
20DB
  8
0
 10
86.4100735983038533
 20
158.1532869425138017
 30
0.0
 40
4.9140859357786466
 50
316.8890624610323243
 51
339.1554493535887218
  0
ARC
  5
20DC
  8
0
 10
87.0020206603673643
 20
158.5177232297025967
 30
0.0
 40
5.2698966683503761
 50
16.3893000265204201
 51
29.5216441413935904
  0
ARC
  5
20DD
  8
0
 10
86.7800848407094634
 20
157.9965668292342968
 30
0.0
 40
5.5147433436508582
 50
330.6660868560655899
 51
343.2223417606185762
  0
CIRCLE
  5
20DE
  8
0
 10
86.3405219216934654
 20
28.146893938571111
 30
0.0
 40
2.2026362048897141
  0
CIRCLE
  5
20DF
  8
0
 10
86.3405219216934654
 20
28.146893938571111
 30
0.0
 40
3.0
  0
CIRCLE
  5
20E0
  8
0
 10
86.3405219216934654
 20
28.1468939385711288
 30
0.0
 40
4.0
  0
LINE
  5
20E1
  8
0
 10
114.5405219216934967
 20
29.9468939385712396
 30
0.0
 11
92.0641571301951842
 21
29.9468939385712396
 31
0.0
  0
LINE
  5
20E3
  8
0
 10
92.0641571301951842
 20
26.3468939385712417
 30
0.0
 11
114.5405219216934967
 21
26.3468939385712417
 31
0.0
  0
ARC
  5
20E6
  8
0
 10
114.5405219216934967
 20
28.1468939385712602
 30
0.0
 40
1.800000000000004
 50
270.0
 51
90.0
  0
CIRCLE
  5
20E7
  8
3
 10
86.3405219216934654
 20
28.1468939385711288
 30
0.0
 40
4.9264999999536476
  0
CIRCLE
  5
20E8
  8
0
 10
86.3405219216934654
 20
28.1468939385711394
 30
0.0
 40
5.9999999999503251
  0
ARC
  5
20E9
  8
0
 10
27.0650038379838094
 20
117.0226526130939959
 30
0.0
 40
0.5999999999999459
 50
0.000026717894092
 51
90.0
  0
ARC
  5
20EA
  8
0
 10
19.2650038379836488
 20
117.0226526130939959
 30
0.0
 40
0.5999999999999459
 50
89.9999999999967457
 51
179.9999732821059126
  0
LINE
  5
20EB
  8
0
 10
27.6650038379837184
 20
115.0733162420886941
 30
0.0
 11
27.6650038379837504
 21
117.0226528928831016
 31
0.0
  0
LINE
  5
20EC
  8
0
 10
18.6650038379837184
 20
117.0226528928831016
 30
0.0
 11
18.6650038379837184
 21
115.0733162420886941
 31
0.0
  0
LINE
  5
20F6
  8
0
 10
29.1650038379836083
 20
79.2961526130939944
 30
0.0
 11
29.1650038379837184
 21
112.1899399730671973
 31
0.0
  0
LINE
  5
20F7
  8
0
 10
17.1650038379837184
 20
112.1899399730670979
 30
0.0
 11
17.1650038379836012
 21
79.2961526130940229
 31
0.0
  0
LINE
  5
20F8
  8
0
 10
17.1650038380299605
 20
79.2961526130940229
 30
0.0
 11
18.2385038380299491
 21
78.2226526130940272
 31
0.0
  0
LINE
  5
20F9
  8
0
 10
28.0915038379372604
 20
78.2226526130939988
 30
0.0
 11
29.1650038379372489
 21
79.2961526130939944
 31
0.0
  0
LINE
  5
20FA
  8
0
 10
27.0650788145610584
 20
117.622652613093905
 30
0.0
 11
19.2649288614063998
 21
117.6226526130940044
 31
0.0
  0
LINE
  5
20FF
  8
0
 10
26.4816298627762201
 20
115.8226526130939931
 30
0.0
 11
25.6144935858104006
 21
115.8226526180356046
 31
0.0
  0
POLYLINE
  5
2100
  8
0
 10
29.1650038379837184
 20
112.1899399730671689
 30
0.0
 66
     1
 70
     8
  0
VERTEX
  8
0
  5
2623
 10
29.1650
 20
112.190
 30
0.00000
  70
    32
  0
VERTEX
  8
0
  5
2624
 10
29.1648
 20
112.223
 30
0.00000
  70
    32
  0
VERTEX
  8
0
  5
2625
 10
29.1643
 20
112.257
 30
0.00000
  70
    32
  0
VERTEX
  8
0
  5
2626
 10
29.1634
 20
112.291
 30
0.00000
  70
    32
  0
VERTEX
  8
0
  5
2627
 10
29.1622
 20
112.324
 30
0.00000
  70
    32
  0
VERTEX
  8
0
  5
2628
 10
29.1606
 20
112.358
 30
0.00000
  70
    32
  0
VERTEX
  8
0
  5
2629
 10
29.1586
 20
112.391
 30
0.00000
  70
    32
  0
VERTEX
  8
0
  5
262A
 10
29.1563
 20
112.425
 30
0.00000
  70
    32
  0
VERTEX
  8
0
  5
262B
 10
29.1536
 20
112.458
 30
0.00000
  70
    32
  0
VERTEX
  8
0
  5
262C
 10
29.1506
 20
112.492
 30
0.00000
  70
    32
  0
VERTEX
  8
0
  5
262D
 10
29.1472
 20
112.525
 30
0.00000
  70
    32
  0
VERTEX
  8
0
  5
262E
 10
29.1435
 20
112.559
 30
0.00000
  70
    32
  0
VERTEX
  8
0
  5
262F
 10
29.1394
 20
112.592
 30
0.00000
  70
    32
  0
VERTEX
  8
0
  5
2630
 10
29.1350
 20
112.625
 30
0.00000
  70
    32
  0
VERTEX
  8
0
  5
2631
 10
29.1302
 20
112.659
 30
0.00000
  70
    32
  0
VERTEX
  8
0
  5
2632
 10
29.1251
 20
112.692
 30
0.00000
  70
    32
  0
VERTEX
  8
0
  5
2633
 10
29.1196
 20
112.725
 30
0.00000
  70
    32
  0
VERTEX
  8
0
  5
2634
 10
29.1137
 20
112.759
 30
0.00000
  70
    32
  0
VERTEX
  8
0
  5
2635
 10
29.1075
 20
112.792
 30
0.00000
  70
    32
  0
VERTEX
  8
0
  5
2636
 10
29.1010
 20
112.825
 30
0.00000
  70
    32
  0
VERTEX
  8
0
  5
2637
 10
29.0941
 20
112.858
 30
0.00000
  70
    32
  0
VERTEX
  8
0
  5
2638
 10
29.0868
 20
112.891
 30
0.00000
  70
    32
  0
VERTEX
  8
0
  5
2639
 10
29.0792
 20
112.925
 30
0.00000
  70
    32
  0
VERTEX
  8
0
  5
263A
 10
29.0712
 20
112.958
 30
0.00000
  70
    32
  0
VERTEX
  8
0
  5
263B
 10
29.0629
 20
112.991
 30
0.00000
  70
    32
  0
VERTEX
  8
0
  5
263C
 10
29.0543
 20
113.024
 30
0.00000
  70
    32
  0
VERTEX
  8
0
  5
263D
 10
29.0453
 20
113.056
 30
0.00000
  70
    32
  0
VERTEX
  8
0
  5
263E
 10
29.0359
 20
113.089
 30
0.00000
  70
    32
  0
VERTEX
  8
0
  5
263F
 10
29.0262
 20
113.122
 30
0.00000
  70
    32
  0
VERTEX
  8
0
  5
2640
 10
29.0162
 20
113.155
 30
0.00000
  70
    32
  0
VERTEX
  8
0
  5
2641
 10
29.0058
 20
113.188
 30
0.00000
  70
    32
  0
VERTEX
  8
0
  5
2642
 10
28.9950
 20
113.220
 30
0.00000
  70
    32
  0
VERTEX
  8
0
  5
2643
 10
28.9840
 20
113.253
 30
0.00000
  70
    32
  0
VERTEX
  8
0
  5
2644
 10
28.9725
 20
113.285
 30
0.00000
  70
    32
  0
VERTEX
  8
0
  5
2645
 10
28.9608
 20
113.318
 30
0.00000
  70
    32
  0
VERTEX
  8
0
  5
2646
 10
28.9486
 20
113.350
 30
0.00000
  70
    32
  0
VERTEX
  8
0
  5
2647
 10
28.9362
 20
113.382
 30
0.00000
  70
    32
  0
VERTEX
  8
0
  5
2648
 10
28.9234
 20
113.415
 30
0.00000
  70
    32
  0
VERTEX
  8
0
  5
2649
 10
28.9102
 20
113.447
 30
0.00000
  70
    32
  0
VERTEX
  8
0
  5
264A
 10
28.8968
 20
113.479
 30
0.00000
  70
    32
  0
VERTEX
  8
0
  5
264B
 10
28.8829
 20
113.511
 30
0.00000
  70
    32
  0
VERTEX
  8
0
  5
264C
 10
28.8688
 20
113.543
 30
0.00000
  70
    32
  0
VERTEX
  8
0
  5
264D
 10
28.8543
 20
113.575
 30
0.00000
  70
    32
  0
VERTEX
  8
0
  5
264E
 10
28.8394
 20
113.606
 30
0.00000
  70
    32
  0
VERTEX
  8
0
  5
264F
 10
28.8243
 20
113.638
 30
0.00000
  70
    32
  0
VERTEX
  8
0
  5
2650
 10
28.8088
 20
113.670
 30
0.00000
  70
    32
  0
VERTEX
  8
0
  5
2651
 10
28.7929
 20
113.701
 30
0.00000
  70
    32
  0
VERTEX
  8
0
  5
2652
 10
28.7767
 20
113.733
 30
0.00000
  70
    32
  0
VERTEX
  8
0
  5
2653
 10
28.7602
 20
113.764
 30
0.00000
  70
    32
  0
VERTEX
  8
0
  5
2654
 10
28.7434
 20
113.795
 30
0.00000
  70
    32
  0
VERTEX
  8
0
  5
2655
 10
28.7262
 20
113.826
 30
0.00000
  70
    32
  0
VERTEX
  8
0
  5
2656
 10
28.7087
 20
113.857
 30
0.00000
  70
    32
  0
VERTEX
  8
0
  5
2657
 10
28.6909
 20
113.888
 30
0.00000
  70
    32
  0
VERTEX
  8
0
  5
2658
 10
28.6727
 20
113.919
 30
0.00000
  70
    32
  0
VERTEX
  8
0
  5
2659
 10
28.6543
 20
113.950
 30
0.00000
  70
    32
  0
VERTEX
  8
0
  5
265A
 10
28.6355
 20
113.981
 30
0.00000
  70
    32
  0
VERTEX
  8
0
  5
265B
 10
28.6163
 20
114.011
 30
0.00000
  70
    32
  0
VERTEX
  8
0
  5
265C
 10
28.5969
 20
114.042
 30
0.00000
  70
    32
  0
VERTEX
  8
0
  5
265D
 10
28.5771
 20
114.072
 30
0.00000
  70
    32
  0
VERTEX
  8
0
  5
265E
 10
28.5570
 20
114.102
 30
0.00000
  70
    32
  0
VERTEX
  8
0
  5
265F
 10
28.5366
 20
114.132
 30
0.00000
  70
    32
  0
VERTEX
  8
0
  5
2660
 10
28.5159
 20
114.162
 30
0.00000
  70
    32
  0
VERTEX
  8
0
  5
2661
 10
28.4948
 20
114.192
 30
0.00000
  70
    32
  0
VERTEX
  8
0
  5
2662
 10
28.4734
 20
114.222
 30
0.00000
  70
    32
  0
VERTEX
  8
0
  5
2663
 10
28.4518
 20
114.251
 30
0.00000
  70
    32
  0
VERTEX
  8
0
  5
2664
 10
28.4298
 20
114.281
 30
0.00000
  70
    32
  0
VERTEX
  8
0
  5
2665
 10
28.4075
 20
114.310
 30
0.00000
  70
    32
  0
VERTEX
  8
0
  5
2666
 10
28.3849
 20
114.339
 30
0.00000
  70
    32
  0
VERTEX
  8
0
  5
2667
 10
28.3619
 20
114.369
 30
0.00000
  70
    32
  0
VERTEX
  8
0
  5
2668
 10
28.3387
 20
114.398
 30
0.00000
  70
    32
  0
VERTEX
  8
0
  5
2669
 10
28.3152
 20
114.426
 30
0.00000
  70
    32
  0
VERTEX
  8
0
  5
266A
 10
28.2913
 20
114.455
 30
0.00000
  70
    32
  0
VERTEX
  8
0
  5
266B
 10
28.2672
 20
114.484
 30
0.00000
  70
    32
  0
VERTEX
  8
0
  5
266C
 10
28.2427
 20
114.512
 30
0.00000
  70
    32
  0
VERTEX
  8
0
  5
266D
 10
28.2180
 20
114.541
 30
0.00000
  70
    32
  0
VERTEX
  8
0
  5
266E
 10
28.1929
 20
114.569
 30
0.00000
  70
    32
  0
VERTEX
  8
0
  5
266F
 10
28.1676
 20
114.597
 30
0.00000
  70
    32
  0
VERTEX
  8
0
  5
2670
 10
28.1419
 20
114.625
 30
0.00000
  70
    32
  0
VERTEX
  8
0
  5
2671
 10
28.1160
 20
114.652
 30
0.00000
  70
    32
  0
VERTEX
  8
0
  5
2672
 10
28.0898
 20
114.680
 30
0.00000
  70
    32
  0
VERTEX
  8
0
  5
2673
 10
28.0632
 20
114.708
 30
0.00000
  70
    32
  0
VERTEX
  8
0
  5
2674
 10
28.0364
 20
114.735
 30
0.00000
  70
    32
  0
VERTEX
  8
0
  5
2675
 10
28.0093
 20
114.762
 30
0.00000
  70
    32
  0
VERTEX
  8
0
  5
2676
 10
27.9819
 20
114.789
 30
0.00000
  70
    32
  0
VERTEX
  8
0
  5
2677
 10
27.9543
 20
114.816
 30
0.00000
  70
    32
  0
VERTEX
  8
0
  5
2678
 10
27.9263
 20
114.843
 30
0.00000
  70
    32
  0
VERTEX
  8
0
  5
2679
 10
27.8981
 20
114.869
 30
0.00000
  70
    32
  0
VERTEX
  8
0
  5
267A
 10
27.8695
 20
114.895
 30
0.00000
  70
    32
  0
VERTEX
  8
0
  5
267B
 10
27.8407
 20
114.922
 30
0.00000
  70
    32
  0
VERTEX
  8
0
  5
267C
 10
27.8117
 20
114.948
 30
0.00000
  70
    32
  0
VERTEX
  8
0
  5
267D
 10
27.7823
 20
114.974
 30
0.00000
  70
    32
  0
VERTEX
  8
0
  5
267E
 10
27.7527
 20
114.999
 30
0.00000
  70
    32
  0
VERTEX
  8
0
  5
267F
 10
27.7228
 20
115.025
 30
0.00000
  70
    32
  0
VERTEX
  8
0
  5
2680
 10
27.6926
 20
115.050
 30
0.00000
  70
    32
  0
VERTEX
  8
0
  5
2681
 10
27.6622
 20
115.076
 30
0.00000
  70
    32
  0
VERTEX
  8
0
  5
2682
 10
27.6315
 20
115.101
 30
0.00000
  70
    32
  0
VERTEX
  8
0
  5
2683
 10
27.6005
 20
115.126
 30
0.00000
  70
    32
  0
VERTEX
  8
0
  5
2684
 10
27.5693
 20
115.150
 30
0.00000
  70
    32
  0
VERTEX
  8
0
  5
2685
 10
27.5378
 20
115.175
 30
0.00000
  70
    32
  0
VERTEX
  8
0
  5
2686
 10
27.5061
 20
115.199
 30
0.00000
  70
    32
  0
VERTEX
  8
0
  5
2687
 10
27.4741
 20
115.223
 30
0.00000
  70
    32
  0
VERTEX
  8
0
  5
2688
 10
27.4418
 20
115.247
 30
0.00000
  70
    32
  0
VERTEX
  8
0
  5
2689
 10
27.4093
 20
115.271
 30
0.00000
  70
    32
  0
VERTEX
  8
0
  5
268A
 10
27.3765
 20
115.295
 30
0.00000
  70
    32
  0
VERTEX
  8
0
  5
268B
 10
27.3435
 20
115.318
 30
0.00000
  70
    32
  0
VERTEX
  8
0
  5
268C
 10
27.3103
 20
115.342
 30
0.00000
  70
    32
  0
VERTEX
  8
0
  5
268D
 10
27.2767
 20
115.365
 30
0.00000
  70
    32
  0
VERTEX
  8
0
  5
268E
 10
27.2430
 20
115.388
 30
0.00000
  70
    32
  0
VERTEX
  8
0
  5
268F
 10
27.2090
 20
115.410
 30
0.00000
  70
    32
  0
VERTEX
  8
0
  5
2690
 10
27.1748
 20
115.433
 30
0.00000
  70
    32
  0
VERTEX
  8
0
  5
2691
 10
27.1403
 20
115.455
 30
0.00000
  70
    32
  0
VERTEX
  8
0
  5
2692
 10
27.1056
 20
115.477
 30
0.00000
  70
    32
  0
VERTEX
  8
0
  5
2693
 10
27.0707
 20
115.499
 30
0.00000
  70
    32
  0
VERTEX
  8
0
  5
2694
 10
27.0355
 20
115.521
 30
0.00000
  70
    32
  0
VERTEX
  8
0
  5
2695
 10
27.0001
 20
115.542
 30
0.00000
  70
    32
  0
VERTEX
  8
0
  5
2696
 10
26.9645
 20
115.564
 30
0.00000
  70
    32
  0
VERTEX
  8
0
  5
2697
 10
26.9286
 20
115.585
 30
0.00000
  70
    32
  0
VERTEX
  8
0
  5
2698
 10
26.8925
 20
115.606
 30
0.00000
  70
    32
  0
VERTEX
  8
0
  5
2699
 10
26.8562
 20
115.627
 30
0.00000
  70
    32
  0
VERTEX
  8
0
  5
269A
 10
26.8197
 20
115.647
 30
0.00000
  70
    32
  0
VERTEX
  8
0
  5
269B
 10
26.7830
 20
115.668
 30
0.00000
  70
    32
  0
VERTEX
  8
0
  5
269C
 10
26.7461
 20
115.688
 30
0.00000
  70
    32
  0
VERTEX
  8
0
  5
269D
 10
26.7089
 20
115.708
 30
0.00000
  70
    32
  0
VERTEX
  8
0
  5
269E
 10
26.6715
 20
115.727
 30
0.00000
  70
    32
  0
VERTEX
  8
0
  5
269F
 10
26.6340
 20
115.747
 30
0.00000
  70
    32
  0
VERTEX
  8
0
  5
26A0
 10
26.5962
 20
115.766
 30
0.00000
  70
    32
  0
VERTEX
  8
0
  5
26A1
 10
26.5582
 20
115.785
 30
0.00000
  70
    32
  0
VERTEX
  8
0
  5
26A2
 10
26.5200
 20
115.804
 30
0.00000
  70
    32
  0
VERTEX
  8
0
  5
26A3
 10
26.4816
 20
115.823
 30
0.00000
  70
    32
  0
SEQEND
  8
0
  5
26A4
  0
POLYLINE
  5
2101
  8
0
 10
19.848379065604437
 20
115.8226526217572143
 30
0.0
 66
     1
 70
     8
  0
VERTEX
  8
0
  5
26A5
 10
19.8484
 20
115.823
 30
0.00000
  70
    32
  0
VERTEX
  8
0
  5
26A6
 10
19.8100
 20
115.804
 30
0.00000
  70
    32
  0
VERTEX
  8
0
  5
26A7
 10
19.7718
 20
115.785
 30
0.00000
  70
    32
  0
VERTEX
  8
0
  5
26A8
 10
19.7338
 20
115.766
 30
0.00000
  70
    32
  0
VERTEX
  8
0
  5
26A9
 10
19.6961
 20
115.747
 30
0.00000
  70
    32
  0
VERTEX
  8
0
  5
26AA
 10
19.6585
 20
115.727
 30
0.00000
  70
    32
  0
VERTEX
  8
0
  5
26AB
 10
19.6211
 20
115.708
 30
0.00000
  70
    32
  0
VERTEX
  8
0
  5
26AC
 10
19.5840
 20
115.688
 30
0.00000
  70
    32
  0
VERTEX
  8
0
  5
26AD
 10
19.5470
 20
115.668
 30
0.00000
  70
    32
  0
VERTEX
  8
0
  5
26AE
 10
19.5103
 20
115.647
 30
0.00000
  70
    32
  0
VERTEX
  8
0
  5
26AF
 10
19.4738
 20
115.627
 30
0.00000
  70
    32
  0
VERTEX
  8
0
  5
26B0
 10
19.4375
 20
115.606
 30
0.00000
  70
    32
  0
VERTEX
  8
0
  5
26B1
 10
19.4014
 20
115.585
 30
0.00000
  70
    32
  0
VERTEX
  8
0
  5
26B2
 10
19.3655
 20
115.564
 30
0.00000
  70
    32
  0
VERTEX
  8
0
  5
26B3
 10
19.3299
 20
115.542
 30
0.00000
  70
    32
  0
VERTEX
  8
0
  5
26B4
 10
19.2945
 20
115.521
 30
0.00000
  70
    32
  0
VERTEX
  8
0
  5
26B5
 10
19.2594
 20
115.499
 30
0.00000
  70
    32
  0
VERTEX
  8
0
  5
26B6
 10
19.2244
 20
115.477
 30
0.00000
  70
    32
  0
VERTEX
  8
0
  5
26B7
 10
19.1897
 20
115.455
 30
0.00000
  70
    32
  0
VERTEX
  8
0
  5
26B8
 10
19.1552
 20
115.433
 30
0.00000
  70
    32
  0
VERTEX
  8
0
  5
26B9
 10
19.1210
 20
115.410
 30
0.00000
  70
    32
  0
VERTEX
  8
0
  5
26BA
 10
19.0870
 20
115.388
 30
0.00000
  70
    32
  0
VERTEX
  8
0
  5
26BB
 10
19.0533
 20
115.365
 30
0.00000
  70
    32
  0
VERTEX
  8
0
  5
26BC
 10
19.0198
 20
115.342
 30
0.00000
  70
    32
  0
VERTEX
  8
0
  5
26BD
 10
18.9865
 20
115.318
 30
0.00000
  70
    32
  0
VERTEX
  8
0
  5
26BE
 10
18.9535
 20
115.295
 30
0.00000
  70
    32
  0
VERTEX
  8
0
  5
26BF
 10
18.9207
 20
115.271
 30
0.00000
  70
    32
  0
VERTEX
  8
0
  5
26C0
 10
18.8882
 20
115.247
 30
0.00000
  70
    32
  0
VERTEX
  8
0
  5
26C1
 10
18.8559
 20
115.223
 30
0.00000
  70
    32
  0
VERTEX
  8
0
  5
26C2
 10
18.8239
 20
115.199
 30
0.00000
  70
    32
  0
VERTEX
  8
0
  5
26C3
 10
18.7922
 20
115.175
 30
0.00000
  70
    32
  0
VERTEX
  8
0
  5
26C4
 10
18.7607
 20
115.150
 30
0.00000
  70
    32
  0
VERTEX
  8
0
  5
26C5
 10
18.7295
 20
115.126
 30
0.00000
  70
    32
  0
VERTEX
  8
0
  5
26C6
 10
18.6985
 20
115.101
 30
0.00000
  70
    32
  0
VERTEX
  8
0
  5
26C7
 10
18.6678
 20
115.076
 30
0.00000
  70
    32
  0
VERTEX
  8
0
  5
26C8
 10
18.6374
 20
115.050
 30
0.00000
  70
    32
  0
VERTEX
  8
0
  5
26C9
 10
18.6072
 20
115.025
 30
0.00000
  70
    32
  0
VERTEX
  8
0
  5
26CA
 10
18.5773
 20
114.999
 30
0.00000
  70
    32
  0
VERTEX
  8
0
  5
26CB
 10
18.5477
 20
114.974
 30
0.00000
  70
    32
  0
VERTEX
  8
0
  5
26CC
 10
18.5183
 20
114.948
 30
0.00000
  70
    32
  0
VERTEX
  8
0
  5
26CD
 10
18.4893
 20
114.922
 30
0.00000
  70
    32
  0
VERTEX
  8
0
  5
26CE
 10
18.4605
 20
114.895
 30
0.00000
  70
    32
  0
VERTEX
  8
0
  5
26CF
 10
18.4319
 20
114.869
 30
0.00000
  70
    32
  0
VERTEX
  8
0
  5
26D0
 10
18.4037
 20
114.843
 30
0.00000
  70
    32
  0
VERTEX
  8
0
  5
26D1
 10
18.3757
 20
114.816
 30
0.00000
  70
    32
  0
VERTEX
  8
0
  5
26D2
 10
18.3481
 20
114.789
 30
0.00000
  70
    32
  0
VERTEX
  8
0
  5
26D3
 10
18.3207
 20
114.762
 30
0.00000
  70
    32
  0
VERTEX
  8
0
  5
26D4
 10
18.2936
 20
114.735
 30
0.00000
  70
    32
  0
VERTEX
  8
0
  5
26D5
 10
18.2668
 20
114.708
 30
0.00000
  70
    32
  0
VERTEX
  8
0
  5
26D6
 10
18.2402
 20
114.680
 30
0.00000
  70
    32
  0
VERTEX
  8
0
  5
26D7
 10
18.2140
 20
114.652
 30
0.00000
  70
    32
  0
VERTEX
  8
0
  5
26D8
 10
18.1881
 20
114.625
 30
0.00000
  70
    32
  0
VERTEX
  8
0
  5
26D9
 10
18.1624
 20
114.597
 30
0.00000
  70
    32
  0
VERTEX
  8
0
  5
26DA
 10
18.1371
 20
114.569
 30
0.00000
  70
    32
  0
VERTEX
  8
0
  5
26DB
 10
18.1120
 20
114.541
 30
0.00000
  70
    32
  0
VERTEX
  8
0
  5
26DC
 10
18.0873
 20
114.512
 30
0.00000
  70
    32
  0
VERTEX
  8
0
  5
26DD
 10
18.0628
 20
114.484
 30
0.00000
  70
    32
  0
VERTEX
  8
0
  5
26DE
 10
18.0387
 20
114.455
 30
0.00000
  70
    32
  0
VERTEX
  8
0
  5
26DF
 10
18.0148
 20
114.426
 30
0.00000
  70
    32
  0
VERTEX
  8
0
  5
26E0
 10
17.9913
 20
114.398
 30
0.00000
  70
    32
  0
VERTEX
  8
0
  5
26E1
 10
17.9681
 20
114.369
 30
0.00000
  70
    32
  0
VERTEX
  8
0
  5
26E2
 10
17.9452
 20
114.339
 30
0.00000
  70
    32
  0
VERTEX
  8
0
  5
26E3
 10
17.9225
 20
114.310
 30
0.00000
  70
    32
  0
VERTEX
  8
0
  5
26E4
 10
17.9002
 20
114.281
 30
0.00000
  70
    32
  0
VERTEX
  8
0
  5
26E5
 10
17.8782
 20
114.251
 30
0.00000
  70
    32
  0
VERTEX
  8
0
  5
26E6
 10
17.8566
 20
114.222
 30
0.00000
  70
    32
  0
VERTEX
  8
0
  5
26E7
 10
17.8352
 20
114.192
 30
0.00000
  70
    32
  0
VERTEX
  8
0
  5
26E8
 10
17.8141
 20
114.162
 30
0.00000
  70
    32
  0
VERTEX
  8
0
  5
26E9
 10
17.7934
 20
114.132
 30
0.00000
  70
    32
  0
VERTEX
  8
0
  5
26EA
 10
17.7730
 20
114.102
 30
0.00000
  70
    32
  0
VERTEX
  8
0
  5
26EB
 10
17.7529
 20
114.072
 30
0.00000
  70
    32
  0
VERTEX
  8
0
  5
26EC
 10
17.7331
 20
114.042
 30
0.00000
  70
    32
  0
VERTEX
  8
0
  5
26ED
 10
17.7137
 20
114.011
 30
0.00000
  70
    32
  0
VERTEX
  8
0
  5
26EE
 10
17.6945
 20
113.981
 30
0.00000
  70
    32
  0
VERTEX
  8
0
  5
26EF
 10
17.6757
 20
113.950
 30
0.00000
  70
    32
  0
VERTEX
  8
0
  5
26F0
 10
17.6573
 20
113.919
 30
0.00000
  70
    32
  0
VERTEX
  8
0
  5
26F1
 10
17.6391
 20
113.888
 30
0.00000
  70
    32
  0
VERTEX
  8
0
  5
26F2
 10
17.6213
 20
113.857
 30
0.00000
  70
    32
  0
VERTEX
  8
0
  5
26F3
 10
17.6038
 20
113.826
 30
0.00000
  70
    32
  0
VERTEX
  8
0
  5
26F4
 10
17.5866
 20
113.795
 30
0.00000
  70
    32
  0
VERTEX
  8
0
  5
26F5
 10
17.5698
 20
113.764
 30
0.00000
  70
    32
  0
VERTEX
  8
0
  5
26F6
 10
17.5533
 20
113.733
 30
0.00000
  70
    32
  0
VERTEX
  8
0
  5
26F7
 10
17.5371
 20
113.701
 30
0.00000
  70
    32
  0
VERTEX
  8
0
  5
26F8
 10
17.5213
 20
113.670
 30
0.00000
  70
    32
  0
VERTEX
  8
0
  5
26F9
 10
17.5057
 20
113.638
 30
0.00000
  70
    32
  0
VERTEX
  8
0
  5
26FA
 10
17.4906
 20
113.606
 30
0.00000
  70
    32
  0
VERTEX
  8
0
  5
26FB
 10
17.4757
 20
113.575
 30
0.00000
  70
    32
  0
VERTEX
  8
0
  5
26FC
 10
17.4612
 20
113.543
 30
0.00000
  70
    32
  0
VERTEX
  8
0
  5
26FD
 10
17.4471
 20
113.511
 30
0.00000
  70
    32
  0
VERTEX
  8
0
  5
26FE
 10
17.4333
 20
113.479
 30
0.00000
  70
    32
  0
VERTEX
  8
0
  5
26FF
 10
17.4198
 20
113.447
 30
0.00000
  70
    32
  0
VERTEX
  8
0
  5
2700
 10
17.4066
 20
113.415
 30
0.00000
  70
    32
  0
VERTEX
  8
0
  5
2701
 10
17.3938
 20
113.382
 30
0.00000
  70
    32
  0
VERTEX
  8
0
  5
2702
 10
17.3814
 20
113.350
 30
0.00000
  70
    32
  0
VERTEX
  8
0
  5
2703
 10
17.3692
 20
113.318
 30
0.00000
  70
    32
  0
VERTEX
  8
0
  5
2704
 10
17.3575
 20
113.285
 30
0.00000
  70
    32
  0
VERTEX
  8
0
  5
2705
 10
17.3460
 20
113.253
 30
0.00000
  70
    32
  0
VERTEX
  8
0
  5
2706
 10
17.3350
 20
113.220
 30
0.00000
  70
    32
  0
VERTEX
  8
0
  5
2707
 10
17.3242
 20
113.188
 30
0.00000
  70
    32
  0
VERTEX
  8
0
  5
2708
 10
17.3138
 20
113.155
 30
0.00000
  70
    32
  0
VERTEX
  8
0
  5
2709
 10
17.3038
 20
113.122
 30
0.00000
  70
    32
  0
VERTEX
  8
0
  5
270A
 10
17.2941
 20
113.089
 30
0.00000
  70
    32
  0
VERTEX
  8
0
  5
270B
 10
17.2847
 20
113.056
 30
0.00000
  70
    32
  0
VERTEX
  8
0
  5
270C
 10
17.2757
 20
113.024
 30
0.00000
  70
    32
  0
VERTEX
  8
0
  5
270D
 10
17.2671
 20
112.991
 30
0.00000
  70
    32
  0
VERTEX
  8
0
  5
270E
 10
17.2588
 20
112.958
 30
0.00000
  70
    32
  0
VERTEX
  8
0
  5
270F
 10
17.2508
 20
112.925
 30
0.00000
  70
    32
  0
VERTEX
  8
0
  5
2710
 10
17.2432
 20
112.891
 30
0.00000
  70
    32
  0
VERTEX
  8
0
  5
2711
 10
17.2359
 20
112.858
 30
0.00000
  70
    32
  0
VERTEX
  8
0
  5
2712
 10
17.2290
 20
112.825
 30
0.00000
  70
    32
  0
VERTEX
  8
0
  5
2713
 10
17.2225
 20
112.792
 30
0.00000
  70
    32
  0
VERTEX
  8
0
  5
2714
 10
17.2163
 20
112.759
 30
0.00000
  70
    32
  0
VERTEX
  8
0
  5
2715
 10
17.2104
 20
112.725
 30
0.00000
  70
    32
  0
VERTEX
  8
0
  5
2716
 10
17.2049
 20
112.692
 30
0.00000
  70
    32
  0
VERTEX
  8
0
  5
2717
 10
17.1998
 20
112.659
 30
0.00000
  70
    32
  0
VERTEX
  8
0
  5
2718
 10
17.1950
 20
112.625
 30
0.00000
  70
    32
  0
VERTEX
  8
0
  5
2719
 10
17.1906
 20
112.592
 30
0.00000
  70
    32
  0
VERTEX
  8
0
  5
271A
 10
17.1865
 20
112.559
 30
0.00000
  70
    32
  0
VERTEX
  8
0
  5
271B
 10
17.1828
 20
112.525
 30
0.00000
  70
    32
  0
VERTEX
  8
0
  5
271C
 10
17.1794
 20
112.492
 30
0.00000
  70
    32
  0
VERTEX
  8
0
  5
271D
 10
17.1764
 20
112.458
 30
0.00000
  70
    32
  0
VERTEX
  8
0
  5
271E
 10
17.1737
 20
112.425
 30
0.00000
  70
    32
  0
VERTEX
  8
0
  5
271F
 10
17.1714
 20
112.391
 30
0.00000
  70
    32
  0
VERTEX
  8
0
  5
2720
 10
17.1694
 20
112.358
 30
0.00000
  70
    32
  0
VERTEX
  8
0
  5
2721
 10
17.1678
 20
112.324
 30
0.00000
  70
    32
  0
VERTEX
  8
0
  5
2722
 10
17.1666
 20
112.291
 30
0.00000
  70
    32
  0
VERTEX
  8
0
  5
2723
 10
17.1657
 20
112.257
 30
0.00000
  70
    32
  0
VERTEX
  8
0
  5
2724
 10
17.1652
 20
112.223
 30
0.00000
  70
    32
  0
VERTEX
  8
0
  5
2725
 10
17.1650
 20
112.190
 30
0.00000
  70
    32
  0
SEQEND
  8
0
  5
2726
  0
LINE
  5
2102
  8
0
 10
20.715514095200561
 20
115.8226526130939931
 30
0.0
 11
19.8483790677260714
 21
115.8226526130939931
 31
0.0
  0
ARC
  5
2103
  8
0
 10
23.1650038379837184
 20
118.3226526130938936
 30
0.0
 40
3.4999999999999241
 50
225.5846914028055892
 51
314.4153085971946098
  0
LINE
  5
2104
  8
0
 10
17.1650038380332788
 20
79.2961526130178527
 30
0.0
 11
29.1650038379339307
 21
79.296152613170193
 31
0.0
  0
LINE
  5
2105
  8
0
 10
18.2385038380299491
 20
78.2226526130940272
 30
0.0
 11
28.0915038379372604
 21
78.2226526130939988
 31
0.0
  0
LINE
  5
2106
  8
0
 10
27.6650038379837184
 20
117.0226528928831016
 30
0.0
 11
18.6650038379837717
 21
117.0226528928831016
 31
0.0
  0
ARC
  5
2107
  8
0
 10
82.4405219216934313
 20
117.0226526130939959
 30
0.0
 40
0.5999999999999602
 50
90.0
 51
179.9999732821059126
  0
LINE
  5
2108
  8
0
 10
81.8405219216934654
 20
117.0226528928831016
 30
0.0
 11
81.8405219216934654
 21
115.4593813490913021
 31
0.0
  0
LINE
  5
2112
  8
0
 10
92.3405219216934654
 20
106.8226526130939931
 30
0.0
 11
112.1405219216935052
 21
106.8226526130939931
 31
0.0
  0
LINE
  5
2113
  8
0
 10
116.3405219216933943
 20
111.0226526130939959
 30
0.0
 11
116.3405219216933943
 21
113.4226526130940016
 31
0.0
  0
LINE
  5
2114
  8
0
 10
112.1405219216935052
 20
117.6226526130940044
 30
0.0
 11
82.4405219216934313
 21
117.6226526130940044
 31
0.0
  0
ARC
  5
2115
  8
0
 10
112.1405219216935052
 20
113.4226526130940016
 30
0.0
 40
4.2000000000000171
 50
0.0
 51
90.0
  0
ARC
  5
2116
  8
0
 10
112.1405219216935052
 20
111.0226526130939959
 30
0.0
 40
4.2000000000000171
 50
270.0
 51
0.0000000000004071
  0
LINE
  5
2117
  8
0
 10
92.3405219216934654
 20
79.2961526130940229
 30
0.0
 11
92.3405219216934654
 21
106.8226526130939931
 31
0.0
  0
LINE
  5
2118
  8
0
 10
80.3405219216934654
 20
114.8309489132046934
 30
0.0
 11
80.3405219216934654
 21
79.2961526130940229
 31
0.0
  0
LINE
  5
2119
  8
0
 10
80.3405219217398638
 20
79.2961526130940229
 30
0.0
 11
81.4140219217398169
 21
78.2226526130939988
 31
0.0
  0
LINE
  5
211A
  8
0
 10
91.2670219216471139
 20
78.2226526130939988
 30
0.0
 11
92.340521921647138
 21
79.2961526130940229
 31
0.0
  0
ARC
  5
211D
  8
0
 10
90.2458915579486245
 20
117.1959411600547014
 30
0.0
 40
0.426744299992417
 50
336.0417730134753924
 51
90.7108927690253779
  0
ARC
  5
211E
  8
0
 10
94.8781589486546153
 20
115.8058387570398935
 30
0.0
 40
4.413350929520683
 50
163.9955468229300095
 51
179.781717606855409
  0
LINE
  5
211F
  8
0
 10
90.4648400471538423
 20
109.1934474558969015
 30
0.0
 11
90.4648400471537855
 21
115.8226524644451985
 31
0.0
  0
ARC
  5
2120
  8
0
 10
100.7406623229356057
 20
112.2226526130939988
 30
0.0
 40
2.947880597940244
 50
90.0027288753206136
 51
269.9972711246794006
  0
ARC
  5
212A
  8
0
 10
109.1282937893667935
 20
111.026339533713795
 30
0.0
 40
3.6122300139050219
 50
326.5011707409163932
 51
359.9415194971589926
  0
LINE
  5
212B
  8
0
 10
112.7405219216934995
 20
113.4226526130940016
 30
0.0
 11
112.7405219216934995
 21
111.0226526130939959
 31
0.0
  0
ARC
  5
212C
  8
0
 10
109.128293789366893
 20
113.4189656924742025
 30
0.0
 40
3.6122300139048571
 50
0.0584805028409351
 51
33.4988292590857597
  0
LINE
  5
212D
  8
0
 10
104.6405219216935052
 20
115.4126274873070059
 30
0.0
 11
112.1405219216935052
 21
115.4126274873070059
 31
0.0
  0
LINE
  5
212E
  8
0
 10
101.7405219216934995
 20
111.9226526130940016
 30
0.0
 11
104.6405219216935052
 21
115.4126274873070059
 31
0.0
  0
LINE
  5
212F
  8
0
 10
104.6405219216935052
 20
109.0326777388810058
 30
0.0
 11
101.7405219216934995
 21
111.9226526130940016
 31
0.0
  0
LINE
  5
2130
  8
0
 10
112.1405219216935052
 20
109.0326777388810058
 30
0.0
 11
104.6405219216935052
 21
109.0326777388810058
 31
0.0
  0
LINE
  5
2131
  8
0
 10
100.7405219216934995
 20
115.1705332076906956
 30
0.0
 11
100.7405219216934995
 21
109.2747720184972025
 31
0.0
  0
LINE
  5
213B
  8
0
 10
81.3405227405268363
 20
115.8226526130939931
 30
0.0
 11
80.8632963488973644
 21
115.8226526180356046
 31
0.0
  0
LINE
  5
213C
  8
0
 10
91.587724721757894
 20
108.3776239857515975
 30
0.0
 11
81.3405226540849924
 21
115.8226520809804043
 31
0.0
  0
POLYLINE
  5
213D
  8
0
 66
     1
 10
0.0
 20
0.0
 30
0.0
 70
   128
  0
VERTEX
  5
2412
  8
0
 10
92.3342355066247649
 20
106.8334478328941941
 30
0.0
  0
VERTEX
  5
2413
  8
0
 10
92.3377048066989374
 20
106.827484154177796
 30
0.0
  0
VERTEX
  5
2414
  8
0
 10
92.3008345584325554
 20
106.891133018559799
 30
0.0
  0
VERTEX
  5
2415
  8
0
 10
92.2215732431520507
 20
107.0307284575841038
 30
0.0
  0
VERTEX
  5
2416
  8
0
 10
92.1088086754735684
 20
107.2366953752446932
 30
0.0
  0
VERTEX
  5
2417
  8
0
 10
91.9671391732143064
 20
107.5103898773043056
 30
0.0
  0
VERTEX
  5
2418
  8
0
 10
91.7816195359476126
 20
107.9028296344771007
 30
0.0
  0
VERTEX
  5
2419
  8
0
 10
91.58772479371126
 20
108.3776235695803933
 30
0.0
  0
SEQEND
  5
241A
  8
0
  0
ARC
  5
213E
  8
0
 10
70.2514469366209084
 20
120.7338510498456969
 30
0.0
 40
11.6932124750264208
 50
329.6809668516801253
 51
335.165146883534419
  0
LINE
  5
213F
  8
0
 10
80.3405219216934654
 20
79.2961526130940229
 30
0.0
 11
92.3405219216934654
 21
79.2961526130940229
 31
0.0
  0
LINE
  5
2141
  8
0
 10
81.4140219217398169
 20
78.2226526130939988
 30
0.0
 11
91.2670219216471139
 21
78.2226526130939988
 31
0.0
  0
LINE
  5
2142
  8
0
 10
90.635868318841716
 20
117.0226528928831016
 30
0.0
 11
81.8405219216934654
 21
117.0226528928831016
 31
0.0
  0
ARC
  5
2148
  8
0
 10
172.3773215042226923
 20
117.0226526130939959
 30
0.0
 40
0.5999999999999743
 50
0.000026717894092
 51
90.0
  0
ARC
  5
2149
  8
0
 10
164.5773215042225956
 20
117.0226526130938964
 30
0.0
 40
0.5999999999999743
 50
90.0
 51
179.9999732821059126
  0
LINE
  5
214A
  8
0
 10
172.9773215042226866
 20
110.6064772441872037
 30
0.0
 11
172.9773215042226866
 21
117.0226528928831016
 31
0.0
  0
LINE
  5
214B
  8
0
 10
163.9773215042226013
 20
117.0226528928831016
 30
0.0
 11
163.9773215042226866
 21
110.6064772441872037
 31
0.0
  0
LINE
  5
2155
  8
0
 10
174.4773215042228003
 20
79.2961526130939944
 30
0.0
 11
174.4773215042226866
 21
112.1899399730671973
 31
0.0
  0
LINE
  5
2156
  8
0
 10
162.4773215042226866
 20
112.1899399730670979
 30
0.0
 11
162.4773215042228003
 21
79.2961526130939802
 31
0.0
  0
LINE
  5
2157
  8
0
 10
162.4773215042690993
 20
79.2961526130939802
 30
0.0
 11
163.5508215042690949
 21
78.2226526130939845
 31
0.0
  0
LINE
  5
2158
  8
0
 10
173.403821504176392
 20
78.222652613094013
 30
0.0
 11
174.4773215041763876
 21
79.2961526130939944
 31
0.0
  0
LINE
  5
2159
  8
0
 10
170.2773215042226127
 20
115.8226526130939931
 30
0.0
 11
170.277321504222698
 21
108.6226526130940044
 31
0.0
  0
LINE
  5
215B
  8
0
 10
166.67732150422259
 20
108.6226526130940044
 30
0.0
 11
166.67732150422259
 21
115.8226526130939931
 31
0.0
  0
ARC
  5
215C
  8
0
 10
168.4773215042226866
 20
115.8226526130939931
 30
0.0
 40
1.8000000000000109
 50
0.0
 51
180.0000000000015064
  0
ARC
  5
215E
  8
0
 10
168.4773215042226866
 20
108.6226526130940044
 30
0.0
 40
1.8000000000000109
 50
180.0
 51
0.0000000000004071
  0
LINE
  5
2164
  8
0
 10
172.3773215042226923
 20
117.6226526130940044
 30
0.0
 11
164.5772465276452863
 21
117.622652613093905
 31
0.0
  0
POLYLINE
  5
2169
  8
0
 10
163.9773215042226298
 20
115.0733162420887083
 30
0.0
 66
     1
 70
     8
  0
VERTEX
  8
0
  5
2727
 10
163.977
 20
115.073
 30
0.00000
  70
    32
  0
VERTEX
  8
0
  5
2728
 10
163.922
 20
115.027
 30
0.00000
  70
    32
  0
VERTEX
  8
0
  5
2729
 10
163.868
 20
114.981
 30
0.00000
  70
    32
  0
VERTEX
  8
0
  5
272A
 10
163.815
 20
114.934
 30
0.00000
  70
    32
  0
VERTEX
  8
0
  5
272B
 10
163.763
 20
114.886
 30
0.00000
  70
    32
  0
VERTEX
  8
0
  5
272C
 10
163.711
 20
114.838
 30
0.00000
  70
    32
  0
VERTEX
  8
0
  5
272D
 10
163.661
 20
114.790
 30
0.00000
  70
    32
  0
VERTEX
  8
0
  5
272E
 10
163.612
 20
114.741
 30
0.00000
  70
    32
  0
VERTEX
  8
0
  5
272F
 10
163.563
 20
114.691
 30
0.00000
  70
    32
  0
VERTEX
  8
0
  5
2730
 10
163.515
 20
114.641
 30
0.00000
  70
    32
  0
VERTEX
  8
0
  5
2731
 10
163.469
 20
114.590
 30
0.00000
  70
    32
  0
VERTEX
  8
0
  5
2732
 10
163.423
 20
114.539
 30
0.00000
  70
    32
  0
VERTEX
  8
0
  5
2733
 10
163.378
 20
114.488
 30
0.00000
  70
    32
  0
VERTEX
  8
0
  5
2734
 10
163.335
 20
114.436
 30
0.00000
  70
    32
  0
VERTEX
  8
0
  5
2735
 10
163.292
 20
114.383
 30
0.00000
  70
    32
  0
VERTEX
  8
0
  5
2736
 10
163.251
 20
114.331
 30
0.00000
  70
    32
  0
VERTEX
  8
0
  5
2737
 10
163.210
 20
114.277
 30
0.00000
  70
    32
  0
VERTEX
  8
0
  5
2738
 10
163.170
 20
114.224
 30
0.00000
  70
    32
  0
VERTEX
  8
0
  5
2739
 10
163.132
 20
114.170
 30
0.00000
  70
    32
  0
VERTEX
  8
0
  5
273A
 10
163.094
 20
114.115
 30
0.00000
  70
    32
  0
VERTEX
  8
0
  5
273B
 10
163.058
 20
114.060
 30
0.00000
  70
    32
  0
VERTEX
  8
0
  5
273C
 10
163.022
 20
114.005
 30
0.00000
  70
    32
  0
VERTEX
  8
0
  5
273D
 10
162.988
 20
113.950
 30
0.00000
  70
    32
  0
VERTEX
  8
0
  5
273E
 10
162.955
 20
113.894
 30
0.00000
  70
    32
  0
VERTEX
  8
0
  5
273F
 10
162.922
 20
113.838
 30
0.00000
  70
    32
  0
VERTEX
  8
0
  5
2740
 10
162.891
 20
113.781
 30
0.00000
  70
    32
  0
VERTEX
  8
0
  5
2741
 10
162.861
 20
113.724
 30
0.00000
  70
    32
  0
VERTEX
  8
0
  5
2742
 10
162.832
 20
113.667
 30
0.00000
  70
    32
  0
VERTEX
  8
0
  5
2743
 10
162.805
 20
113.610
 30
0.00000
  70
    32
  0
VERTEX
  8
0
  5
2744
 10
162.778
 20
113.552
 30
0.00000
  70
    32
  0
VERTEX
  8
0
  5
2745
 10
162.752
 20
113.494
 30
0.00000
  70
    32
  0
VERTEX
  8
0
  5
2746
 10
162.728
 20
113.436
 30
0.00000
  70
    32
  0
VERTEX
  8
0
  5
2747
 10
162.704
 20
113.378
 30
0.00000
  70
    32
  0
VERTEX
  8
0
  5
2748
 10
162.682
 20
113.319
 30
0.00000
  70
    32
  0
VERTEX
  8
0
  5
2749
 10
162.661
 20
113.260
 30
0.00000
  70
    32
  0
VERTEX
  8
0
  5
274A
 10
162.641
 20
113.201
 30
0.00000
  70
    32
  0
VERTEX
  8
0
  5
274B
 10
162.622
 20
113.142
 30
0.00000
  70
    32
  0
VERTEX
  8
0
  5
274C
 10
162.604
 20
113.082
 30
0.00000
  70
    32
  0
VERTEX
  8
0
  5
274D
 10
162.588
 20
113.022
 30
0.00000
  70
    32
  0
VERTEX
  8
0
  5
274E
 10
162.572
 20
112.963
 30
0.00000
  70
    32
  0
VERTEX
  8
0
  5
274F
 10
162.558
 20
112.903
 30
0.00000
  70
    32
  0
VERTEX
  8
0
  5
2750
 10
162.545
 20
112.843
 30
0.00000
  70
    32
  0
VERTEX
  8
0
  5
2751
 10
162.533
 20
112.782
 30
0.00000
  70
    32
  0
VERTEX
  8
0
  5
2752
 10
162.522
 20
112.722
 30
0.00000
  70
    32
  0
VERTEX
  8
0
  5
2753
 10
162.513
 20
112.661
 30
0.00000
  70
    32
  0
VERTEX
  8
0
  5
2754
 10
162.504
 20
112.601
 30
0.00000
  70
    32
  0
VERTEX
  8
0
  5
2755
 10
162.497
 20
112.540
 30
0.00000
  70
    32
  0
VERTEX
  8
0
  5
2756
 10
162.491
 20
112.480
 30
0.00000
  70
    32
  0
VERTEX
  8
0
  5
2757
 10
162.486
 20
112.419
 30
0.00000
  70
    32
  0
VERTEX
  8
0
  5
2758
 10
162.482
 20
112.358
 30
0.00000
  70
    32
  0
VERTEX
  8
0
  5
2759
 10
162.479
 20
112.297
 30
0.00000
  70
    32
  0
VERTEX
  8
0
  5
275A
 10
162.478
 20
112.236
 30
0.00000
  70
    32
  0
VERTEX
  8
0
  5
275B
 10
162.477
 20
112.175
 30
0.00000
  70
    32
  0
VERTEX
  8
0
  5
275C
 10
162.478
 20
112.115
 30
0.00000
  70
    32
  0
VERTEX
  8
0
  5
275D
 10
162.480
 20
112.054
 30
0.00000
  70
    32
  0
VERTEX
  8
0
  5
275E
 10
162.483
 20
111.993
 30
0.00000
  70
    32
  0
VERTEX
  8
0
  5
275F
 10
162.488
 20
111.932
 30
0.00000
  70
    32
  0
VERTEX
  8
0
  5
2760
 10
162.493
 20
111.871
 30
0.00000
  70
    32
  0
VERTEX
  8
0
  5
2761
 10
162.500
 20
111.811
 30
0.00000
  70
    32
  0
VERTEX
  8
0
  5
2762
 10
162.508
 20
111.750
 30
0.00000
  70
    32
  0
VERTEX
  8
0
  5
2763
 10
162.517
 20
111.690
 30
0.00000
  70
    32
  0
VERTEX
  8
0
  5
2764
 10
162.527
 20
111.629
 30
0.00000
  70
    32
  0
VERTEX
  8
0
  5
2765
 10
162.539
 20
111.569
 30
0.00000
  70
    32
  0
VERTEX
  8
0
  5
2766
 10
162.551
 20
111.509
 30
0.00000
  70
    32
  0
VERTEX
  8
0
  5
2767
 10
162.565
 20
111.449
 30
0.00000
  70
    32
  0
VERTEX
  8
0
  5
2768
 10
162.580
 20
111.389
 30
0.00000
  70
    32
  0
VERTEX
  8
0
  5
2769
 10
162.595
 20
111.329
 30
0.00000
  70
    32
  0
VERTEX
  8
0
  5
276A
 10
162.613
 20
111.269
 30
0.00000
  70
    32
  0
VERTEX
  8
0
  5
276B
 10
162.631
 20
111.210
 30
0.00000
  70
    32
  0
VERTEX
  8
0
  5
276C
 10
162.650
 20
111.151
 30
0.00000
  70
    32
  0
VERTEX
  8
0
  5
276D
 10
162.671
 20
111.092
 30
0.00000
  70
    32
  0
VERTEX
  8
0
  5
276E
 10
162.692
 20
111.033
 30
0.00000
  70
    32
  0
VERTEX
  8
0
  5
276F
 10
162.715
 20
110.974
 30
0.00000
  70
    32
  0
VERTEX
  8
0
  5
2770
 10
162.739
 20
110.916
 30
0.00000
  70
    32
  0
VERTEX
  8
0
  5
2771
 10
162.764
 20
110.858
 30
0.00000
  70
    32
  0
VERTEX
  8
0
  5
2772
 10
162.790
 20
110.800
 30
0.00000
  70
    32
  0
VERTEX
  8
0
  5
2773
 10
162.818
 20
110.743
 30
0.00000
  70
    32
  0
VERTEX
  8
0
  5
2774
 10
162.846
 20
110.685
 30
0.00000
  70
    32
  0
VERTEX
  8
0
  5
2775
 10
162.875
 20
110.628
 30
0.00000
  70
    32
  0
VERTEX
  8
0
  5
2776
 10
162.906
 20
110.572
 30
0.00000
  70
    32
  0
VERTEX
  8
0
  5
2777
 10
162.938
 20
110.515
 30
0.00000
  70
    32
  0
VERTEX
  8
0
  5
2778
 10
162.970
 20
110.459
 30
0.00000
  70
    32
  0
VERTEX
  8
0
  5
2779
 10
163.004
 20
110.404
 30
0.00000
  70
    32
  0
VERTEX
  8
0
  5
277A
 10
163.039
 20
110.348
 30
0.00000
  70
    32
  0
VERTEX
  8
0
  5
277B
 10
163.075
 20
110.293
 30
0.00000
  70
    32
  0
VERTEX
  8
0
  5
277C
 10
163.112
 20
110.239
 30
0.00000
  70
    32
  0
VERTEX
  8
0
  5
277D
 10
163.150
 20
110.184
 30
0.00000
  70
    32
  0
VERTEX
  8
0
  5
277E
 10
163.189
 20
110.131
 30
0.00000
  70
    32
  0
VERTEX
  8
0
  5
277F
 10
163.229
 20
110.077
 30
0.00000
  70
    32
  0
VERTEX
  8
0
  5
2780
 10
163.270
 20
110.024
 30
0.00000
  70
    32
  0
VERTEX
  8
0
  5
2781
 10
163.312
 20
109.972
 30
0.00000
  70
    32
  0
VERTEX
  8
0
  5
2782
 10
163.355
 20
109.919
 30
0.00000
  70
    32
  0
VERTEX
  8
0
  5
2783
 10
163.400
 20
109.868
 30
0.00000
  70
    32
  0
VERTEX
  8
0
  5
2784
 10
163.445
 20
109.816
 30
0.00000
  70
    32
  0
VERTEX
  8
0
  5
2785
 10
163.491
 20
109.766
 30
0.00000
  70
    32
  0
VERTEX
  8
0
  5
2786
 10
163.538
 20
109.715
 30
0.00000
  70
    32
  0
VERTEX
  8
0
  5
2787
 10
163.586
 20
109.665
 30
0.00000
  70
    32
  0
VERTEX
  8
0
  5
2788
 10
163.635
 20
109.616
 30
0.00000
  70
    32
  0
VERTEX
  8
0
  5
2789
 10
163.685
 20
109.567
 30
0.00000
  70
    32
  0
VERTEX
  8
0
  5
278A
 10
163.736
 20
109.519
 30
0.00000
  70
    32
  0
VERTEX
  8
0
  5
278B
 10
163.788
 20
109.471
 30
0.00000
  70
    32
  0
VERTEX
  8
0
  5
278C
 10
163.840
 20
109.424
 30
0.00000
  70
    32
  0
VERTEX
  8
0
  5
278D
 10
163.894
 20
109.377
 30
0.00000
  70
    32
  0
VERTEX
  8
0
  5
278E
 10
163.948
 20
109.331
 30
0.00000
  70
    32
  0
VERTEX
  8
0
  5
278F
 10
164.004
 20
109.285
 30
0.00000
  70
    32
  0
VERTEX
  8
0
  5
2790
 10
164.060
 20
109.240
 30
0.00000
  70
    32
  0
VERTEX
  8
0
  5
2791
 10
164.117
 20
109.195
 30
0.00000
  70
    32
  0
VERTEX
  8
0
  5
2792
 10
164.175
 20
109.151
 30
0.00000
  70
    32
  0
VERTEX
  8
0
  5
2793
 10
164.234
 20
109.108
 30
0.00000
  70
    32
  0
VERTEX
  8
0
  5
2794
 10
164.294
 20
109.065
 30
0.00000
  70
    32
  0
VERTEX
  8
0
  5
2795
 10
164.354
 20
109.023
 30
0.00000
  70
    32
  0
VERTEX
  8
0
  5
2796
 10
164.415
 20
108.982
 30
0.00000
  70
    32
  0
VERTEX
  8
0
  5
2797
 10
164.477
 20
108.941
 30
0.00000
  70
    32
  0
VERTEX
  8
0
  5
2798
 10
164.540
 20
108.900
 30
0.00000
  70
    32
  0
VERTEX
  8
0
  5
2799
 10
164.604
 20
108.861
 30
0.00000
  70
    32
  0
VERTEX
  8
0
  5
279A
 10
164.668
 20
108.822
 30
0.00000
  70
    32
  0
VERTEX
  8
0
  5
279B
 10
164.733
 20
108.784
 30
0.00000
  70
    32
  0
VERTEX
  8
0
  5
279C
 10
164.799
 20
108.746
 30
0.00000
  70
    32
  0
VERTEX
  8
0
  5
279D
 10
164.866
 20
108.709
 30
0.00000
  70
    32
  0
VERTEX
  8
0
  5
279E
 10
164.933
 20
108.673
 30
0.00000
  70
    32
  0
VERTEX
  8
0
  5
279F
 10
165.001
 20
108.637
 30
0.00000
  70
    32
  0
VERTEX
  8
0
  5
27A0
 10
165.069
 20
108.602
 30
0.00000
  70
    32
  0
VERTEX
  8
0
  5
27A1
 10
165.139
 20
108.568
 30
0.00000
  70
    32
  0
VERTEX
  8
0
  5
27A2
 10
165.209
 20
108.534
 30
0.00000
  70
    32
  0
VERTEX
  8
0
  5
27A3
 10
165.279
 20
108.502
 30
0.00000
  70
    32
  0
VERTEX
  8
0
  5
27A4
 10
165.350
 20
108.469
 30
0.00000
  70
    32
  0
VERTEX
  8
0
  5
27A5
 10
165.422
 20
108.438
 30
0.00000
  70
    32
  0
VERTEX
  8
0
  5
27A6
 10
165.495
 20
108.408
 30
0.00000
  70
    32
  0
VERTEX
  8
0
  5
27A7
 10
165.568
 20
108.378
 30
0.00000
  70
    32
  0
SEQEND
  8
0
  5
27A8
  0
ARC
  5
216A
  8
0
 10
168.5687323651827114
 20
110.1878089158242062
 30
0.0
 40
3.3496293378963582
 50
271.9428860002882971
 51
327.2882089263978855
  0
ARC
  5
216B
  8
0
 10
168.4375543481220063
 20
110.2732842632635055
 30
0.0
 40
3.4395559280424242
 50
213.4449343116039017
 51
272.541620226917189
  0
POLYLINE
  5
216C
  8
0
 10
171.3871091100191961
 20
108.3776240643880584
 30
0.0
 66
     1
 70
     8
  0
VERTEX
  8
0
  5
27A9
 10
171.387
 20
108.378
 30
0.00000
  70
    32
  0
VERTEX
  8
0
  5
27AA
 10
171.460
 20
108.408
 30
0.00000
  70
    32
  0
VERTEX
  8
0
  5
27AB
 10
171.532
 20
108.438
 30
0.00000
  70
    32
  0
VERTEX
  8
0
  5
27AC
 10
171.604
 20
108.469
 30
0.00000
  70
    32
  0
VERTEX
  8
0
  5
27AD
 10
171.675
 20
108.502
 30
0.00000
  70
    32
  0
VERTEX
  8
0
  5
27AE
 10
171.746
 20
108.534
 30
0.00000
  70
    32
  0
VERTEX
  8
0
  5
27AF
 10
171.816
 20
108.568
 30
0.00000
  70
    32
  0
VERTEX
  8
0
  5
27B0
 10
171.885
 20
108.602
 30
0.00000
  70
    32
  0
VERTEX
  8
0
  5
27B1
 10
171.954
 20
108.637
 30
0.00000
  70
    32
  0
VERTEX
  8
0
  5
27B2
 10
172.022
 20
108.673
 30
0.00000
  70
    32
  0
VERTEX
  8
0
  5
27B3
 10
172.089
 20
108.709
 30
0.00000
  70
    32
  0
VERTEX
  8
0
  5
27B4
 10
172.156
 20
108.746
 30
0.00000
  70
    32
  0
VERTEX
  8
0
  5
27B5
 10
172.221
 20
108.784
 30
0.00000
  70
    32
  0
VERTEX
  8
0
  5
27B6
 10
172.287
 20
108.822
 30
0.00000
  70
    32
  0
VERTEX
  8
0
  5
27B7
 10
172.351
 20
108.861
 30
0.00000
  70
    32
  0
VERTEX
  8
0
  5
27B8
 10
172.414
 20
108.900
 30
0.00000
  70
    32
  0
VERTEX
  8
0
  5
27B9
 10
172.477
 20
108.941
 30
0.00000
  70
    32
  0
VERTEX
  8
0
  5
27BA
 10
172.539
 20
108.982
 30
0.00000
  70
    32
  0
VERTEX
  8
0
  5
27BB
 10
172.601
 20
109.023
 30
0.00000
  70
    32
  0
VERTEX
  8
0
  5
27BC
 10
172.661
 20
109.065
 30
0.00000
  70
    32
  0
VERTEX
  8
0
  5
27BD
 10
172.721
 20
109.108
 30
0.00000
  70
    32
  0
VERTEX
  8
0
  5
27BE
 10
172.780
 20
109.151
 30
0.00000
  70
    32
  0
VERTEX
  8
0
  5
27BF
 10
172.837
 20
109.195
 30
0.00000
  70
    32
  0
VERTEX
  8
0
  5
27C0
 10
172.895
 20
109.240
 30
0.00000
  70
    32
  0
VERTEX
  8
0
  5
27C1
 10
172.951
 20
109.285
 30
0.00000
  70
    32
  0
VERTEX
  8
0
  5
27C2
 10
173.006
 20
109.331
 30
0.00000
  70
    32
  0
VERTEX
  8
0
  5
27C3
 10
173.061
 20
109.377
 30
0.00000
  70
    32
  0
VERTEX
  8
0
  5
27C4
 10
173.114
 20
109.424
 30
0.00000
  70
    32
  0
VERTEX
  8
0
  5
27C5
 10
173.167
 20
109.471
 30
0.00000
  70
    32
  0
VERTEX
  8
0
  5
27C6
 10
173.219
 20
109.519
 30
0.00000
  70
    32
  0
VERTEX
  8
0
  5
27C7
 10
173.270
 20
109.567
 30
0.00000
  70
    32
  0
VERTEX
  8
0
  5
27C8
 10
173.320
 20
109.616
 30
0.00000
  70
    32
  0
VERTEX
  8
0
  5
27C9
 10
173.369
 20
109.665
 30
0.00000
  70
    32
  0
VERTEX
  8
0
  5
27CA
 10
173.417
 20
109.715
 30
0.00000
  70
    32
  0
VERTEX
  8
0
  5
27CB
 10
173.464
 20
109.766
 30
0.00000
  70
    32
  0
VERTEX
  8
0
  5
27CC
 10
173.510
 20
109.816
 30
0.00000
  70
    32
  0
VERTEX
  8
0
  5
27CD
 10
173.555
 20
109.868
 30
0.00000
  70
    32
  0
VERTEX
  8
0
  5
27CE
 10
173.599
 20
109.919
 30
0.00000
  70
    32
  0
VERTEX
  8
0
  5
27CF
 10
173.642
 20
109.972
 30
0.00000
  70
    32
  0
VERTEX
  8
0
  5
27D0
 10
173.684
 20
110.024
 30
0.00000
  70
    32
  0
VERTEX
  8
0
  5
27D1
 10
173.726
 20
110.077
 30
0.00000
  70
    32
  0
VERTEX
  8
0
  5
27D2
 10
173.766
 20
110.131
 30
0.00000
  70
    32
  0
VERTEX
  8
0
  5
27D3
 10
173.805
 20
110.184
 30
0.00000
  70
    32
  0
VERTEX
  8
0
  5
27D4
 10
173.843
 20
110.239
 30
0.00000
  70
    32
  0
VERTEX
  8
0
  5
27D5
 10
173.880
 20
110.293
 30
0.00000
  70
    32
  0
VERTEX
  8
0
  5
27D6
 10
173.916
 20
110.348
 30
0.00000
  70
    32
  0
VERTEX
  8
0
  5
27D7
 10
173.950
 20
110.404
 30
0.00000
  70
    32
  0
VERTEX
  8
0
  5
27D8
 10
173.984
 20
110.459
 30
0.00000
  70
    32
  0
VERTEX
  8
0
  5
27D9
 10
174.017
 20
110.515
 30
0.00000
  70
    32
  0
VERTEX
  8
0
  5
27DA
 10
174.049
 20
110.572
 30
0.00000
  70
    32
  0
VERTEX
  8
0
  5
27DB
 10
174.079
 20
110.628
 30
0.00000
  70
    32
  0
VERTEX
  8
0
  5
27DC
 10
174.109
 20
110.685
 30
0.00000
  70
    32
  0
VERTEX
  8
0
  5
27DD
 10
174.137
 20
110.743
 30
0.00000
  70
    32
  0
VERTEX
  8
0
  5
27DE
 10
174.164
 20
110.800
 30
0.00000
  70
    32
  0
VERTEX
  8
0
  5
27DF
 10
174.190
 20
110.858
 30
0.00000
  70
    32
  0
VERTEX
  8
0
  5
27E0
 10
174.215
 20
110.916
 30
0.00000
  70
    32
  0
VERTEX
  8
0
  5
27E1
 10
174.239
 20
110.974
 30
0.00000
  70
    32
  0
VERTEX
  8
0
  5
27E2
 10
174.262
 20
111.033
 30
0.00000
  70
    32
  0
VERTEX
  8
0
  5
27E3
 10
174.284
 20
111.092
 30
0.00000
  70
    32
  0
VERTEX
  8
0
  5
27E4
 10
174.304
 20
111.151
 30
0.00000
  70
    32
  0
VERTEX
  8
0
  5
27E5
 10
174.324
 20
111.210
 30
0.00000
  70
    32
  0
VERTEX
  8
0
  5
27E6
 10
174.342
 20
111.269
 30
0.00000
  70
    32
  0
VERTEX
  8
0
  5
27E7
 10
174.359
 20
111.329
 30
0.00000
  70
    32
  0
VERTEX
  8
0
  5
27E8
 10
174.375
 20
111.389
 30
0.00000
  70
    32
  0
VERTEX
  8
0
  5
27E9
 10
174.390
 20
111.449
 30
0.00000
  70
    32
  0
VERTEX
  8
0
  5
27EA
 10
174.404
 20
111.509
 30
0.00000
  70
    32
  0
VERTEX
  8
0
  5
27EB
 10
174.416
 20
111.569
 30
0.00000
  70
    32
  0
VERTEX
  8
0
  5
27EC
 10
174.427
 20
111.629
 30
0.00000
  70
    32
  0
VERTEX
  8
0
  5
27ED
 10
174.438
 20
111.690
 30
0.00000
  70
    32
  0
VERTEX
  8
0
  5
27EE
 10
174.447
 20
111.750
 30
0.00000
  70
    32
  0
VERTEX
  8
0
  5
27EF
 10
174.455
 20
111.811
 30
0.00000
  70
    32
  0
VERTEX
  8
0
  5
27F0
 10
174.461
 20
111.871
 30
0.00000
  70
    32
  0
VERTEX
  8
0
  5
27F1
 10
174.467
 20
111.932
 30
0.00000
  70
    32
  0
VERTEX
  8
0
  5
27F2
 10
174.471
 20
111.993
 30
0.00000
  70
    32
  0
VERTEX
  8
0
  5
27F3
 10
174.474
 20
112.054
 30
0.00000
  70
    32
  0
VERTEX
  8
0
  5
27F4
 10
174.476
 20
112.115
 30
0.00000
  70
    32
  0
VERTEX
  8
0
  5
27F5
 10
174.477
 20
112.175
 30
0.00000
  70
    32
  0
VERTEX
  8
0
  5
27F6
 10
174.477
 20
112.236
 30
0.00000
  70
    32
  0
VERTEX
  8
0
  5
27F7
 10
174.476
 20
112.297
 30
0.00000
  70
    32
  0
VERTEX
  8
0
  5
27F8
 10
174.473
 20
112.358
 30
0.00000
  70
    32
  0
VERTEX
  8
0
  5
27F9
 10
174.469
 20
112.419
 30
0.00000
  70
    32
  0
VERTEX
  8
0
  5
27FA
 10
174.464
 20
112.480
 30
0.00000
  70
    32
  0
VERTEX
  8
0
  5
27FB
 10
174.458
 20
112.540
 30
0.00000
  70
    32
  0
VERTEX
  8
0
  5
27FC
 10
174.451
 20
112.601
 30
0.00000
  70
    32
  0
VERTEX
  8
0
  5
27FD
 10
174.442
 20
112.661
 30
0.00000
  70
    32
  0
VERTEX
  8
0
  5
27FE
 10
174.432
 20
112.722
 30
0.00000
  70
    32
  0
VERTEX
  8
0
  5
27FF
 10
174.422
 20
112.782
 30
0.00000
  70
    32
  0
VERTEX
  8
0
  5
2800
 10
174.410
 20
112.843
 30
0.00000
  70
    32
  0
VERTEX
  8
0
  5
2801
 10
174.397
 20
112.903
 30
0.00000
  70
    32
  0
VERTEX
  8
0
  5
2802
 10
174.382
 20
112.963
 30
0.00000
  70
    32
  0
VERTEX
  8
0
  5
2803
 10
174.367
 20
113.022
 30
0.00000
  70
    32
  0
VERTEX
  8
0
  5
2804
 10
174.350
 20
113.082
 30
0.00000
  70
    32
  0
VERTEX
  8
0
  5
2805
 10
174.333
 20
113.142
 30
0.00000
  70
    32
  0
VERTEX
  8
0
  5
2806
 10
174.314
 20
113.201
 30
0.00000
  70
    32
  0
VERTEX
  8
0
  5
2807
 10
174.294
 20
113.260
 30
0.00000
  70
    32
  0
VERTEX
  8
0
  5
2808
 10
174.273
 20
113.319
 30
0.00000
  70
    32
  0
VERTEX
  8
0
  5
2809
 10
174.250
 20
113.378
 30
0.00000
  70
    32
  0
VERTEX
  8
0
  5
280A
 10
174.227
 20
113.436
 30
0.00000
  70
    32
  0
VERTEX
  8
0
  5
280B
 10
174.202
 20
113.494
 30
0.00000
  70
    32
  0
VERTEX
  8
0
  5
280C
 10
174.177
 20
113.552
 30
0.00000
  70
    32
  0
VERTEX
  8
0
  5
280D
 10
174.150
 20
113.610
 30
0.00000
  70
    32
  0
VERTEX
  8
0
  5
280E
 10
174.122
 20
113.667
 30
0.00000
  70
    32
  0
VERTEX
  8
0
  5
280F
 10
174.093
 20
113.724
 30
0.00000
  70
    32
  0
VERTEX
  8
0
  5
2810
 10
174.063
 20
113.781
 30
0.00000
  70
    32
  0
VERTEX
  8
0
  5
2811
 10
174.032
 20
113.838
 30
0.00000
  70
    32
  0
VERTEX
  8
0
  5
2812
 10
174.000
 20
113.894
 30
0.00000
  70
    32
  0
VERTEX
  8
0
  5
2813
 10
173.967
 20
113.950
 30
0.00000
  70
    32
  0
VERTEX
  8
0
  5
2814
 10
173.932
 20
114.005
 30
0.00000
  70
    32
  0
VERTEX
  8
0
  5
2815
 10
173.897
 20
114.060
 30
0.00000
  70
    32
  0
VERTEX
  8
0
  5
2816
 10
173.860
 20
114.115
 30
0.00000
  70
    32
  0
VERTEX
  8
0
  5
2817
 10
173.823
 20
114.170
 30
0.00000
  70
    32
  0
VERTEX
  8
0
  5
2818
 10
173.784
 20
114.224
 30
0.00000
  70
    32
  0
VERTEX
  8
0
  5
2819
 10
173.745
 20
114.277
 30
0.00000
  70
    32
  0
VERTEX
  8
0
  5
281A
 10
173.704
 20
114.331
 30
0.00000
  70
    32
  0
VERTEX
  8
0
  5
281B
 10
173.662
 20
114.383
 30
0.00000
  70
    32
  0
VERTEX
  8
0
  5
281C
 10
173.620
 20
114.436
 30
0.00000
  70
    32
  0
VERTEX
  8
0
  5
281D
 10
173.576
 20
114.488
 30
0.00000
  70
    32
  0
VERTEX
  8
0
  5
281E
 10
173.531
 20
114.539
 30
0.00000
  70
    32
  0
VERTEX
  8
0
  5
281F
 10
173.486
 20
114.590
 30
0.00000
  70
    32
  0
VERTEX
  8
0
  5
2820
 10
173.439
 20
114.641
 30
0.00000
  70
    32
  0
VERTEX
  8
0
  5
2821
 10
173.392
 20
114.691
 30
0.00000
  70
    32
  0
VERTEX
  8
0
  5
2822
 10
173.343
 20
114.741
 30
0.00000
  70
    32
  0
VERTEX
  8
0
  5
2823
 10
173.294
 20
114.790
 30
0.00000
  70
    32
  0
VERTEX
  8
0
  5
2824
 10
173.243
 20
114.838
 30
0.00000
  70
    32
  0
VERTEX
  8
0
  5
2825
 10
173.192
 20
114.886
 30
0.00000
  70
    32
  0
VERTEX
  8
0
  5
2826
 10
173.140
 20
114.934
 30
0.00000
  70
    32
  0
VERTEX
  8
0
  5
2827
 10
173.086
 20
114.981
 30
0.00000
  70
    32
  0
VERTEX
  8
0
  5
2828
 10
173.032
 20
115.027
 30
0.00000
  70
    32
  0
VERTEX
  8
0
  5
2829
 10
172.977
 20
115.073
 30
0.00000
  70
    32
  0
SEQEND
  8
0
  5
282A
  0
LINE
  5
216D
  8
0
 10
162.4773215042725099
 20
79.2961526131701646
 30
0.0
 11
174.4773215041730907
 21
79.2961526130178243
 31
0.0
  0
LINE
  5
216E
  8
0
 10
163.5508215042690949
 20
78.2226526130939845
 30
0.0
 11
173.403821504176392
 21
78.222652613094013
 31
0.0
  0
POLYLINE
  5
216F
  8
0
 10
163.9773215042226866
 20
113.7734027019471199
 30
0.0
 66
     1
 70
     8
  0
VERTEX
  8
0
  5
282B
 10
163.977
 20
113.773
 30
0.00000
  70
    32
  0
VERTEX
  8
0
  5
282C
 10
163.956
 20
113.741
 30
0.00000
  70
    32
  0
VERTEX
  8
0
  5
282D
 10
163.935
 20
113.708
 30
0.00000
  70
    32
  0
VERTEX
  8
0
  5
282E
 10
163.914
 20
113.675
 30
0.00000
  70
    32
  0
VERTEX
  8
0
  5
282F
 10
163.894
 20
113.642
 30
0.00000
  70
    32
  0
VERTEX
  8
0
  5
2830
 10
163.875
 20
113.609
 30
0.00000
  70
    32
  0
VERTEX
  8
0
  5
2831
 10
163.855
 20
113.576
 30
0.00000
  70
    32
  0
VERTEX
  8
0
  5
2832
 10
163.837
 20
113.542
 30
0.00000
  70
    32
  0
VERTEX
  8
0
  5
2833
 10
163.819
 20
113.509
 30
0.00000
  70
    32
  0
VERTEX
  8
0
  5
2834
 10
163.801
 20
113.475
 30
0.00000
  70
    32
  0
VERTEX
  8
0
  5
2835
 10
163.783
 20
113.441
 30
0.00000
  70
    32
  0
VERTEX
  8
0
  5
2836
 10
163.767
 20
113.407
 30
0.00000
  70
    32
  0
VERTEX
  8
0
  5
2837
 10
163.750
 20
113.373
 30
0.00000
  70
    32
  0
VERTEX
  8
0
  5
2838
 10
163.734
 20
113.339
 30
0.00000
  70
    32
  0
VERTEX
  8
0
  5
2839
 10
163.719
 20
113.305
 30
0.00000
  70
    32
  0
VERTEX
  8
0
  5
283A
 10
163.704
 20
113.271
 30
0.00000
  70
    32
  0
VERTEX
  8
0
  5
283B
 10
163.689
 20
113.236
 30
0.00000
  70
    32
  0
VERTEX
  8
0
  5
283C
 10
163.675
 20
113.201
 30
0.00000
  70
    32
  0
VERTEX
  8
0
  5
283D
 10
163.661
 20
113.167
 30
0.00000
  70
    32
  0
VERTEX
  8
0
  5
283E
 10
163.648
 20
113.132
 30
0.00000
  70
    32
  0
VERTEX
  8
0
  5
283F
 10
163.636
 20
113.097
 30
0.00000
  70
    32
  0
VERTEX
  8
0
  5
2840
 10
163.624
 20
113.062
 30
0.00000
  70
    32
  0
VERTEX
  8
0
  5
2841
 10
163.612
 20
113.027
 30
0.00000
  70
    32
  0
VERTEX
  8
0
  5
2842
 10
163.601
 20
112.992
 30
0.00000
  70
    32
  0
VERTEX
  8
0
  5
2843
 10
163.590
 20
112.957
 30
0.00000
  70
    32
  0
VERTEX
  8
0
  5
2844
 10
163.580
 20
112.921
 30
0.00000
  70
    32
  0
VERTEX
  8
0
  5
2845
 10
163.570
 20
112.886
 30
0.00000
  70
    32
  0
VERTEX
  8
0
  5
2846
 10
163.561
 20
112.850
 30
0.00000
  70
    32
  0
VERTEX
  8
0
  5
2847
 10
163.552
 20
112.815
 30
0.00000
  70
    32
  0
VERTEX
  8
0
  5
2848
 10
163.544
 20
112.779
 30
0.00000
  70
    32
  0
VERTEX
  8
0
  5
2849
 10
163.536
 20
112.744
 30
0.00000
  70
    32
  0
VERTEX
  8
0
  5
284A
 10
163.528
 20
112.708
 30
0.00000
  70
    32
  0
VERTEX
  8
0
  5
284B
 10
163.522
 20
112.672
 30
0.00000
  70
    32
  0
VERTEX
  8
0
  5
284C
 10
163.515
 20
112.637
 30
0.00000
  70
    32
  0
VERTEX
  8
0
  5
284D
 10
163.509
 20
112.601
 30
0.00000
  70
    32
  0
VERTEX
  8
0
  5
284E
 10
163.504
 20
112.565
 30
0.00000
  70
    32
  0
VERTEX
  8
0
  5
284F
 10
163.499
 20
112.529
 30
0.00000
  70
    32
  0
VERTEX
  8
0
  5
2850
 10
163.495
 20
112.493
 30
0.00000
  70
    32
  0
VERTEX
  8
0
  5
2851
 10
163.491
 20
112.457
 30
0.00000
  70
    32
  0
VERTEX
  8
0
  5
2852
 10
163.487
 20
112.421
 30
0.00000
  70
    32
  0
VERTEX
  8
0
  5
2853
 10
163.485
 20
112.385
 30
0.00000
  70
    32
  0
VERTEX
  8
0
  5
2854
 10
163.482
 20
112.349
 30
0.00000
  70
    32
  0
VERTEX
  8
0
  5
2855
 10
163.480
 20
112.313
 30
0.00000
  70
    32
  0
VERTEX
  8
0
  5
2856
 10
163.479
 20
112.277
 30
0.00000
  70
    32
  0
VERTEX
  8
0
  5
2857
 10
163.478
 20
112.241
 30
0.00000
  70
    32
  0
VERTEX
  8
0
  5
2858
 10
163.477
 20
112.205
 30
0.00000
  70
    32
  0
VERTEX
  8
0
  5
2859
 10
163.477
 20
112.169
 30
0.00000
  70
    32
  0
VERTEX
  8
0
  5
285A
 10
163.478
 20
112.132
 30
0.00000
  70
    32
  0
VERTEX
  8
0
  5
285B
 10
163.479
 20
112.096
 30
0.00000
  70
    32
  0
VERTEX
  8
0
  5
285C
 10
163.481
 20
112.060
 30
0.00000
  70
    32
  0
VERTEX
  8
0
  5
285D
 10
163.483
 20
112.024
 30
0.00000
  70
    32
  0
VERTEX
  8
0
  5
285E
 10
163.485
 20
111.988
 30
0.00000
  70
    32
  0
VERTEX
  8
0
  5
285F
 10
163.488
 20
111.952
 30
0.00000
  70
    32
  0
VERTEX
  8
0
  5
2860
 10
163.492
 20
111.916
 30
0.00000
  70
    32
  0
VERTEX
  8
0
  5
2861
 10
163.496
 20
111.880
 30
0.00000
  70
    32
  0
VERTEX
  8
0
  5
2862
 10
163.500
 20
111.844
 30
0.00000
  70
    32
  0
VERTEX
  8
0
  5
2863
 10
163.505
 20
111.808
 30
0.00000
  70
    32
  0
VERTEX
  8
0
  5
2864
 10
163.510
 20
111.773
 30
0.00000
  70
    32
  0
VERTEX
  8
0
  5
2865
 10
163.516
 20
111.737
 30
0.00000
  70
    32
  0
VERTEX
  8
0
  5
2866
 10
163.523
 20
111.701
 30
0.00000
  70
    32
  0
VERTEX
  8
0
  5
2867
 10
163.530
 20
111.665
 30
0.00000
  70
    32
  0
VERTEX
  8
0
  5
2868
 10
163.537
 20
111.630
 30
0.00000
  70
    32
  0
VERTEX
  8
0
  5
2869
 10
163.545
 20
111.594
 30
0.00000
  70
    32
  0
VERTEX
  8
0
  5
286A
 10
163.553
 20
111.558
 30
0.00000
  70
    32
  0
VERTEX
  8
0
  5
286B
 10
163.562
 20
111.523
 30
0.00000
  70
    32
  0
VERTEX
  8
0
  5
286C
 10
163.572
 20
111.487
 30
0.00000
  70
    32
  0
VERTEX
  8
0
  5
286D
 10
163.582
 20
111.452
 30
0.00000
  70
    32
  0
VERTEX
  8
0
  5
286E
 10
163.592
 20
111.417
 30
0.00000
  70
    32
  0
VERTEX
  8
0
  5
286F
 10
163.603
 20
111.382
 30
0.00000
  70
    32
  0
VERTEX
  8
0
  5
2870
 10
163.614
 20
111.346
 30
0.00000
  70
    32
  0
VERTEX
  8
0
  5
2871
 10
163.626
 20
111.311
 30
0.00000
  70
    32
  0
VERTEX
  8
0
  5
2872
 10
163.638
 20
111.276
 30
0.00000
  70
    32
  0
VERTEX
  8
0
  5
2873
 10
163.651
 20
111.242
 30
0.00000
  70
    32
  0
VERTEX
  8
0
  5
2874
 10
163.664
 20
111.207
 30
0.00000
  70
    32
  0
VERTEX
  8
0
  5
2875
 10
163.678
 20
111.172
 30
0.00000
  70
    32
  0
VERTEX
  8
0
  5
2876
 10
163.692
 20
111.137
 30
0.00000
  70
    32
  0
VERTEX
  8
0
  5
2877
 10
163.706
 20
111.103
 30
0.00000
  70
    32
  0
VERTEX
  8
0
  5
2878
 10
163.721
 20
111.069
 30
0.00000
  70
    32
  0
VERTEX
  8
0
  5
2879
 10
163.737
 20
111.034
 30
0.00000
  70
    32
  0
VERTEX
  8
0
  5
287A
 10
163.753
 20
111.000
 30
0.00000
  70
    32
  0
VERTEX
  8
0
  5
287B
 10
163.770
 20
110.966
 30
0.00000
  70
    32
  0
VERTEX
  8
0
  5
287C
 10
163.787
 20
110.932
 30
0.00000
  70
    32
  0
VERTEX
  8
0
  5
287D
 10
163.804
 20
110.898
 30
0.00000
  70
    32
  0
VERTEX
  8
0
  5
287E
 10
163.822
 20
110.865
 30
0.00000
  70
    32
  0
VERTEX
  8
0
  5
287F
 10
163.840
 20
110.831
 30
0.00000
  70
    32
  0
VERTEX
  8
0
  5
2880
 10
163.859
 20
110.798
 30
0.00000
  70
    32
  0
VERTEX
  8
0
  5
2881
 10
163.878
 20
110.765
 30
0.00000
  70
    32
  0
VERTEX
  8
0
  5
2882
 10
163.898
 20
110.732
 30
0.00000
  70
    32
  0
VERTEX
  8
0
  5
2883
 10
163.918
 20
110.699
 30
0.00000
  70
    32
  0
VERTEX
  8
0
  5
2884
 10
163.939
 20
110.666
 30
0.00000
  70
    32
  0
VERTEX
  8
0
  5
2885
 10
163.960
 20
110.633
 30
0.00000
  70
    32
  0
VERTEX
  8
0
  5
2886
 10
163.981
 20
110.600
 30
0.00000
  70
    32
  0
VERTEX
  8
0
  5
2887
 10
164.003
 20
110.568
 30
0.00000
  70
    32
  0
VERTEX
  8
0
  5
2888
 10
164.026
 20
110.536
 30
0.00000
  70
    32
  0
VERTEX
  8
0
  5
2889
 10
164.048
 20
110.504
 30
0.00000
  70
    32
  0
VERTEX
  8
0
  5
288A
 10
164.072
 20
110.472
 30
0.00000
  70
    32
  0
VERTEX
  8
0
  5
288B
 10
164.095
 20
110.440
 30
0.00000
  70
    32
  0
VERTEX
  8
0
  5
288C
 10
164.120
 20
110.409
 30
0.00000
  70
    32
  0
VERTEX
  8
0
  5
288D
 10
164.144
 20
110.377
 30
0.00000
  70
    32
  0
VERTEX
  8
0
  5
288E
 10
164.169
 20
110.346
 30
0.00000
  70
    32
  0
VERTEX
  8
0
  5
288F
 10
164.195
 20
110.315
 30
0.00000
  70
    32
  0
VERTEX
  8
0
  5
2890
 10
164.220
 20
110.284
 30
0.00000
  70
    32
  0
VERTEX
  8
0
  5
2891
 10
164.247
 20
110.254
 30
0.00000
  70
    32
  0
VERTEX
  8
0
  5
2892
 10
164.273
 20
110.223
 30
0.00000
  70
    32
  0
VERTEX
  8
0
  5
2893
 10
164.300
 20
110.193
 30
0.00000
  70
    32
  0
VERTEX
  8
0
  5
2894
 10
164.328
 20
110.163
 30
0.00000
  70
    32
  0
VERTEX
  8
0
  5
2895
 10
164.356
 20
110.133
 30
0.00000
  70
    32
  0
VERTEX
  8
0
  5
2896
 10
164.384
 20
110.104
 30
0.00000
  70
    32
  0
VERTEX
  8
0
  5
2897
 10
164.413
 20
110.074
 30
0.00000
  70
    32
  0
VERTEX
  8
0
  5
2898
 10
164.442
 20
110.045
 30
0.00000
  70
    32
  0
VERTEX
  8
0
  5
2899
 10
164.472
 20
110.016
 30
0.00000
  70
    32
  0
VERTEX
  8
0
  5
289A
 10
164.501
 20
109.987
 30
0.00000
  70
    32
  0
VERTEX
  8
0
  5
289B
 10
164.532
 20
109.959
 30
0.00000
  70
    32
  0
VERTEX
  8
0
  5
289C
 10
164.562
 20
109.930
 30
0.00000
  70
    32
  0
VERTEX
  8
0
  5
289D
 10
164.594
 20
109.902
 30
0.00000
  70
    32
  0
VERTEX
  8
0
  5
289E
 10
164.625
 20
109.874
 30
0.00000
  70
    32
  0
VERTEX
  8
0
  5
289F
 10
164.657
 20
109.846
 30
0.00000
  70
    32
  0
VERTEX
  8
0
  5
28A0
 10
164.689
 20
109.819
 30
0.00000
  70
    32
  0
VERTEX
  8
0
  5
28A1
 10
164.722
 20
109.792
 30
0.00000
  70
    32
  0
VERTEX
  8
0
  5
28A2
 10
164.755
 20
109.765
 30
0.00000
  70
    32
  0
VERTEX
  8
0
  5
28A3
 10
164.788
 20
109.738
 30
0.00000
  70
    32
  0
VERTEX
  8
0
  5
28A4
 10
164.822
 20
109.712
 30
0.00000
  70
    32
  0
VERTEX
  8
0
  5
28A5
 10
164.856
 20
109.685
 30
0.00000
  70
    32
  0
VERTEX
  8
0
  5
28A6
 10
164.890
 20
109.659
 30
0.00000
  70
    32
  0
VERTEX
  8
0
  5
28A7
 10
164.925
 20
109.633
 30
0.00000
  70
    32
  0
VERTEX
  8
0
  5
28A8
 10
164.960
 20
109.608
 30
0.00000
  70
    32
  0
VERTEX
  8
0
  5
28A9
 10
164.996
 20
109.583
 30
0.00000
  70
    32
  0
VERTEX
  8
0
  5
28AA
 10
165.031
 20
109.558
 30
0.00000
  70
    32
  0
VERTEX
  8
0
  5
28AB
 10
165.068
 20
109.533
 30
0.00000
  70
    32
  0
SEQEND
  8
0
  5
28AC
  0
ARC
  5
2170
  8
0
 10
168.4773215042226866
 20
110.3226526130939931
 30
0.0
 40
3.5000000000000382
 50
193.039372592503895
 51
213.760494091105187
  0
POLYLINE
  5
2171
  8
0
 10
171.8870748897562066
 20
109.5329806185789465
 30
0.0
 66
     1
 70
     8
  0
VERTEX
  8
0
  5
28AD
 10
171.887
 20
109.533
 30
0.00000
  70
    32
  0
VERTEX
  8
0
  5
28AE
 10
171.923
 20
109.558
 30
0.00000
  70
    32
  0
VERTEX
  8
0
  5
28AF
 10
171.959
 20
109.583
 30
0.00000
  70
    32
  0
VERTEX
  8
0
  5
28B0
 10
171.995
 20
109.608
 30
0.00000
  70
    32
  0
VERTEX
  8
0
  5
28B1
 10
172.030
 20
109.633
 30
0.00000
  70
    32
  0
VERTEX
  8
0
  5
28B2
 10
172.064
 20
109.659
 30
0.00000
  70
    32
  0
VERTEX
  8
0
  5
28B3
 10
172.099
 20
109.685
 30
0.00000
  70
    32
  0
VERTEX
  8
0
  5
28B4
 10
172.133
 20
109.712
 30
0.00000
  70
    32
  0
VERTEX
  8
0
  5
28B5
 10
172.167
 20
109.738
 30
0.00000
  70
    32
  0
VERTEX
  8
0
  5
28B6
 10
172.200
 20
109.765
 30
0.00000
  70
    32
  0
VERTEX
  8
0
  5
28B7
 10
172.233
 20
109.792
 30
0.00000
  70
    32
  0
VERTEX
  8
0
  5
28B8
 10
172.266
 20
109.819
 30
0.00000
  70
    32
  0
VERTEX
  8
0
  5
28B9
 10
172.298
 20
109.846
 30
0.00000
  70
    32
  0
VERTEX
  8
0
  5
28BA
 10
172.330
 20
109.874
 30
0.00000
  70
    32
  0
VERTEX
  8
0
  5
28BB
 10
172.361
 20
109.902
 30
0.00000
  70
    32
  0
VERTEX
  8
0
  5
28BC
 10
172.392
 20
109.930
 30
0.00000
  70
    32
  0
VERTEX
  8
0
  5
28BD
 10
172.423
 20
109.959
 30
0.00000
  70
    32
  0
VERTEX
  8
0
  5
28BE
 10
172.453
 20
109.987
 30
0.00000
  70
    32
  0
VERTEX
  8
0
  5
28BF
 10
172.483
 20
110.016
 30
0.00000
  70
    32
  0
VERTEX
  8
0
  5
28C0
 10
172.513
 20
110.045
 30
0.00000
  70
    32
  0
VERTEX
  8
0
  5
28C1
 10
172.542
 20
110.074
 30
0.00000
  70
    32
  0
VERTEX
  8
0
  5
28C2
 10
172.570
 20
110.104
 30
0.00000
  70
    32
  0
VERTEX
  8
0
  5
28C3
 10
172.599
 20
110.133
 30
0.00000
  70
    32
  0
VERTEX
  8
0
  5
28C4
 10
172.627
 20
110.163
 30
0.00000
  70
    32
  0
VERTEX
  8
0
  5
28C5
 10
172.654
 20
110.193
 30
0.00000
  70
    32
  0
VERTEX
  8
0
  5
28C6
 10
172.681
 20
110.223
 30
0.00000
  70
    32
  0
VERTEX
  8
0
  5
28C7
 10
172.708
 20
110.254
 30
0.00000
  70
    32
  0
VERTEX
  8
0
  5
28C8
 10
172.734
 20
110.284
 30
0.00000
  70
    32
  0
VERTEX
  8
0
  5
28C9
 10
172.760
 20
110.315
 30
0.00000
  70
    32
  0
VERTEX
  8
0
  5
28CA
 10
172.785
 20
110.346
 30
0.00000
  70
    32
  0
VERTEX
  8
0
  5
28CB
 10
172.810
 20
110.377
 30
0.00000
  70
    32
  0
VERTEX
  8
0
  5
28CC
 10
172.835
 20
110.409
 30
0.00000
  70
    32
  0
VERTEX
  8
0
  5
28CD
 10
172.859
 20
110.440
 30
0.00000
  70
    32
  0
VERTEX
  8
0
  5
28CE
 10
172.883
 20
110.472
 30
0.00000
  70
    32
  0
VERTEX
  8
0
  5
28CF
 10
172.906
 20
110.504
 30
0.00000
  70
    32
  0
VERTEX
  8
0
  5
28D0
 10
172.929
 20
110.536
 30
0.00000
  70
    32
  0
VERTEX
  8
0
  5
28D1
 10
172.951
 20
110.568
 30
0.00000
  70
    32
  0
VERTEX
  8
0
  5
28D2
 10
172.973
 20
110.600
 30
0.00000
  70
    32
  0
VERTEX
  8
0
  5
28D3
 10
172.995
 20
110.633
 30
0.00000
  70
    32
  0
VERTEX
  8
0
  5
28D4
 10
173.016
 20
110.666
 30
0.00000
  70
    32
  0
VERTEX
  8
0
  5
28D5
 10
173.037
 20
110.699
 30
0.00000
  70
    32
  0
VERTEX
  8
0
  5
28D6
 10
173.057
 20
110.732
 30
0.00000
  70
    32
  0
VERTEX
  8
0
  5
28D7
 10
173.076
 20
110.765
 30
0.00000
  70
    32
  0
VERTEX
  8
0
  5
28D8
 10
173.096
 20
110.798
 30
0.00000
  70
    32
  0
VERTEX
  8
0
  5
28D9
 10
173.114
 20
110.831
 30
0.00000
  70
    32
  0
VERTEX
  8
0
  5
28DA
 10
173.133
 20
110.865
 30
0.00000
  70
    32
  0
VERTEX
  8
0
  5
28DB
 10
173.151
 20
110.898
 30
0.00000
  70
    32
  0
VERTEX
  8
0
  5
28DC
 10
173.168
 20
110.932
 30
0.00000
  70
    32
  0
VERTEX
  8
0
  5
28DD
 10
173.185
 20
110.966
 30
0.00000
  70
    32
  0
VERTEX
  8
0
  5
28DE
 10
173.202
 20
111.000
 30
0.00000
  70
    32
  0
VERTEX
  8
0
  5
28DF
 10
173.218
 20
111.034
 30
0.00000
  70
    32
  0
VERTEX
  8
0
  5
28E0
 10
173.233
 20
111.069
 30
0.00000
  70
    32
  0
VERTEX
  8
0
  5
28E1
 10
173.248
 20
111.103
 30
0.00000
  70
    32
  0
VERTEX
  8
0
  5
28E2
 10
173.263
 20
111.137
 30
0.00000
  70
    32
  0
VERTEX
  8
0
  5
28E3
 10
173.277
 20
111.172
 30
0.00000
  70
    32
  0
VERTEX
  8
0
  5
28E4
 10
173.291
 20
111.207
 30
0.00000
  70
    32
  0
VERTEX
  8
0
  5
28E5
 10
173.304
 20
111.242
 30
0.00000
  70
    32
  0
VERTEX
  8
0
  5
28E6
 10
173.317
 20
111.276
 30
0.00000
  70
    32
  0
VERTEX
  8
0
  5
28E7
 10
173.329
 20
111.311
 30
0.00000
  70
    32
  0
VERTEX
  8
0
  5
28E8
 10
173.341
 20
111.346
 30
0.00000
  70
    32
  0
VERTEX
  8
0
  5
28E9
 10
173.352
 20
111.382
 30
0.00000
  70
    32
  0
VERTEX
  8
0
  5
28EA
 10
173.363
 20
111.417
 30
0.00000
  70
    32
  0
VERTEX
  8
0
  5
28EB
 10
173.373
 20
111.452
 30
0.00000
  70
    32
  0
VERTEX
  8
0
  5
28EC
 10
173.383
 20
111.487
 30
0.00000
  70
    32
  0
VERTEX
  8
0
  5
28ED
 10
173.392
 20
111.523
 30
0.00000
  70
    32
  0
VERTEX
  8
0
  5
28EE
 10
173.401
 20
111.558
 30
0.00000
  70
    32
  0
VERTEX
  8
0
  5
28EF
 10
173.410
 20
111.594
 30
0.00000
  70
    32
  0
VERTEX
  8
0
  5
28F0
 10
173.417
 20
111.630
 30
0.00000
  70
    32
  0
VERTEX
  8
0
  5
28F1
 10
173.425
 20
111.665
 30
0.00000
  70
    32
  0
VERTEX
  8
0
  5
28F2
 10
173.432
 20
111.701
 30
0.00000
  70
    32
  0
VERTEX
  8
0
  5
28F3
 10
173.438
 20
111.737
 30
0.00000
  70
    32
  0
VERTEX
  8
0
  5
28F4
 10
173.444
 20
111.773
 30
0.00000
  70
    32
  0
VERTEX
  8
0
  5
28F5
 10
173.450
 20
111.808
 30
0.00000
  70
    32
  0
VERTEX
  8
0
  5
28F6
 10
173.455
 20
111.844
 30
0.00000
  70
    32
  0
VERTEX
  8
0
  5
28F7
 10
173.459
 20
111.880
 30
0.00000
  70
    32
  0
VERTEX
  8
0
  5
28F8
 10
173.463
 20
111.916
 30
0.00000
  70
    32
  0
VERTEX
  8
0
  5
28F9
 10
173.467
 20
111.952
 30
0.00000
  70
    32
  0
VERTEX
  8
0
  5
28FA
 10
173.470
 20
111.988
 30
0.00000
  70
    32
  0
VERTEX
  8
0
  5
28FB
 10
173.472
 20
112.024
 30
0.00000
  70
    32
  0
VERTEX
  8
0
  5
28FC
 10
173.474
 20
112.060
 30
0.00000
  70
    32
  0
VERTEX
  8
0
  5
28FD
 10
173.476
 20
112.096
 30
0.00000
  70
    32
  0
VERTEX
  8
0
  5
28FE
 10
173.477
 20
112.132
 30
0.00000
  70
    32
  0
VERTEX
  8
0
  5
28FF
 10
173.477
 20
112.169
 30
0.00000
  70
    32
  0
VERTEX
  8
0
  5
2900
 10
173.477
 20
112.205
 30
0.00000
  70
    32
  0
VERTEX
  8
0
  5
2901
 10
173.477
 20
112.241
 30
0.00000
  70
    32
  0
VERTEX
  8
0
  5
2902
 10
173.476
 20
112.277
 30
0.00000
  70
    32
  0
VERTEX
  8
0
  5
2903
 10
173.474
 20
112.313
 30
0.00000
  70
    32
  0
VERTEX
  8
0
  5
2904
 10
173.473
 20
112.349
 30
0.00000
  70
    32
  0
VERTEX
  8
0
  5
2905
 10
173.470
 20
112.385
 30
0.00000
  70
    32
  0
VERTEX
  8
0
  5
2906
 10
173.467
 20
112.421
 30
0.00000
  70
    32
  0
VERTEX
  8
0
  5
2907
 10
173.464
 20
112.457
 30
0.00000
  70
    32
  0
VERTEX
  8
0
  5
2908
 10
173.460
 20
112.493
 30
0.00000
  70
    32
  0
VERTEX
  8
0
  5
2909
 10
173.456
 20
112.529
 30
0.00000
  70
    32
  0
VERTEX
  8
0
  5
290A
 10
173.451
 20
112.565
 30
0.00000
  70
    32
  0
VERTEX
  8
0
  5
290B
 10
173.445
 20
112.601
 30
0.00000
  70
    32
  0
VERTEX
  8
0
  5
290C
 10
173.439
 20
112.637
 30
0.00000
  70
    32
  0
VERTEX
  8
0
  5
290D
 10
173.433
 20
112.672
 30
0.00000
  70
    32
  0
VERTEX
  8
0
  5
290E
 10
173.426
 20
112.708
 30
0.00000
  70
    32
  0
VERTEX
  8
0
  5
290F
 10
173.419
 20
112.744
 30
0.00000
  70
    32
  0
VERTEX
  8
0
  5
2910
 10
173.411
 20
112.779
 30
0.00000
  70
    32
  0
VERTEX
  8
0
  5
2911
 10
173.403
 20
112.815
 30
0.00000
  70
    32
  0
VERTEX
  8
0
  5
2912
 10
173.394
 20
112.850
 30
0.00000
  70
    32
  0
VERTEX
  8
0
  5
2913
 10
173.385
 20
112.886
 30
0.00000
  70
    32
  0
VERTEX
  8
0
  5
2914
 10
173.375
 20
112.921
 30
0.00000
  70
    32
  0
VERTEX
  8
0
  5
2915
 10
173.365
 20
112.957
 30
0.00000
  70
    32
  0
VERTEX
  8
0
  5
2916
 10
173.354
 20
112.992
 30
0.00000
  70
    32
  0
VERTEX
  8
0
  5
2917
 10
173.343
 20
113.027
 30
0.00000
  70
    32
  0
VERTEX
  8
0
  5
2918
 10
173.331
 20
113.062
 30
0.00000
  70
    32
  0
VERTEX
  8
0
  5
2919
 10
173.319
 20
113.097
 30
0.00000
  70
    32
  0
VERTEX
  8
0
  5
291A
 10
173.306
 20
113.132
 30
0.00000
  70
    32
  0
VERTEX
  8
0
  5
291B
 10
173.293
 20
113.167
 30
0.00000
  70
    32
  0
VERTEX
  8
0
  5
291C
 10
173.280
 20
113.201
 30
0.00000
  70
    32
  0
VERTEX
  8
0
  5
291D
 10
173.266
 20
113.236
 30
0.00000
  70
    32
  0
VERTEX
  8
0
  5
291E
 10
173.251
 20
113.271
 30
0.00000
  70
    32
  0
VERTEX
  8
0
  5
291F
 10
173.236
 20
113.305
 30
0.00000
  70
    32
  0
VERTEX
  8
0
  5
2920
 10
173.221
 20
113.339
 30
0.00000
  70
    32
  0
VERTEX
  8
0
  5
2921
 10
173.205
 20
113.373
 30
0.00000
  70
    32
  0
VERTEX
  8
0
  5
2922
 10
173.188
 20
113.407
 30
0.00000
  70
    32
  0
VERTEX
  8
0
  5
2923
 10
173.171
 20
113.441
 30
0.00000
  70
    32
  0
VERTEX
  8
0
  5
2924
 10
173.154
 20
113.475
 30
0.00000
  70
    32
  0
VERTEX
  8
0
  5
2925
 10
173.136
 20
113.509
 30
0.00000
  70
    32
  0
VERTEX
  8
0
  5
2926
 10
173.118
 20
113.542
 30
0.00000
  70
    32
  0
VERTEX
  8
0
  5
2927
 10
173.099
 20
113.576
 30
0.00000
  70
    32
  0
VERTEX
  8
0
  5
2928
 10
173.080
 20
113.609
 30
0.00000
  70
    32
  0
VERTEX
  8
0
  5
2929
 10
173.060
 20
113.642
 30
0.00000
  70
    32
  0
VERTEX
  8
0
  5
292A
 10
173.040
 20
113.675
 30
0.00000
  70
    32
  0
VERTEX
  8
0
  5
292B
 10
173.020
 20
113.708
 30
0.00000
  70
    32
  0
VERTEX
  8
0
  5
292C
 10
172.999
 20
113.741
 30
0.00000
  70
    32
  0
VERTEX
  8
0
  5
292D
 10
172.977
 20
113.773
 30
0.00000
  70
    32
  0
SEQEND
  8
0
  5
292E
  0
ARC
  5
2172
  8
0
 10
168.4773215042226866
 20
110.3226526130939931
 30
0.0
 40
3.4999999999999951
 50
326.239510619787211
 51
346.9606274672855761
  0
LINE
  5
2173
  8
0
 10
172.9773215042226013
 20
117.0226528928831016
 30
0.0
 11
169.8189620404714901
 21
117.0226528928831016
 31
0.0
  0
LINE
  5
2175
  8
0
 10
167.1356807472483013
 20
107.4226526130940016
 30
0.0
 11
166.5205850579814069
 21
107.4226526130940016
 31
0.0
  0
LINE
  5
2176
  8
0
 10
170.4281013626275865
 20
107.4226526130940016
 30
0.0
 11
169.8189620404714049
 21
107.4226526130940016
 31
0.0
  0
LINE
  5
2281
  8
0
 10
80.3405219216934654
 20
103.2226526130939988
 30
0.0
 11
92.3405219216934654
 21
103.2226526130939988
 31
0.0
  0
LINE
  5
2282
  8
3
 10
91.2670219216934555
 20
103.2226526130939988
 30
0.0
 11
91.2670219216934555
 21
78.2226526130939988
 31
0.0
  0
LINE
  5
2283
  8
3
 10
91.2670219216934555
 20
103.2226526130939988
 30
0.0
 11
92.2695996225010902
 21
104.9591681294284058
 31
0.0
  0
LINE
  5
2284
  8
3
 10
81.4140219216934611
 20
103.2226526130939988
 30
0.0
 11
81.4140219216934611
 21
78.2226526130939988
 31
0.0
  0
LINE
  5
2285
  8
3
 10
81.4140219216934611
 20
103.2226526130939988
 30
0.0
 11
80.3405219216934654
 21
105.0820091550191933
 31
0.0
  0
LINE
  5
2286
  8
1
 10
86.3405219216934654
 20
120.6226526130940044
 30
0.0
 11
86.3405219216934654
 21
67.2226526131231452
 31
0.0
  0
LINE
  5
2296
  8
0
 10
167.1356809679737978
 20
117.0226528928831016
 30
0.0
 11
163.9773215042226866
 21
117.0226528928831016
 31
0.0
  0
LINE
  5
2298
  8
0
 10
162.4773215042228003
 20
103.2226526130939988
 30
0.0
 11
174.4773215042228003
 21
103.2226526130939988
 31
0.0
  0
LINE
  5
2299
  8
3
 10
173.4038215042228046
 20
103.2226526130939988
 30
0.0
 11
173.4038215042228046
 21
78.2226526130939988
 31
0.0
  0
LINE
  5
229A
  8
3
 10
173.4038215042228046
 20
103.2226526130939988
 30
0.0
 11
174.4063992050303966
 21
104.9591681294284058
 31
0.0
  0
LINE
  5
229B
  8
3
 10
163.550821504222796
 20
103.2226526130939988
 30
0.0
 11
163.550821504222796
 21
78.2226526130939988
 31
0.0
  0
LINE
  5
229C
  8
3
 10
163.550821504222796
 20
103.2226526130939988
 30
0.0
 11
162.4773215042228003
 21
105.0820091550191933
 31
0.0
  0
LINE
  5
229D
  8
1
 10
168.4773215042228003
 20
120.6226526130940044
 30
0.0
 11
168.4773215042228003
 21
67.2226526131231452
 31
0.0
  0
LINE
  5
22A0
  8
0
 10
17.1650038379836012
 20
103.2226526130939988
 30
0.0
 11
29.1650038379836083
 21
103.2226526130939988
 31
0.0
  0
LINE
  5
22A1
  8
3
 10
28.0915038379836091
 20
103.2226526130939988
 30
0.0
 11
28.0915038379836091
 21
78.222652613094013
 31
0.0
  0
LINE
  5
22A2
  8
3
 10
28.0915038379836091
 20
103.2226526130939988
 30
0.0
 11
29.0940815387912295
 21
104.9591681294284058
 31
0.0
  0
LINE
  5
22A3
  8
3
 10
18.2385038379836004
 20
103.2226526130939988
 30
0.0
 11
18.2385038379836004
 21
78.222652613094013
 31
0.0
  0
LINE
  5
22A4
  8
3
 10
18.2385038379836004
 20
103.2226526130939988
 30
0.0
 11
17.1650038379836012
 21
105.0820091550191933
 31
0.0
  0
LINE
  5
22A5
  8
1
 10
23.1650038379836083
 20
120.6226526130940044
 30
0.0
 11
23.1650038379836083
 21
67.2226526131231736
 31
0.0
  0
LINE
  5
22A7
  8
1
 10
86.3405219216934654
 20
167.2046893957727036
 30
0.0
 11
86.3405219216934654
 21
149.2046893957725047
 31
0.0
  0
LINE
  5
22A8
  8
1
 10
119.3405219216934938
 20
158.2046893957727036
 30
0.0
 11
77.3405219216933659
 21
158.2046893957727036
 31
0.0
  0
LINE
  5
22B4
  8
1
 10
86.3405219216934654
 20
37.1468939385712034
 30
0.0
 11
86.3405219216934654
 21
19.1468939385710186
 31
0.0
  0
LINE
  5
22B5
  8
1
 10
119.3405219216934938
 20
28.1468939385711394
 30
0.0
 11
77.3405219216933659
 21
28.1468939385711394
 31
0.0
  0
LINE
  5
2372
  8
0
 10
171.4773215042293941
 20
77.7226526131058364
 30
0.0
 11
171.3773215042311904
 21
77.9974003550394599
 31
0.0
  0
LINE
  5
2373
  8
0
 10
165.5773215042144102
 20
77.9974003550394599
 30
0.0
 11
165.4773215042162064
 21
77.7226526131058364
 31
0.0
  0
LINE
  5
2374
  8
0
 10
171.4773215042228003
 20
72.0226526130940101
 30
0.0
 11
171.4773215042228003
 21
77.7226526131058364
 31
0.0
  0
LINE
  5
2375
  8
0
 10
165.4773215042228003
 20
77.7226526131058364
 30
0.0
 11
165.4773215042228003
 21
72.0226526130940101
 31
0.0
  0
LINE
  5
2376
  8
0
 10
165.4773215042316963
 20
72.0226526130940101
 30
0.0
 11
166.2746852993248012
 21
70.6415780079097004
 31
0.0
  0
LINE
  5
2377
  8
0
 10
170.6799577091207993
 20
70.6415780079097004
 30
0.0
 11
171.4773215042139043
 21
72.0226526130940101
 31
0.0
  0
LINE
  5
2378
  8
0
 10
171.377321504222806
 20
77.9974003550394599
 30
0.0
 11
171.377321504222806
 21
78.222652613094013
 31
0.0
  0
LINE
  5
2379
  8
0
 10
165.5773215042227946
 20
78.222652613094013
 30
0.0
 11
165.5773215042227946
 21
77.9974003550394599
 31
0.0
  0
ARC
  5
237A
  8
0
 10
168.4773215042222887
 20
76.222652613096173
 30
0.0
 40
5.9999999999922018
 50
248.4627507535217035
 51
291.5372492464853167
  0
LINE
  5
237B
  8
0
 10
165.4773215042156096
 20
77.7226526131058364
 30
0.0
 11
171.4773215042299057
 21
77.7226526131058364
 31
0.0
  0
LINE
  5
237C
  8
0
 10
165.5773215042144102
 20
77.9974003550394599
 30
0.0
 11
171.3773215042311904
 21
77.9974003550394599
 31
0.0
  0
LINE
  5
237D
  8
0
 10
165.4773215043258006
 20
72.0226526130940101
 30
0.0
 11
171.4773215041198
 21
72.0226526130940101
 31
0.0
  0
LINE
  5
237E
  8
0
 10
166.2746852993248012
 20
70.6415780079097004
 30
0.0
 11
170.6799577091207141
 21
70.6415780079096436
 31
0.0
  0
LINE
  5
237F
  8
0
 10
89.340521921700045
 20
77.7226526131058364
 30
0.0
 11
89.2405219217018555
 21
77.9974003550394599
 31
0.0
  0
LINE
  5
2380
  8
0
 10
83.4405219216851037
 20
77.9974003550394599
 30
0.0
 11
83.3405219216868858
 21
77.7226526131058364
 31
0.0
  0
LINE
  5
2381
  8
0
 10
89.3405219216934654
 20
72.0226526130940101
 30
0.0
 11
89.3405219216934654
 21
77.7226526131058364
 31
0.0
  0
LINE
  5
2382
  8
0
 10
83.3405219216934654
 20
77.7226526131058364
 30
0.0
 11
83.3405219216934654
 21
72.0226526130940101
 31
0.0
  0
LINE
  5
2383
  8
0
 10
83.3405219217024467
 20
72.0226526130940101
 30
0.0
 11
84.1378857167954664
 21
70.6415780079097004
 31
0.0
  0
LINE
  5
2384
  8
0
 10
88.5431581265915071
 20
70.6415780079097004
 30
0.0
 11
89.340521921684541
 21
72.0226526130940101
 31
0.0
  0
LINE
  5
2385
  8
0
 10
89.2405219216934569
 20
77.9974003550394599
 30
0.0
 11
89.2405219216934569
 21
78.222652613094013
 31
0.0
  0
LINE
  5
2386
  8
0
 10
83.4405219216934739
 20
78.222652613094013
 30
0.0
 11
83.4405219216934739
 21
77.9974003550394599
 31
0.0
  0
ARC
  5
2387
  8
0
 10
86.3405219216930107
 20
76.222652613096173
 30
0.0
 40
5.9999999999922018
 50
248.4627507535217035
 51
291.5372492464853167
  0
LINE
  5
2388
  8
0
 10
83.3405219216863031
 20
77.7226526131058364
 30
0.0
 11
89.3405219217006135
 21
77.7226526131058364
 31
0.0
  0
LINE
  5
2389
  8
0
 10
83.4405219216851037
 20
77.9974003550394599
 30
0.0
 11
89.2405219217018555
 21
77.9974003550394599
 31
0.0
  0
LINE
  5
238A
  8
0
 10
83.3405219217964657
 20
72.0226526130940101
 30
0.0
 11
89.3405219215904651
 21
72.0226526130940101
 31
0.0
  0
LINE
  5
238B
  8
0
 10
84.1378857167954664
 20
70.6415780079097004
 30
0.0
 11
88.543158126591436
 21
70.6415780079096436
 31
0.0
  0
LINE
  5
238C
  8
0
 10
26.1650038379901915
 20
77.7226526131058506
 30
0.0
 11
26.0650038379919806
 21
77.9974003550394741
 31
0.0
  0
LINE
  5
238D
  8
0
 10
20.2650038379752289
 20
77.9974003550394741
 30
0.0
 11
20.1650038379770287
 21
77.7226526131058506
 31
0.0
  0
LINE
  5
238E
  8
0
 10
26.1650038379835905
 20
72.0226526130940243
 30
0.0
 11
26.1650038379835905
 21
77.7226526131058506
 31
0.0
  0
LINE
  5
238F
  8
0
 10
20.1650038379835905
 20
77.7226526131058506
 30
0.0
 11
20.1650038379835905
 21
72.0226526130940243
 31
0.0
  0
LINE
  5
2390
  8
0
 10
20.1650038379925682
 20
72.0226526130940243
 30
0.0
 11
20.9623676330855915
 21
70.6415780079097146
 31
0.0
  0
LINE
  5
2391
  8
0
 10
25.3676400428816216
 20
70.6415780079097146
 30
0.0
 11
26.1650038379746697
 21
72.0226526130940243
 31
0.0
  0
LINE
  5
2392
  8
0
 10
26.0650038379835998
 20
77.9974003550394741
 30
0.0
 11
26.0650038379835998
 21
78.2226526130940272
 31
0.0
  0
LINE
  5
2393
  8
0
 10
20.2650038379836097
 20
78.2226526130940272
 30
0.0
 11
20.2650038379836097
 21
77.9974003550394741
 31
0.0
  0
ARC
  5
2394
  8
0
 10
23.1650038379831393
 20
76.222652613096173
 30
0.0
 40
5.9999999999922018
 50
248.4627507535217035
 51
291.5372492464853167
  0
LINE
  5
2395
  8
0
 10
20.1650038379764283
 20
77.7226526131058506
 30
0.0
 11
26.1650038379907492
 21
77.7226526131058506
 31
0.0
  0
LINE
  5
2396
  8
0
 10
20.2650038379752289
 20
77.9974003550394741
 30
0.0
 11
26.0650038379919806
 21
77.9974003550394741
 31
0.0
  0
LINE
  5
2397
  8
0
 10
20.1650038380865908
 20
72.0226526130940243
 30
0.0
 11
26.1650038378805903
 21
72.0226526130940243
 31
0.0
  0
LINE
  5
2398
  8
0
 10
20.9623676330855915
 20
70.6415780079097146
 30
0.0
 11
25.3676400428815612
 21
70.641578007909672
 31
0.0
  0
ENDSEC
  0
EOF
