  0
SECTION
  2
HEADER
  9
$ACADVER
  1
AC1009
  9
$INSBASE
 10
0.0
 20
0.0
 30
0.0
  9
$EXTMIN
 10
0.0
 20
-1.4802182810368341
 30
0.0
  9
$EXTMAX
 10
178.4216184422028
 20
165.25556799402949
 30
10.0
  9
$LIMMIN
 10
0.0
 20
0.0
  9
$LIMMAX
 10
187.5
 20
135.0
  9
$ORTHOMODE
 70
     1
  9
$REGENMODE
 70
     1
  9
$FILLMODE
 70
     1
  9
$QTEXTMODE
 70
     0
  9
$MIRRTEXT
 70
     0
  9
$DRAGMODE
 70
     2
  9
$LTSCALE
 40
10.0
  9
$OSMODE
 70
  3071
  9
$ATTMODE
 70
     1
  9
$TEXTSIZE
 40
4.0
  9
$TRACEWID
 40
0.05
  9
$TEXTSTYLE
  7
STANDARD
  9
$CLAYER
  8
0
  9
$CELTYPE
  6
BYLAYER
  9
$CECOLOR
 62
   256
  9
$DIMSCALE
 40
0.5
  9
$DIMASZ
 40
3.0
  9
$DIMEXO
 40
2.0
  9
$DIMDLI
 40
0.38
  9
$DIMRND
 40
0.0
  9
$DIMDLE
 40
0.0
  9
$DIMEXE
 40
2.0
  9
$DIMTP
 40
0.0
  9
$DIMTM
 40
0.0
  9
$DIMTXT
 40
3.0
  9
$DIMCEN
 40
0.0
  9
$DIMTSZ
 40
0.0
  9
$DIMTOL
 70
     0
  9
$DIMLIM
 70
     0
  9
$DIMTIH
 70
     0
  9
$DIMTOH
 70
     0
  9
$DIMSE1
 70
     0
  9
$DIMSE2
 70
     0
  9
$DIMTAD
 70
     1
  9
$DIMZIN
 70
     0
  9
$DIMBLK
  1

  9
$DIMASO
 70
     0
  9
$DIMSHO
 70
     0
  9
$DIMPOST
  1

  9
$DIMAPOST
  1

  9
$DIMALT
 70
     0
  9
$DIMALTD
 70
     2
  9
$DIMALTF
 40
25.399999999999999
  9
$DIMLFAC
 40
1.0
  9
$DIMTOFL
 70
     0
  9
$DIMTVP
 40
1.6000000000000001
  9
$DIMTIX
 70
     1
  9
$DIMSOXD
 70
     0
  9
$DIMSAH
 70
     0
  9
$DIMBLK1
  1

  9
$DIMBLK2
  1

  9
$DIMSTYLE
  2
STANDARD
  9
$DIMCLRD
 70
     0
  9
$DIMCLRE
 70
     0
  9
$DIMCLRT
 70
     0
  9
$DIMTFAC
 40
1.0
  9
$DIMGAP
 40
0.09
  9
$LUNITS
 70
     2
  9
$LUPREC
 70
     4
  9
$SKETCHINC
 40
0.1
  9
$FILLETRAD
 40
1.0
  9
$AUNITS
 70
     0
  9
$AUPREC
 70
     0
  9
$MENU
  1
E:\r13\win\SUPPORT\ACAD
  9
$ELEVATION
 40
0.0
  9
$PELEVATION
 40
0.0
  9
$THICKNESS
 40
0.0
  9
$LIMCHECK
 70
     0
  9
$BLIPMODE
 70
     0
  9
$CHAMFERA
 40
0.0
  9
$CHAMFERB
 40
0.0
  9
$SKPOLY
 70
     0
  9
$TDCREATE
 40
2449840.6143865739
  9
$TDUPDATE
 40
2456598.6846249658
  9
$TDINDWG
 40
0.3314403472
  9
$TDUSRTIMER
 40
0.3314403472
  9
$USRTIMER
 70
     1
  9
$ANGBASE
 50
0.0
  9
$ANGDIR
 70
     0
  9
$PDMODE
 70
     0
  9
$PDSIZE
 40
0.0
  9
$PLINEWID
 40
0.0
  9
$COORDS
 70
     1
  9
$SPLFRAME
 70
     0
  9
$SPLINETYPE
 70
     6
  9
$SPLINESEGS
 70
     8
  9
$ATTDIA
 70
     0
  9
$ATTREQ
 70
     1
  9
$HANDLING
 70
     1
  9
$HANDSEED
  5
2A52
  9
$SURFTAB1
 70
     6
  9
$SURFTAB2
 70
     6
  9
$SURFTYPE
 70
     6
  9
$SURFU
 70
     6
  9
$SURFV
 70
     6
  9
$UCSNAME
  2

  9
$UCSORG
 10
0.0
 20
0.0
 30
0.0
  9
$UCSXDIR
 10
1.0
 20
0.0
 30
0.0
  9
$UCSYDIR
 10
0.0
 20
1.0
 30
0.0
  9
$PUCSNAME
  2

  9
$PUCSORG
 10
0.0
 20
0.0
 30
0.0
  9
$PUCSXDIR
 10
1.0
 20
0.0
 30
0.0
  9
$PUCSYDIR
 10
0.0
 20
1.0
 30
0.0
  9
$USERI1
 70
     0
  9
$USERI2
 70
     1
  9
$USERI3
 70
     1
  9
$USERI4
 70
     0
  9
$USERI5
 70
     0
  9
$USERR1
 40
0.0
  9
$USERR2
 40
0.0
  9
$USERR3
 40
0.0
  9
$USERR4
 40
0.0
  9
$USERR5
 40
0.0
  9
$WORLDVIEW
 70
     1
  9
$SHADEDGE
 70
     3
  9
$SHADEDIF
 70
    70
  9
$TILEMODE
 70
     1
  9
$MAXACTVP
 70
    16
  9
$PLIMCHECK
 70
     0
  9
$PEXTMIN
 10
1.0000000000000000E+020
 20
1.0000000000000000E+020
 30
1.0000000000000000E+020
  9
$PEXTMAX
 10
-1.0000000000000000E+020
 20
-1.0000000000000000E+020
 30
-1.0000000000000000E+020
  9
$PLIMMIN
 10
0.0
 20
0.0
  9
$PLIMMAX
 10
12.0
 20
9.0
  9
$UNITMODE
 70
     0
  9
$VISRETAIN
 70
     0
  9
$PLINEGEN
 70
     0
  9
$PSLTSCALE
 70
     0
  0
ENDSEC
  0
SECTION
  2
TABLES
  0
TABLE
  2
VPORT
 70
     1
  0
VPORT
  2
*ACTIVE
 70
     0
 10
0.0
 20
0.0
 11
1.0
 21
1.0
 12
93.747139195326156
 22
82.244901094397306
 13
0.0
 23
0.0
 14
5.0
 24
5.0
 15
5.0
 25
5.0
 16
0.0
 26
0.0
 36
1.0
 17
0.0
 27
0.0
 37
0.0
 40
169.39208137687999
 41
2.304913294797688
 42
50.0
 43
0.0
 44
0.0
 50
0.0
 51
0.0
 71
     0
 72
   100
 73
     1
 74
     0
 75
     0
 76
     0
 77
     0
 78
     0
  0
ENDTAB
  0
TABLE
  2
LTYPE
 70
     3
  0
LTYPE
  2
CONTINUOUS
 70
     0
  3
Solid Line
 72
    65
 73
     0
 40
0.0
  0
LTYPE
  2
CENTER
 70
     0
  3
____ _ ____ _ ____ _ ____ _ ____ _ ____ _ ____
 72
    65
 73
     4
 40
2.0
 49
1.25
 49
-0.25
 49
0.25
 49
-0.25
  0
LTYPE
  2
PHANTOM2
 70
     0
  3
___ _ _ ___ _ _ ___ _ _ ___ _ _
 72
    65
 73
     6
 40
1.25
 49
0.625
 49
-0.125
 49
0.125
 49
-0.125
 49
0.125
 49
-0.125
  0
ENDTAB
  0
TABLE
  2
LAYER
 70
     3
  0
LAYER
  2
0
 70
     0
 62
     7
  6
CONTINUOUS
  0
LAYER
  2
1
 70
     0
 62
     1
  6
CENTER
  0
LAYER
  2
3
 70
     0
 62
     3
  6
CONTINUOUS
  0
ENDTAB
  0
TABLE
  2
STYLE
 70
     2
  0
STYLE
  2
STANDARD
 70
     0
 40
0.0
 41
1.0
 50
0.0
 71
     0
 42
4.0
  3
TXT
  4
BIGFONT
  0
STYLE
  2
STANDARD1
 70
     0
 40
0.0
 41
1.0
 50
0.0
 71
     0
 42
3.0
  3
txt
  4

  0
ENDTAB
  0
TABLE
  2
VIEW
 70
     1
  0
VIEW
  2
ALL
 70
     0
 40
179.66152299999999
 10
141.903918
 20
89.830760999999995
 41
0.0
 11
0.0
 21
0.0
 31
1.0
 12
0.0
 22
0.0
 32
0.0
 42
0.0
 43
0.0
 44
0.0
 50
0.0
 71
     0
  0
ENDTAB
  0
TABLE
  2
UCS
 70
     0
  0
ENDTAB
  0
TABLE
  2
APPID
 70
     4
  0
APPID
  2
ACAD
 70
     0
  0
APPID
  2
DCO15
 70
     0
  0
APPID
  2
ACAD_MLEADERVER
 70
     0
  0
APPID
  2
ACAD_NAV_VCDISPLAY
 70
     0
  0
ENDTAB
  0
TABLE
  2
DIMSTYLE
 70
     1
  0
DIMSTYLE
  2
STANDARD
 70
     0
  3

  4

  5

  6

  7

 40
1.0
 41
0.18
 42
0.0625
 43
0.38
 44
0.18
 45
0.0
 46
0.0
 47
0.0
 48
0.0
140
0.18
141
0.09
142
0.0
143
25.399999999999999
144
1.0
145
0.0
146
1.0
147
0.09
 71
     0
 72
     0
 73
     1
 74
     1
 75
     0
 76
     0
 77
     0
 78
     0
170
     0
171
     2
172
     0
173
     0
174
     0
175
     0
176
     0
177
     0
178
     0
  0
ENDTAB
  0
ENDSEC
  0
SECTION
  2
BLOCKS
  0
BLOCK
  8
0
  2
$MODEL_SPACE
 70
     0
 10
0.0
 20
0.0
 30
0.0
  3
$MODEL_SPACE
  1

  0
ENDBLK
  5
1BD
  8
0
  0
BLOCK
 67
     1
  8
0
  2
$PAPER_SPACE
 70
     0
 10
0.0
 20
0.0
 30
0.0
  3
$PAPER_SPACE
  1

  0
ENDBLK
  5
1BB
 67
     1
  8
0
  0
ENDSEC
  0
SECTION
  2
ENTITIES
  0
POINT
  5
1A04
  8
1
 10
87.784818859673464
 20
23.69777253682804
 30
10.0
210
0.0
220
1.0
230
-0.0000000000000001
  0
POINT
  5
1A05
  8
1
 10
87.784818859673464
 20
23.69777253682804
 30
0.0
210
0.0
220
-1.0
230
0.0000000000000001
  0
POINT
  5
1A06
  8
1
 10
87.784818859673464
 20
23.69777253682804
 30
0.0
210
0.0
220
-1.0
230
0.0000000000000001
  0
POINT
  5
1A07
  8
1
 10
87.784818859673464
 20
23.69777253682804
 30
10.0
210
0.0
220
-1.0
230
0.0000000000000001
  0
POINT
  5
1A08
  8
1
 10
87.784818859673464
 20
23.69777253682804
 30
0.0
210
0.0
220
-1.0
230
0.0000000000000001
  0
LINE
  5
1A09
  8
1
 10
87.784818859673464
 20
12.19777253682804
 30
0.0
 11
87.784818859673464
 21
35.197772536828033
 31
0.0
  0
LINE
  5
1A0A
  8
1
 10
76.284818859673464
 20
23.69777253682804
 30
0.0
 11
115.78481885967339
 21
23.69777253682804
 31
0.0
  0
LINE
  5
1A29
  8
0
  6
CONTINUOUS
 62
     0
 10
111.78481885967339
 20
22.19777253682804
 30
0.0
 11
96.733748032112672
 21
22.19777253682804
 31
0.0
  0
LINE
  5
1A2A
  8
3
 10
99.384818859673473
 20
22.19777253682804
 30
0.0
 11
99.384818859673473
 21
25.19777253682804
 31
0.0
  0
LINE
  5
1A2D
  8
0
  6
CONTINUOUS
 62
     0
 10
111.78481885967339
 20
25.19777253682804
 30
0.0
 11
96.733748032112672
 21
25.19777253682804
 31
0.0
  0
CIRCLE
  5
1A2E
  8
0
  6
CONTINUOUS
 62
     0
 10
87.784818859673464
 20
23.69777253682804
 30
0.0
 40
2.0
  0
CIRCLE
  5
1A2F
  8
0
  6
CONTINUOUS
 62
     0
 10
87.784818859673464
 20
23.69777253682804
 30
0.0
 40
1.422649730810374
  0
POLYLINE
  5
1A39
  8
0
  6
CONTINUOUS
 62
     0
 66
     1
 10
0.0
 20
0.0
 30
0.0
  0
VERTEX
  5
1FAC
  8
0
  6
CONTINUOUS
 62
     0
 10
82.877341571561644
 20
15.19777253682804
 30
0.0
  0
VERTEX
  5
1FAD
  8
0
  6
CONTINUOUS
 62
     0
 10
83.024128899842026
 20
15.19777253682804
 30
0.0
  0
VERTEX
  5
1FAE
  8
0
  6
CONTINUOUS
 62
     0
 10
83.31437567009317
 20
15.19777253682804
 30
0.0
  0
VERTEX
  5
1FAF
  8
0
  6
CONTINUOUS
 62
     0
 10
83.600516153380838
 20
15.19777253682804
 30
0.0
  0
VERTEX
  5
1FB0
  8
0
  6
CONTINUOUS
 62
     0
 10
83.742167918813436
 20
15.19777253682804
 30
0.0
  0
VERTEX
  5
1FB1
  8
0
  6
CONTINUOUS
 62
     0
 10
83.882937481827526
 20
15.19777253682804
 30
0.0
  0
VERTEX
  5
1FB2
  8
0
  6
CONTINUOUS
 62
     0
 10
84.162016992643814
 20
15.19777253682804
 30
0.0
  0
VERTEX
  5
1FB3
  8
0
  6
CONTINUOUS
 62
     0
 10
84.438123911093783
 20
15.19777253682804
 30
0.0
  0
VERTEX
  5
1FB4
  8
0
  6
CONTINUOUS
 62
     0
 10
84.711620984727574
 20
15.19777253682804
 30
0.0
  0
VERTEX
  5
1FB5
  8
0
  6
CONTINUOUS
 62
     0
 10
84.982866084135651
 20
15.19777253682804
 30
0.0
  0
VERTEX
  5
1FB6
  8
0
  6
CONTINUOUS
 62
     0
 10
85.252213785183656
 20
15.19777253682804
 30
0.0
  0
VERTEX
  5
1FB7
  8
0
  6
CONTINUOUS
 62
     0
 10
85.386286403700524
 20
15.19777253682804
 30
0.0
  0
VERTEX
  5
1FB8
  8
0
  6
CONTINUOUS
 62
     0
 10
85.520016947635554
 20
15.19777253682804
 30
0.0
  0
VERTEX
  5
1FB9
  8
0
  6
CONTINUOUS
 62
     0
 10
85.786628305263491
 20
15.19777253682804
 30
0.0
  0
VERTEX
  5
1FBA
  8
0
  6
CONTINUOUS
 62
     0
 10
86.052402082989374
 20
15.19777253682804
 30
0.0
  0
VERTEX
  5
1FBB
  8
0
  6
CONTINUOUS
 62
     0
 10
86.317695657316776
 20
15.19777253682804
 30
0.0
  0
VERTEX
  5
1FBC
  8
0
  6
CONTINUOUS
 62
     0
 10
86.582871277317963
 20
15.19777253682804
 30
0.0
  0
VERTEX
  5
1FBD
  8
0
  6
CONTINUOUS
 62
     0
 10
86.848297864769904
 20
15.19777253682804
 30
0.0
  0
VERTEX
  5
1FBE
  8
0
  6
CONTINUOUS
 62
     0
 10
86.981222848992843
 20
15.19777253682804
 30
0.0
  0
VERTEX
  5
1FBF
  8
0
  6
CONTINUOUS
 62
     0
 10
87.114352913725426
 20
15.19777253682804
 30
0.0
  0
VERTEX
  5
1FC0
  8
0
  6
CONTINUOUS
 62
     0
 10
87.381424511913679
 20
15.19777253682804
 30
0.0
  0
VERTEX
  5
1FC1
  8
0
  6
CONTINUOUS
 62
     0
 10
87.649913508952565
 20
15.19777253682804
 30
0.0
  0
VERTEX
  5
1FC2
  8
0
  6
CONTINUOUS
 62
     0
 10
87.784818859673464
 20
15.19777253682804
 30
0.0
  0
SEQEND
  5
1FC3
  8
0
  6
CONTINUOUS
 62
     0
  0
POLYLINE
  5
1A3A
  8
0
  6
CONTINUOUS
 62
     0
 66
     1
 10
0.0
 20
0.0
 30
0.0
  0
VERTEX
  5
1FC4
  8
0
  6
CONTINUOUS
 62
     0
 10
87.784818859673464
 20
15.19777253682804
 30
0.0
  0
VERTEX
  5
1FC5
  8
0
  6
CONTINUOUS
 62
     0
 10
87.919724210394349
 20
15.19777253682804
 30
0.0
  0
VERTEX
  5
1FC6
  8
0
  6
CONTINUOUS
 62
     0
 10
88.188213207433293
 20
15.19777253682804
 30
0.0
  0
VERTEX
  5
1FC7
  8
0
  6
CONTINUOUS
 62
     0
 10
88.455284805621488
 20
15.19777253682804
 30
0.0
  0
VERTEX
  5
1FC8
  8
0
  6
CONTINUOUS
 62
     0
 10
88.588414870354086
 20
15.19777253682804
 30
0.0
  0
VERTEX
  5
1FC9
  8
0
  6
CONTINUOUS
 62
     0
 10
88.721339854577025
 20
15.19777253682804
 30
0.0
  0
VERTEX
  5
1FCA
  8
0
  6
CONTINUOUS
 62
     0
 10
88.986766442028966
 20
15.19777253682804
 30
0.0
  0
VERTEX
  5
1FCB
  8
0
  6
CONTINUOUS
 62
     0
 10
89.251942062030139
 20
15.19777253682804
 30
0.0
  0
VERTEX
  5
1FCC
  8
0
  6
CONTINUOUS
 62
     0
 10
89.517235636357555
 20
15.19777253682804
 30
0.0
  0
VERTEX
  5
1FCD
  8
0
  6
CONTINUOUS
 62
     0
 10
89.783009414083438
 20
15.19777253682804
 30
0.0
  0
VERTEX
  5
1FCE
  8
0
  6
CONTINUOUS
 62
     0
 10
90.049620771711375
 20
15.19777253682804
 30
0.0
  0
VERTEX
  5
1FCF
  8
0
  6
CONTINUOUS
 62
     0
 10
90.183351315646405
 20
15.19777253682804
 30
0.0
  0
VERTEX
  5
1FD0
  8
0
  6
CONTINUOUS
 62
     0
 10
90.317423934163287
 20
15.19777253682804
 30
0.0
  0
VERTEX
  5
1FD1
  8
0
  6
CONTINUOUS
 62
     0
 10
90.586771635211278
 20
15.19777253682804
 30
0.0
  0
VERTEX
  5
1FD2
  8
0
  6
CONTINUOUS
 62
     0
 10
90.858016734619355
 20
15.19777253682804
 30
0.0
  0
VERTEX
  5
1FD3
  8
0
  6
CONTINUOUS
 62
     0
 10
91.131513808253146
 20
15.19777253682804
 30
0.0
  0
VERTEX
  5
1FD4
  8
0
  6
CONTINUOUS
 62
     0
 10
91.407620726703115
 20
15.19777253682804
 30
0.0
  0
VERTEX
  5
1FD5
  8
0
  6
CONTINUOUS
 62
     0
 10
91.686700237519403
 20
15.19777253682804
 30
0.0
  0
VERTEX
  5
1FD6
  8
0
  6
CONTINUOUS
 62
     0
 10
91.827469800533507
 20
15.19777253682804
 30
0.0
  0
VERTEX
  5
1FD7
  8
0
  6
CONTINUOUS
 62
     0
 10
91.969121565966077
 20
15.19777253682804
 30
0.0
  0
VERTEX
  5
1FD8
  8
0
  6
CONTINUOUS
 62
     0
 10
92.255262049253759
 20
15.19777253682804
 30
0.0
  0
VERTEX
  5
1FD9
  8
0
  6
CONTINUOUS
 62
     0
 10
92.545508819504903
 20
15.19777253682804
 30
0.0
  0
VERTEX
  5
1FDA
  8
0
  6
CONTINUOUS
 62
     0
 10
92.692296147785271
 20
15.19777253682804
 30
0.0
  0
SEQEND
  5
1FDB
  8
0
  6
CONTINUOUS
 62
     0
  0
POLYLINE
  5
1A3B
  8
0
  6
CONTINUOUS
 62
     0
 66
     1
 10
0.0
 20
0.0
 30
0.0
  0
VERTEX
  5
1FDC
  8
0
  6
CONTINUOUS
 62
     0
 10
96.731123209752468
 20
25.202318862516709
 30
0.0
  0
VERTEX
  5
1FDD
  8
0
  6
CONTINUOUS
 62
     0
 10
96.463367956759669
 20
25.666084564693762
 30
0.0
  0
VERTEX
  5
1FDE
  8
0
  6
CONTINUOUS
 62
     0
 10
95.936324819689673
 20
26.578950055879432
 30
0.0
  0
VERTEX
  5
1FDF
  8
0
  6
CONTINUOUS
 62
     0
 10
95.630571596871562
 20
27.10853017237838
 30
0.0
  0
VERTEX
  5
1FE0
  8
0
  6
CONTINUOUS
 62
     0
 10
95.543030509700813
 20
27.260155783107908
 30
0.0
  0
VERTEX
  5
1FE1
  8
0
  6
CONTINUOUS
 62
     0
 10
95.455308411907296
 20
27.41209491343275
 30
0.0
  0
VERTEX
  5
1FE2
  8
0
  6
CONTINUOUS
 62
     0
 10
95.411362015080954
 20
27.488212305545542
 30
0.0
  0
VERTEX
  5
1FE3
  8
0
  6
CONTINUOUS
 62
     0
 10
95.367349253088818
 20
27.564444645497449
 30
0.0
  0
VERTEX
  5
1FE4
  8
0
  6
CONTINUOUS
 62
     0
 10
95.279095742034315
 20
27.717304210590161
 30
0.0
  0
VERTEX
  5
1FE5
  8
0
  6
CONTINUOUS
 62
     0
 10
95.190489201453147
 20
27.870775240759681
 30
0.0
  0
VERTEX
  5
1FE6
  8
0
  6
CONTINUOUS
 62
     0
 10
95.146034791841203
 20
27.94777253682804
 30
0.0
  0
SEQEND
  5
1FE7
  8
0
  6
CONTINUOUS
 62
     0
  0
POLYLINE
  5
1A3C
  8
0
  6
CONTINUOUS
 62
     0
 66
     1
 10
0.0
 20
0.0
 30
0.0
  0
VERTEX
  5
1FE8
  8
0
  6
CONTINUOUS
 62
     0
 10
97.599773435897077
 20
23.69777253682804
 30
0.0
  0
VERTEX
  5
1FE9
  8
0
  6
CONTINUOUS
 62
     0
 10
97.450057297474928
 20
23.957088495288279
 30
0.0
  0
VERTEX
  5
1FEA
  8
0
  6
CONTINUOUS
 62
     0
 10
97.157169970620316
 20
24.464384226293511
 30
0.0
  0
VERTEX
  5
1FEB
  8
0
  6
CONTINUOUS
 62
     0
 10
96.871633076297769
 20
24.95894863469556
 30
0.0
  0
VERTEX
  5
1FEC
  8
0
  6
CONTINUOUS
 62
     0
 10
96.731123209752468
 20
25.202318862516709
 30
0.0
  0
SEQEND
  5
1FED
  8
0
  6
CONTINUOUS
 62
     0
  0
POLYLINE
  5
1A3D
  8
0
  6
CONTINUOUS
 62
     0
 66
     1
 10
0.0
 20
0.0
 30
0.0
  0
VERTEX
  5
1FEE
  8
0
  6
CONTINUOUS
 62
     0
 10
95.146034791841203
 20
27.94777253682804
 30
0.0
  0
VERTEX
  5
1FEF
  8
0
  6
CONTINUOUS
 62
     0
 10
95.078582116480788
 20
28.064603997658772
 30
0.0
  0
VERTEX
  5
1FF0
  8
0
  6
CONTINUOUS
 62
     0
 10
94.944337617961295
 20
28.29712228973111
 30
0.0
  0
VERTEX
  5
1FF1
  8
0
  6
CONTINUOUS
 62
     0
 10
94.810801818867148
 20
28.528413078391399
 30
0.0
  0
VERTEX
  5
1FF2
  8
0
  6
CONTINUOUS
 62
     0
 10
94.744236786500878
 20
28.643707096457319
 30
0.0
  0
VERTEX
  5
1FF3
  8
0
  6
CONTINUOUS
 62
     0
 10
94.677774294389394
 20
28.75882350959202
 30
0.0
  0
VERTEX
  5
1FF4
  8
0
  6
CONTINUOUS
 62
     0
 10
94.545061000663438
 20
28.988689677165191
 30
0.0
  0
VERTEX
  5
1FF5
  8
0
  6
CONTINUOUS
 62
     0
 10
94.412473190662865
 20
29.218338500550491
 30
0.0
  0
VERTEX
  5
1FF6
  8
0
  6
CONTINUOUS
 62
     0
 10
94.279826403499143
 20
29.44808947537879
 30
0.0
  0
VERTEX
  5
1FF7
  8
0
  6
CONTINUOUS
 62
     0
 10
94.146939514636173
 20
29.678256318549192
 30
0.0
  0
VERTEX
  5
1FF8
  8
0
  6
CONTINUOUS
 62
     0
 10
94.013633835822247
 20
29.90914852719246
 30
0.0
  0
VERTEX
  5
1FF9
  8
0
  6
CONTINUOUS
 62
     0
 10
93.946768563854732
 20
30.024962575502091
 30
0.0
  0
VERTEX
  5
1FFA
  8
0
  6
CONTINUOUS
 62
     0
 10
93.879732254596263
 20
30.141072869089619
 30
0.0
  0
VERTEX
  5
1FFB
  8
0
  6
CONTINUOUS
 62
     0
 10
93.745058404072267
 20
30.37433482064813
 30
0.0
  0
VERTEX
  5
1FFC
  8
0
  6
CONTINUOUS
 62
     0
 10
93.609435854368257
 20
30.609239967387509
 30
0.0
  0
VERTEX
  5
1FFD
  8
0
  6
CONTINUOUS
 62
     0
 10
93.472687317551333
 20
30.84609538101509
 30
0.0
  0
VERTEX
  5
1FFE
  8
0
  6
CONTINUOUS
 62
     0
 10
93.334633858326356
 20
31.085210986553388
 30
0.0
  0
VERTEX
  5
1FFF
  8
0
  6
CONTINUOUS
 62
     0
 10
93.195094102918233
 20
31.326900932596061
 30
0.0
  0
VERTEX
  5
2000
  8
0
  6
CONTINUOUS
 62
     0
 10
93.124709321411146
 20
31.448810950245871
 30
0.0
  0
VERTEX
  5
2001
  8
0
  6
CONTINUOUS
 62
     0
 10
93.053883438694854
 20
31.571484977601418
 30
0.0
  0
VERTEX
  5
2002
  8
0
  6
CONTINUOUS
 62
     0
 10
92.910813197051027
 20
31.819289905179719
 30
0.0
  0
VERTEX
  5
2003
  8
0
  6
CONTINUOUS
 62
     0
 10
92.765689811925483
 20
32.070650981583611
 30
0.0
  0
VERTEX
  5
2004
  8
0
  6
CONTINUOUS
 62
     0
 10
92.692296147785271
 20
32.19777253682804
 30
0.0
  0
SEQEND
  5
2005
  8
0
  6
CONTINUOUS
 62
     0
  0
POLYLINE
  5
1A3E
  8
0
  6
CONTINUOUS
 62
     0
 66
     1
 10
0.0
 20
0.0
 30
0.0
  0
VERTEX
  5
2006
  8
0
  6
CONTINUOUS
 62
     0
 10
92.692296147785271
 20
15.19777253682804
 30
0.0
  0
VERTEX
  5
2007
  8
0
  6
CONTINUOUS
 62
     0
 10
92.765689811925483
 20
15.324894092072469
 30
0.0
  0
VERTEX
  5
2008
  8
0
  6
CONTINUOUS
 62
     0
 10
92.910813197051027
 20
15.57625516847636
 30
0.0
  0
VERTEX
  5
2009
  8
0
  6
CONTINUOUS
 62
     0
 10
93.053883438694854
 20
15.82406009605466
 30
0.0
  0
VERTEX
  5
200A
  8
0
  6
CONTINUOUS
 62
     0
 10
93.124709321411146
 20
15.946734123410209
 30
0.0
  0
VERTEX
  5
200B
  8
0
  6
CONTINUOUS
 62
     0
 10
93.195094102918233
 20
16.06864414106002
 30
0.0
  0
VERTEX
  5
200C
  8
0
  6
CONTINUOUS
 62
     0
 10
93.334633858326356
 20
16.310334087102689
 30
0.0
  0
VERTEX
  5
200D
  8
0
  6
CONTINUOUS
 62
     0
 10
93.47268731755139
 20
16.549449692640991
 30
0.0
  0
VERTEX
  5
200E
  8
0
  6
CONTINUOUS
 62
     0
 10
93.609435854368257
 20
16.786305106268571
 30
0.0
  0
VERTEX
  5
200F
  8
0
  6
CONTINUOUS
 62
     0
 10
93.745058404072267
 20
17.021210253007979
 30
0.0
  0
VERTEX
  5
2010
  8
0
  6
CONTINUOUS
 62
     0
 10
93.879732254596263
 20
17.254472204566468
 30
0.0
  0
VERTEX
  5
2011
  8
0
  6
CONTINUOUS
 62
     0
 10
93.946768563854732
 20
17.37058249815399
 30
0.0
  0
VERTEX
  5
2012
  8
0
  6
CONTINUOUS
 62
     0
 10
94.013633835822247
 20
17.48639654646362
 30
0.0
  0
VERTEX
  5
2013
  8
0
  6
CONTINUOUS
 62
     0
 10
94.146939514636173
 20
17.717288755106889
 30
0.0
  0
VERTEX
  5
2014
  8
0
  6
CONTINUOUS
 62
     0
 10
94.279826403499143
 20
17.947455598277291
 30
0.0
  0
VERTEX
  5
2015
  8
0
  6
CONTINUOUS
 62
     0
 10
94.412473190662865
 20
18.17720657310559
 30
0.0
  0
VERTEX
  5
2016
  8
0
  6
CONTINUOUS
 62
     0
 10
94.545061000663438
 20
18.406855396490901
 30
0.0
  0
VERTEX
  5
2017
  8
0
  6
CONTINUOUS
 62
     0
 10
94.677774294389394
 20
18.636721564064061
 30
0.0
  0
VERTEX
  5
2018
  8
0
  6
CONTINUOUS
 62
     0
 10
94.744236786500878
 20
18.751837977198761
 30
0.0
  0
VERTEX
  5
2019
  8
0
  6
CONTINUOUS
 62
     0
 10
94.810801818867148
 20
18.867131995264678
 30
0.0
  0
VERTEX
  5
201A
  8
0
  6
CONTINUOUS
 62
     0
 10
94.944337617961295
 20
19.098422783924999
 30
0.0
  0
VERTEX
  5
201B
  8
0
  6
CONTINUOUS
 62
     0
 10
95.078582116480788
 20
19.330941075997309
 30
0.0
  0
VERTEX
  5
201C
  8
0
  6
CONTINUOUS
 62
     0
 10
95.146034791841203
 20
19.44777253682804
 30
0.0
  0
SEQEND
  5
201D
  8
0
  6
CONTINUOUS
 62
     0
  0
POLYLINE
  5
1A3F
  8
0
  6
CONTINUOUS
 62
     0
 66
     1
 10
0.0
 20
0.0
 30
0.0
  0
VERTEX
  5
201E
  8
0
  6
CONTINUOUS
 62
     0
 10
96.731123209752468
 20
22.193226211139379
 30
0.0
  0
VERTEX
  5
201F
  8
0
  6
CONTINUOUS
 62
     0
 10
96.871633076297769
 20
22.436596438960521
 30
0.0
  0
VERTEX
  5
2020
  8
0
  6
CONTINUOUS
 62
     0
 10
97.157169970620316
 20
22.93116084736258
 30
0.0
  0
VERTEX
  5
2021
  8
0
  6
CONTINUOUS
 62
     0
 10
97.450057297474928
 20
23.438456578367809
 30
0.0
  0
VERTEX
  5
2022
  8
0
  6
CONTINUOUS
 62
     0
 10
97.599773435897077
 20
23.69777253682804
 30
0.0
  0
SEQEND
  5
2023
  8
0
  6
CONTINUOUS
 62
     0
  0
POLYLINE
  5
1A40
  8
0
  6
CONTINUOUS
 62
     0
 66
     1
 10
0.0
 20
0.0
 30
0.0
  0
VERTEX
  5
2024
  8
0
  6
CONTINUOUS
 62
     0
 10
95.146034791841203
 20
19.44777253682804
 30
0.0
  0
VERTEX
  5
2025
  8
0
  6
CONTINUOUS
 62
     0
 10
95.190489201453147
 20
19.524769832896389
 30
0.0
  0
VERTEX
  5
2026
  8
0
  6
CONTINUOUS
 62
     0
 10
95.279095742034315
 20
19.67824086306592
 30
0.0
  0
VERTEX
  5
2027
  8
0
  6
CONTINUOUS
 62
     0
 10
95.367349253088818
 20
19.831100428158631
 30
0.0
  0
VERTEX
  5
2028
  8
0
  6
CONTINUOUS
 62
     0
 10
95.411362015080954
 20
19.907332768110528
 30
0.0
  0
VERTEX
  5
2029
  8
0
  6
CONTINUOUS
 62
     0
 10
95.455308411907296
 20
19.983450160223331
 30
0.0
  0
VERTEX
  5
202A
  8
0
  6
CONTINUOUS
 62
     0
 10
95.543030509700813
 20
20.135389290548179
 30
0.0
  0
VERTEX
  5
202B
  8
0
  6
CONTINUOUS
 62
     0
 10
95.630571596871562
 20
20.287014901277701
 30
0.0
  0
VERTEX
  5
202C
  8
0
  6
CONTINUOUS
 62
     0
 10
95.936324819689673
 20
20.816595017776649
 30
0.0
  0
VERTEX
  5
202D
  8
0
  6
CONTINUOUS
 62
     0
 10
96.463367956759669
 20
21.729460508962319
 30
0.0
  0
VERTEX
  5
202E
  8
0
  6
CONTINUOUS
 62
     0
 10
96.731123209752468
 20
22.193226211139379
 30
0.0
  0
SEQEND
  5
202F
  8
0
  6
CONTINUOUS
 62
     0
  0
POLYLINE
  5
1A41
  8
0
  6
CONTINUOUS
 62
     0
 66
     1
 10
0.0
 20
0.0
 30
0.0
  0
VERTEX
  5
2030
  8
0
  6
CONTINUOUS
 62
     0
 10
87.784818859673464
 20
32.19777253682804
 30
0.0
  0
VERTEX
  5
2031
  8
0
  6
CONTINUOUS
 62
     0
 10
87.649913508952565
 20
32.19777253682804
 30
0.0
  0
VERTEX
  5
2032
  8
0
  6
CONTINUOUS
 62
     0
 10
87.381424511913636
 20
32.19777253682804
 30
0.0
  0
VERTEX
  5
2033
  8
0
  6
CONTINUOUS
 62
     0
 10
87.114352913725426
 20
32.19777253682804
 30
0.0
  0
VERTEX
  5
2034
  8
0
  6
CONTINUOUS
 62
     0
 10
86.981222848992843
 20
32.19777253682804
 30
0.0
  0
VERTEX
  5
2035
  8
0
  6
CONTINUOUS
 62
     0
 10
86.848297864769904
 20
32.19777253682804
 30
0.0
  0
VERTEX
  5
2036
  8
0
  6
CONTINUOUS
 62
     0
 10
86.582871277317963
 20
32.19777253682804
 30
0.0
  0
VERTEX
  5
2037
  8
0
  6
CONTINUOUS
 62
     0
 10
86.317695657316776
 20
32.19777253682804
 30
0.0
  0
VERTEX
  5
2038
  8
0
  6
CONTINUOUS
 62
     0
 10
86.052402082989374
 20
32.19777253682804
 30
0.0
  0
VERTEX
  5
2039
  8
0
  6
CONTINUOUS
 62
     0
 10
85.786628305263491
 20
32.19777253682804
 30
0.0
  0
VERTEX
  5
203A
  8
0
  6
CONTINUOUS
 62
     0
 10
85.520016947635554
 20
32.19777253682804
 30
0.0
  0
VERTEX
  5
203B
  8
0
  6
CONTINUOUS
 62
     0
 10
85.386286403700524
 20
32.19777253682804
 30
0.0
  0
VERTEX
  5
203C
  8
0
  6
CONTINUOUS
 62
     0
 10
85.252213785183656
 20
32.19777253682804
 30
0.0
  0
VERTEX
  5
203D
  8
0
  6
CONTINUOUS
 62
     0
 10
84.982866084135651
 20
32.19777253682804
 30
0.0
  0
VERTEX
  5
203E
  8
0
  6
CONTINUOUS
 62
     0
 10
84.711620984727574
 20
32.19777253682804
 30
0.0
  0
VERTEX
  5
203F
  8
0
  6
CONTINUOUS
 62
     0
 10
84.438123911093783
 20
32.19777253682804
 30
0.0
  0
VERTEX
  5
2040
  8
0
  6
CONTINUOUS
 62
     0
 10
84.162016992643814
 20
32.19777253682804
 30
0.0
  0
VERTEX
  5
2041
  8
0
  6
CONTINUOUS
 62
     0
 10
83.882937481827526
 20
32.19777253682804
 30
0.0
  0
VERTEX
  5
2042
  8
0
  6
CONTINUOUS
 62
     0
 10
83.742167918813436
 20
32.19777253682804
 30
0.0
  0
VERTEX
  5
2043
  8
0
  6
CONTINUOUS
 62
     0
 10
83.600516153380838
 20
32.19777253682804
 30
0.0
  0
VERTEX
  5
2044
  8
0
  6
CONTINUOUS
 62
     0
 10
83.31437567009317
 20
32.19777253682804
 30
0.0
  0
VERTEX
  5
2045
  8
0
  6
CONTINUOUS
 62
     0
 10
83.024128899842026
 20
32.19777253682804
 30
0.0
  0
VERTEX
  5
2046
  8
0
  6
CONTINUOUS
 62
     0
 10
82.877341571561644
 20
32.19777253682804
 30
0.0
  0
SEQEND
  5
2047
  8
0
  6
CONTINUOUS
 62
     0
  0
POLYLINE
  5
1A42
  8
0
  6
CONTINUOUS
 62
     0
 66
     1
 10
0.0
 20
0.0
 30
0.0
  0
VERTEX
  5
2048
  8
0
  6
CONTINUOUS
 62
     0
 10
92.692296147785271
 20
32.19777253682804
 30
0.0
  0
VERTEX
  5
2049
  8
0
  6
CONTINUOUS
 62
     0
 10
92.545508819504903
 20
32.19777253682804
 30
0.0
  0
VERTEX
  5
204A
  8
0
  6
CONTINUOUS
 62
     0
 10
92.255262049253759
 20
32.19777253682804
 30
0.0
  0
VERTEX
  5
204B
  8
0
  6
CONTINUOUS
 62
     0
 10
91.969121565966077
 20
32.19777253682804
 30
0.0
  0
VERTEX
  5
204C
  8
0
  6
CONTINUOUS
 62
     0
 10
91.827469800533507
 20
32.19777253682804
 30
0.0
  0
VERTEX
  5
204D
  8
0
  6
CONTINUOUS
 62
     0
 10
91.686700237519403
 20
32.19777253682804
 30
0.0
  0
VERTEX
  5
204E
  8
0
  6
CONTINUOUS
 62
     0
 10
91.407620726703115
 20
32.19777253682804
 30
0.0
  0
VERTEX
  5
204F
  8
0
  6
CONTINUOUS
 62
     0
 10
91.131513808253146
 20
32.19777253682804
 30
0.0
  0
VERTEX
  5
2050
  8
0
  6
CONTINUOUS
 62
     0
 10
90.858016734619355
 20
32.19777253682804
 30
0.0
  0
VERTEX
  5
2051
  8
0
  6
CONTINUOUS
 62
     0
 10
90.586771635211278
 20
32.19777253682804
 30
0.0
  0
VERTEX
  5
2052
  8
0
  6
CONTINUOUS
 62
     0
 10
90.317423934163287
 20
32.19777253682804
 30
0.0
  0
VERTEX
  5
2053
  8
0
  6
CONTINUOUS
 62
     0
 10
90.183351315646405
 20
32.19777253682804
 30
0.0
  0
VERTEX
  5
2054
  8
0
  6
CONTINUOUS
 62
     0
 10
90.049620771711375
 20
32.19777253682804
 30
0.0
  0
VERTEX
  5
2055
  8
0
  6
CONTINUOUS
 62
     0
 10
89.783009414083438
 20
32.19777253682804
 30
0.0
  0
VERTEX
  5
2056
  8
0
  6
CONTINUOUS
 62
     0
 10
89.517235636357555
 20
32.19777253682804
 30
0.0
  0
VERTEX
  5
2057
  8
0
  6
CONTINUOUS
 62
     0
 10
89.251942062030139
 20
32.19777253682804
 30
0.0
  0
VERTEX
  5
2058
  8
0
  6
CONTINUOUS
 62
     0
 10
88.986766442028966
 20
32.19777253682804
 30
0.0
  0
VERTEX
  5
2059
  8
0
  6
CONTINUOUS
 62
     0
 10
88.721339854577025
 20
32.19777253682804
 30
0.0
  0
VERTEX
  5
205A
  8
0
  6
CONTINUOUS
 62
     0
 10
88.588414870354086
 20
32.19777253682804
 30
0.0
  0
VERTEX
  5
205B
  8
0
  6
CONTINUOUS
 62
     0
 10
88.455284805621488
 20
32.19777253682804
 30
0.0
  0
VERTEX
  5
205C
  8
0
  6
CONTINUOUS
 62
     0
 10
88.18821320743325
 20
32.19777253682804
 30
0.0
  0
VERTEX
  5
205D
  8
0
  6
CONTINUOUS
 62
     0
 10
87.919724210394349
 20
32.19777253682804
 30
0.0
  0
VERTEX
  5
205E
  8
0
  6
CONTINUOUS
 62
     0
 10
87.784818859673464
 20
32.19777253682804
 30
0.0
  0
SEQEND
  5
205F
  8
0
  6
CONTINUOUS
 62
     0
  0
POLYLINE
  5
1A43
  8
0
  6
CONTINUOUS
 62
     0
 66
     1
 10
0.0
 20
0.0
 30
0.0
  0
VERTEX
  5
2060
  8
0
  6
CONTINUOUS
 62
     0
 10
80.423602927505726
 20
27.94777253682804
 30
0.0
  0
VERTEX
  5
2061
  8
0
  6
CONTINUOUS
 62
     0
 10
80.356150252145298
 20
27.83094107599732
 30
0.0
  0
VERTEX
  5
2062
  8
0
  6
CONTINUOUS
 62
     0
 10
80.221905753625833
 20
27.598422783924971
 30
0.0
  0
VERTEX
  5
2063
  8
0
  6
CONTINUOUS
 62
     0
 10
80.088369954531743
 20
27.367131995264689
 30
0.0
  0
VERTEX
  5
2064
  8
0
  6
CONTINUOUS
 62
     0
 10
80.021804922165416
 20
27.251837977198761
 30
0.0
  0
VERTEX
  5
2065
  8
0
  6
CONTINUOUS
 62
     0
 10
79.955342430053904
 20
27.136721564064061
 30
0.0
  0
VERTEX
  5
2066
  8
0
  6
CONTINUOUS
 62
     0
 10
79.822629136327976
 20
26.906855396490901
 30
0.0
  0
VERTEX
  5
2067
  8
0
  6
CONTINUOUS
 62
     0
 10
79.690041326327389
 20
26.67720657310559
 30
0.0
  0
VERTEX
  5
2068
  8
0
  6
CONTINUOUS
 62
     0
 10
79.557394539163681
 20
26.447455598277291
 30
0.0
  0
VERTEX
  5
2069
  8
0
  6
CONTINUOUS
 62
     0
 10
79.424507650300768
 20
26.217288755106889
 30
0.0
  0
VERTEX
  5
206A
  8
0
  6
CONTINUOUS
 62
     0
 10
79.291201971486771
 20
25.98639654646362
 30
0.0
  0
VERTEX
  5
206B
  8
0
  6
CONTINUOUS
 62
     0
 10
79.224336699519256
 20
25.87058249815399
 30
0.0
  0
VERTEX
  5
206C
  8
0
  6
CONTINUOUS
 62
     0
 10
79.157300390260843
 20
25.754472204566468
 30
0.0
  0
VERTEX
  5
206D
  8
0
  6
CONTINUOUS
 62
     0
 10
79.022626539736848
 20
25.521210253007951
 30
0.0
  0
VERTEX
  5
206E
  8
0
  6
CONTINUOUS
 62
     0
 10
78.887003990032781
 20
25.286305106268571
 30
0.0
  0
VERTEX
  5
206F
  8
0
  6
CONTINUOUS
 62
     0
 10
78.750255453215914
 20
25.049449692640991
 30
0.0
  0
VERTEX
  5
2070
  8
0
  6
CONTINUOUS
 62
     0
 10
78.612201993990936
 20
24.810334087102689
 30
0.0
  0
VERTEX
  5
2071
  8
0
  6
CONTINUOUS
 62
     0
 10
78.472662238582757
 20
24.56864414106002
 30
0.0
  0
VERTEX
  5
2072
  8
0
  6
CONTINUOUS
 62
     0
 10
78.402277457075741
 20
24.446734123410209
 30
0.0
  0
VERTEX
  5
2073
  8
0
  6
CONTINUOUS
 62
     0
 10
78.331451574359448
 20
24.324060096054669
 30
0.0
  0
VERTEX
  5
2074
  8
0
  6
CONTINUOUS
 62
     0
 10
78.188381332715608
 20
24.076255168476369
 30
0.0
  0
VERTEX
  5
2075
  8
0
  6
CONTINUOUS
 62
     0
 10
78.043257947590007
 20
23.824894092072501
 30
0.0
  0
VERTEX
  5
2076
  8
0
  6
CONTINUOUS
 62
     0
 10
77.969864283449851
 20
23.69777253682804
 30
0.0
  0
SEQEND
  5
2077
  8
0
  6
CONTINUOUS
 62
     0
  0
POLYLINE
  5
1A44
  8
0
  6
CONTINUOUS
 62
     0
 66
     1
 10
0.0
 20
0.0
 30
0.0
  0
VERTEX
  5
2078
  8
0
  6
CONTINUOUS
 62
     0
 10
82.877341571561644
 20
32.19777253682804
 30
0.0
  0
VERTEX
  5
2079
  8
0
  6
CONTINUOUS
 62
     0
 10
82.803947907421446
 20
32.070650981583611
 30
0.0
  0
VERTEX
  5
207A
  8
0
  6
CONTINUOUS
 62
     0
 10
82.658824522295902
 20
31.819289905179719
 30
0.0
  0
VERTEX
  5
207B
  8
0
  6
CONTINUOUS
 62
     0
 10
82.515754280652075
 20
31.571484977601418
 30
0.0
  0
VERTEX
  5
207C
  8
0
  6
CONTINUOUS
 62
     0
 10
82.444928397935769
 20
31.448810950245871
 30
0.0
  0
VERTEX
  5
207D
  8
0
  6
CONTINUOUS
 62
     0
 10
82.374543616428696
 20
31.326900932596061
 30
0.0
  0
VERTEX
  5
207E
  8
0
  6
CONTINUOUS
 62
     0
 10
82.235003861020573
 20
31.085210986553388
 30
0.0
  0
VERTEX
  5
207F
  8
0
  6
CONTINUOUS
 62
     0
 10
82.096950401795596
 20
30.84609538101509
 30
0.0
  0
VERTEX
  5
2080
  8
0
  6
CONTINUOUS
 62
     0
 10
81.960201864978657
 20
30.609239967387509
 30
0.0
  0
VERTEX
  5
2081
  8
0
  6
CONTINUOUS
 62
     0
 10
81.824579315274661
 20
30.374334820648102
 30
0.0
  0
VERTEX
  5
2082
  8
0
  6
CONTINUOUS
 62
     0
 10
81.689905464750666
 20
30.141072869089619
 30
0.0
  0
VERTEX
  5
2083
  8
0
  6
CONTINUOUS
 62
     0
 10
81.622869155492197
 20
30.024962575502091
 30
0.0
  0
VERTEX
  5
2084
  8
0
  6
CONTINUOUS
 62
     0
 10
81.556003883524681
 20
29.90914852719246
 30
0.0
  0
VERTEX
  5
2085
  8
0
  6
CONTINUOUS
 62
     0
 10
81.422698204710741
 20
29.678256318549192
 30
0.0
  0
VERTEX
  5
2086
  8
0
  6
CONTINUOUS
 62
     0
 10
81.289811315847786
 20
29.44808947537879
 30
0.0
  0
VERTEX
  5
2087
  8
0
  6
CONTINUOUS
 62
     0
 10
81.157164528684063
 20
29.218338500550491
 30
0.0
  0
VERTEX
  5
2088
  8
0
  6
CONTINUOUS
 62
     0
 10
81.024576718683477
 20
28.988689677165191
 30
0.0
  0
VERTEX
  5
2089
  8
0
  6
CONTINUOUS
 62
     0
 10
80.891863424957535
 20
28.75882350959202
 30
0.0
  0
VERTEX
  5
208A
  8
0
  6
CONTINUOUS
 62
     0
 10
80.825400932846037
 20
28.643707096457319
 30
0.0
  0
VERTEX
  5
208B
  8
0
  6
CONTINUOUS
 62
     0
 10
80.758835900479767
 20
28.528413078391399
 30
0.0
  0
VERTEX
  5
208C
  8
0
  6
CONTINUOUS
 62
     0
 10
80.625300101385619
 20
28.297122289731082
 30
0.0
  0
VERTEX
  5
208D
  8
0
  6
CONTINUOUS
 62
     0
 10
80.49105560286614
 20
28.064603997658772
 30
0.0
  0
VERTEX
  5
208E
  8
0
  6
CONTINUOUS
 62
     0
 10
80.423602927505726
 20
27.94777253682804
 30
0.0
  0
SEQEND
  5
208F
  8
0
  6
CONTINUOUS
 62
     0
  0
POLYLINE
  5
1A45
  8
0
  6
CONTINUOUS
 62
     0
 66
     1
 10
0.0
 20
0.0
 30
0.0
  0
VERTEX
  5
2090
  8
0
  6
CONTINUOUS
 62
     0
 10
80.423602927505726
 20
19.44777253682804
 30
0.0
  0
VERTEX
  5
2091
  8
0
  6
CONTINUOUS
 62
     0
 10
80.49105560286614
 20
19.330941075997309
 30
0.0
  0
VERTEX
  5
2092
  8
0
  6
CONTINUOUS
 62
     0
 10
80.625300101385619
 20
19.098422783924971
 30
0.0
  0
VERTEX
  5
2093
  8
0
  6
CONTINUOUS
 62
     0
 10
80.758835900479767
 20
18.867131995264678
 30
0.0
  0
VERTEX
  5
2094
  8
0
  6
CONTINUOUS
 62
     0
 10
80.825400932846037
 20
18.751837977198761
 30
0.0
  0
VERTEX
  5
2095
  8
0
  6
CONTINUOUS
 62
     0
 10
80.891863424957535
 20
18.636721564064061
 30
0.0
  0
VERTEX
  5
2096
  8
0
  6
CONTINUOUS
 62
     0
 10
81.024576718683477
 20
18.406855396490901
 30
0.0
  0
VERTEX
  5
2097
  8
0
  6
CONTINUOUS
 62
     0
 10
81.157164528684063
 20
18.17720657310559
 30
0.0
  0
VERTEX
  5
2098
  8
0
  6
CONTINUOUS
 62
     0
 10
81.289811315847786
 20
17.947455598277291
 30
0.0
  0
VERTEX
  5
2099
  8
0
  6
CONTINUOUS
 62
     0
 10
81.422698204710741
 20
17.717288755106889
 30
0.0
  0
VERTEX
  5
209A
  8
0
  6
CONTINUOUS
 62
     0
 10
81.556003883524681
 20
17.48639654646362
 30
0.0
  0
VERTEX
  5
209B
  8
0
  6
CONTINUOUS
 62
     0
 10
81.622869155492197
 20
17.37058249815399
 30
0.0
  0
VERTEX
  5
209C
  8
0
  6
CONTINUOUS
 62
     0
 10
81.689905464750666
 20
17.254472204566468
 30
0.0
  0
VERTEX
  5
209D
  8
0
  6
CONTINUOUS
 62
     0
 10
81.824579315274661
 20
17.021210253007951
 30
0.0
  0
VERTEX
  5
209E
  8
0
  6
CONTINUOUS
 62
     0
 10
81.960201864978657
 20
16.786305106268571
 30
0.0
  0
VERTEX
  5
209F
  8
0
  6
CONTINUOUS
 62
     0
 10
82.096950401795596
 20
16.549449692640991
 30
0.0
  0
VERTEX
  5
20A0
  8
0
  6
CONTINUOUS
 62
     0
 10
82.235003861020573
 20
16.310334087102689
 30
0.0
  0
VERTEX
  5
20A1
  8
0
  6
CONTINUOUS
 62
     0
 10
82.374543616428696
 20
16.06864414106002
 30
0.0
  0
VERTEX
  5
20A2
  8
0
  6
CONTINUOUS
 62
     0
 10
82.444928397935769
 20
15.946734123410209
 30
0.0
  0
VERTEX
  5
20A3
  8
0
  6
CONTINUOUS
 62
     0
 10
82.515754280652075
 20
15.82406009605466
 30
0.0
  0
VERTEX
  5
20A4
  8
0
  6
CONTINUOUS
 62
     0
 10
82.658824522295902
 20
15.57625516847636
 30
0.0
  0
VERTEX
  5
20A5
  8
0
  6
CONTINUOUS
 62
     0
 10
82.803947907421446
 20
15.324894092072469
 30
0.0
  0
VERTEX
  5
20A6
  8
0
  6
CONTINUOUS
 62
     0
 10
82.877341571561644
 20
15.19777253682804
 30
0.0
  0
SEQEND
  5
20A7
  8
0
  6
CONTINUOUS
 62
     0
  0
POLYLINE
  5
1A46
  8
0
  6
CONTINUOUS
 62
     0
 66
     1
 10
0.0
 20
0.0
 30
0.0
  0
VERTEX
  5
20A8
  8
0
  6
CONTINUOUS
 62
     0
 10
77.969864283449851
 20
23.69777253682804
 30
0.0
  0
VERTEX
  5
20A9
  8
0
  6
CONTINUOUS
 62
     0
 10
78.043257947590007
 20
23.570650981583579
 30
0.0
  0
VERTEX
  5
20AA
  8
0
  6
CONTINUOUS
 62
     0
 10
78.188381332715608
 20
23.319289905179719
 30
0.0
  0
VERTEX
  5
20AB
  8
0
  6
CONTINUOUS
 62
     0
 10
78.331451574359448
 20
23.071484977601418
 30
0.0
  0
VERTEX
  5
20AC
  8
0
  6
CONTINUOUS
 62
     0
 10
78.402277457075741
 20
22.948810950245871
 30
0.0
  0
VERTEX
  5
20AD
  8
0
  6
CONTINUOUS
 62
     0
 10
78.472662238582757
 20
22.826900932596061
 30
0.0
  0
VERTEX
  5
20AE
  8
0
  6
CONTINUOUS
 62
     0
 10
78.612201993990936
 20
22.585210986553388
 30
0.0
  0
VERTEX
  5
20AF
  8
0
  6
CONTINUOUS
 62
     0
 10
78.750255453215914
 20
22.34609538101509
 30
0.0
  0
VERTEX
  5
20B0
  8
0
  6
CONTINUOUS
 62
     0
 10
78.887003990032781
 20
22.109239967387509
 30
0.0
  0
VERTEX
  5
20B1
  8
0
  6
CONTINUOUS
 62
     0
 10
79.022626539736848
 20
21.87433482064813
 30
0.0
  0
VERTEX
  5
20B2
  8
0
  6
CONTINUOUS
 62
     0
 10
79.157300390260843
 20
21.641072869089609
 30
0.0
  0
VERTEX
  5
20B3
  8
0
  6
CONTINUOUS
 62
     0
 10
79.224336699519256
 20
21.524962575502091
 30
0.0
  0
VERTEX
  5
20B4
  8
0
  6
CONTINUOUS
 62
     0
 10
79.291201971486771
 20
21.40914852719246
 30
0.0
  0
VERTEX
  5
20B5
  8
0
  6
CONTINUOUS
 62
     0
 10
79.424507650300768
 20
21.178256318549192
 30
0.0
  0
VERTEX
  5
20B6
  8
0
  6
CONTINUOUS
 62
     0
 10
79.557394539163681
 20
20.94808947537879
 30
0.0
  0
VERTEX
  5
20B7
  8
0
  6
CONTINUOUS
 62
     0
 10
79.690041326327389
 20
20.718338500550491
 30
0.0
  0
VERTEX
  5
20B8
  8
0
  6
CONTINUOUS
 62
     0
 10
79.822629136327976
 20
20.488689677165191
 30
0.0
  0
VERTEX
  5
20B9
  8
0
  6
CONTINUOUS
 62
     0
 10
79.955342430053904
 20
20.25882350959202
 30
0.0
  0
VERTEX
  5
20BA
  8
0
  6
CONTINUOUS
 62
     0
 10
80.021804922165416
 20
20.143707096457319
 30
0.0
  0
VERTEX
  5
20BB
  8
0
  6
CONTINUOUS
 62
     0
 10
80.088369954531743
 20
20.02841307839142
 30
0.0
  0
VERTEX
  5
20BC
  8
0
  6
CONTINUOUS
 62
     0
 10
80.221905753625833
 20
19.79712228973111
 30
0.0
  0
VERTEX
  5
20BD
  8
0
  6
CONTINUOUS
 62
     0
 10
80.356150252145298
 20
19.564603997658761
 30
0.0
  0
VERTEX
  5
20BE
  8
0
  6
CONTINUOUS
 62
     0
 10
80.423602927505726
 20
19.44777253682804
 30
0.0
  0
SEQEND
  5
20BF
  8
0
  6
CONTINUOUS
 62
     0
  0
ARC
  5
1A47
  8
0
  6
CONTINUOUS
 62
     0
 10
87.784818859673521
 20
23.69777253682804
 30
0.0
 40
8.4999999999999467
 50
349.8357513782762
 51
10.164248621723759
  0
ARC
  5
1A48
  8
0
  6
CONTINUOUS
 62
     0
 10
87.784818859673464
 20
23.69777253682804
 30
0.0
 40
8.4999999999999911
 50
10.164248621723759
 51
349.8357513782762
  0
POINT
  5
1ABF
  8
0
 62
     0
 10
24.609300775963732
 20
84.794432145135644
 30
0.0
210
1.0
220
0.0
230
-0.0000000000000001
  0
POINT
  5
1AC0
  8
0
 62
     0
 10
24.609300775963732
 20
74.79443214513563
 30
0.0
210
-1.0
220
0.0
230
0.0000000000000001
  0
POINT
  5
1AC1
  8
0
 62
     0
 10
24.609300775963732
 20
74.79443214513563
 30
0.0
210
-1.0
220
0.0
230
0.0000000000000001
  0
POINT
  5
1AC2
  8
0
 62
     0
 10
24.609300775963732
 20
84.794432145135644
 30
0.0
210
-1.0
220
0.0
230
0.0000000000000001
  0
POINT
  5
1AC3
  8
0
 62
     0
 10
24.609300775963732
 20
74.79443214513563
 30
0.0
210
-1.0
220
0.0
230
0.0000000000000001
  0
LINE
  5
1AC5
  8
3
 10
20.529300775963751
 20
74.79443214513563
 30
0.0
 11
20.529300775963751
 21
84.794432145135644
 31
0.0
  0
LINE
  5
1AC6
  8
3
 10
28.689300775963719
 20
74.79443214513563
 30
0.0
 11
28.689300775963719
 21
84.794432145135644
 31
0.0
  0
POLYLINE
  5
1AC7
  8
0
  6
CONTINUOUS
 62
     0
 66
     1
 10
0.0
 20
0.0
 30
0.0
  0
VERTEX
  5
20C0
  8
0
  6
CONTINUOUS
 62
     0
 10
23.335679180778751
 20
104.6431794792968
 30
0.0
  0
VERTEX
  5
20C1
  8
0
  6
CONTINUOUS
 62
     0
 10
23.29682558302579
 20
104.6666612768506
 30
0.0
  0
VERTEX
  5
20C2
  8
0
  6
CONTINUOUS
 62
     0
 10
23.220429460632491
 20
104.7157218552082
 30
0.0
  0
VERTEX
  5
20C3
  8
0
  6
CONTINUOUS
 62
     0
 10
23.145865161253251
 20
104.7675241053871
 30
0.0
  0
VERTEX
  5
20C4
  8
0
  6
CONTINUOUS
 62
     0
 10
23.109300775963732
 20
104.7944321451356
 30
0.0
  0
SEQEND
  5
20C5
  8
0
  6
CONTINUOUS
 62
     0
  0
POLYLINE
  5
1AC8
  8
0
  6
CONTINUOUS
 62
     0
 66
     1
 10
0.0
 20
0.0
 30
0.0
  0
VERTEX
  5
20C6
  8
0
  6
CONTINUOUS
 62
     0
 10
25.882922371148709
 20
104.6431794792968
 30
0.0
  0
VERTEX
  5
20C7
  8
0
  6
CONTINUOUS
 62
     0
 10
25.81907359466129
 20
104.6066365131945
 30
0.0
  0
VERTEX
  5
20C8
  8
0
  6
CONTINUOUS
 62
     0
 10
25.687505317845879
 20
104.5388889808701
 30
0.0
  0
VERTEX
  5
20C9
  8
0
  6
CONTINUOUS
 62
     0
 10
25.551362454371318
 20
104.4787206358849
 30
0.0
  0
VERTEX
  5
20CA
  8
0
  6
CONTINUOUS
 62
     0
 10
25.481775004854459
 20
104.4516157374925
 30
0.0
  0
VERTEX
  5
20CB
  8
0
  6
CONTINUOUS
 62
     0
 10
25.411290716523869
 20
104.4265613430773
 30
0.0
  0
VERTEX
  5
20CC
  8
0
  6
CONTINUOUS
 62
     0
 10
25.26805997361129
 20
104.38278616790041
 30
0.0
  0
VERTEX
  5
20CD
  8
0
  6
CONTINUOUS
 62
     0
 10
25.122567500280351
 20
104.34768792685099
 30
0.0
  0
VERTEX
  5
20CE
  8
0
  6
CONTINUOUS
 62
     0
 10
24.975742460671029
 20
104.321433865373
 30
0.0
  0
VERTEX
  5
20CF
  8
0
  6
CONTINUOUS
 62
     0
 10
24.828547045860262
 20
104.30406448690989
 30
0.0
  0
VERTEX
  5
20D0
  8
0
  6
CONTINUOUS
 62
     0
 10
24.682003697506499
 20
104.29548951170059
 30
0.0
  0
VERTEX
  5
20D1
  8
0
  6
CONTINUOUS
 62
     0
 10
24.609300775963732
 20
104.2944321451356
 30
0.0
  0
VERTEX
  5
20D2
  8
0
  6
CONTINUOUS
 62
     0
 10
24.536597854420961
 20
104.29548951170059
 30
0.0
  0
VERTEX
  5
20D3
  8
0
  6
CONTINUOUS
 62
     0
 10
24.390054506067202
 20
104.30406448690989
 30
0.0
  0
VERTEX
  5
20D4
  8
0
  6
CONTINUOUS
 62
     0
 10
24.242859091256431
 20
104.321433865373
 30
0.0
  0
VERTEX
  5
20D5
  8
0
  6
CONTINUOUS
 62
     0
 10
24.096034051647109
 20
104.34768792685099
 30
0.0
  0
VERTEX
  5
20D6
  8
0
  6
CONTINUOUS
 62
     0
 10
23.95054157831618
 20
104.38278616790041
 30
0.0
  0
VERTEX
  5
20D7
  8
0
  6
CONTINUOUS
 62
     0
 10
23.807310835403602
 20
104.4265613430773
 30
0.0
  0
VERTEX
  5
20D8
  8
0
  6
CONTINUOUS
 62
     0
 10
23.736826547073012
 20
104.4516157374925
 30
0.0
  0
VERTEX
  5
20D9
  8
0
  6
CONTINUOUS
 62
     0
 10
23.667239097556148
 20
104.4787206358849
 30
0.0
  0
VERTEX
  5
20DA
  8
0
  6
CONTINUOUS
 62
     0
 10
23.531096234081591
 20
104.5388889808701
 30
0.0
  0
VERTEX
  5
20DB
  8
0
  6
CONTINUOUS
 62
     0
 10
23.399527957266169
 20
104.6066365131945
 30
0.0
  0
VERTEX
  5
20DC
  8
0
  6
CONTINUOUS
 62
     0
 10
23.335679180778751
 20
104.6431794792968
 30
0.0
  0
SEQEND
  5
20DD
  8
0
  6
CONTINUOUS
 62
     0
  0
POLYLINE
  5
1AC9
  8
0
  6
CONTINUOUS
 62
     0
 66
     1
 10
0.0
 20
0.0
 30
0.0
  0
VERTEX
  5
20DE
  8
0
  6
CONTINUOUS
 62
     0
 10
26.109300775963732
 20
104.7944321451356
 30
0.0
  0
VERTEX
  5
20DF
  8
0
  6
CONTINUOUS
 62
     0
 10
26.072736390674208
 20
104.7675241053871
 30
0.0
  0
VERTEX
  5
20E0
  8
0
  6
CONTINUOUS
 62
     0
 10
25.998172091294968
 20
104.7157218552082
 30
0.0
  0
VERTEX
  5
20E1
  8
0
  6
CONTINUOUS
 62
     0
 10
25.92177596890167
 20
104.6666612768506
 30
0.0
  0
VERTEX
  5
20E2
  8
0
  6
CONTINUOUS
 62
     0
 10
25.882922371148709
 20
104.6431794792968
 30
0.0
  0
SEQEND
  5
20E3
  8
0
  6
CONTINUOUS
 62
     0
  0
LINE
  5
1AD3
  8
0
  6
CONTINUOUS
 62
     0
 10
21.609300775963732
 20
104.7944321451356
 30
0.0
 11
23.109300775963732
 21
104.7944321451356
 31
0.0
  0
POLYLINE
  5
1AD9
  8
0
  6
CONTINUOUS
 62
     0
 66
     1
 10
0.0
 20
0.0
 30
0.0
  0
VERTEX
  5
20E4
  8
0
  6
CONTINUOUS
 62
     0
 10
20.867429494272589
 20
104.29775566227551
 30
0.0
  0
VERTEX
  5
20E5
  8
0
  6
CONTINUOUS
 62
     0
 10
20.98124144463543
 20
104.38794693591829
 30
0.0
  0
VERTEX
  5
20E6
  8
0
  6
CONTINUOUS
 62
     0
 10
21.221080006120019
 20
104.5597224542427
 30
0.0
  0
VERTEX
  5
20E7
  8
0
  6
CONTINUOUS
 62
     0
 10
21.47629039317497
 20
104.7193779761437
 30
0.0
  0
VERTEX
  5
20E8
  8
0
  6
CONTINUOUS
 62
     0
 10
21.609300775963732
 20
104.7944321451356
 30
0.0
  0
SEQEND
  5
20E9
  8
0
  6
CONTINUOUS
 62
     0
  0
POLYLINE
  5
1ADA
  8
0
  6
CONTINUOUS
 62
     0
 66
     1
 10
0.0
 20
0.0
 30
0.0
  0
VERTEX
  5
20EA
  8
0
  6
CONTINUOUS
 62
     0
 10
19.609300775963732
 20
101.8882620331142
 30
0.0
  0
VERTEX
  5
20EB
  8
0
  6
CONTINUOUS
 62
     0
 10
19.610315206727819
 20
101.9614349246517
 30
0.0
  0
VERTEX
  5
20EC
  8
0
  6
CONTINUOUS
 62
     0
 10
19.618428183239871
 20
102.1076619536432
 30
0.0
  0
VERTEX
  5
20ED
  8
0
  6
CONTINUOUS
 62
     0
 10
19.634640969515029
 20
102.25353291311281
 30
0.0
  0
VERTEX
  5
20EE
  8
0
  6
CONTINUOUS
 62
     0
 10
19.64577708124278
 20
102.3262608531999
 30
0.0
  0
VERTEX
  5
20EF
  8
0
  6
CONTINUOUS
 62
     0
 10
19.658927253424171
 20
102.39881106549601
 30
0.0
  0
VERTEX
  5
20F0
  8
0
  6
CONTINUOUS
 62
     0
 10
19.691247620160251
 20
102.54326063530959
 30
0.0
  0
VERTEX
  5
20F1
  8
0
  6
CONTINUOUS
 62
     0
 10
19.731549616206049
 20
102.6866471917976
 30
0.0
  0
VERTEX
  5
20F2
  8
0
  6
CONTINUOUS
 62
     0
 10
19.779767834461889
 20
102.8287380293942
 30
0.0
  0
VERTEX
  5
20F3
  8
0
  6
CONTINUOUS
 62
     0
 10
19.835824020396561
 20
102.96930254538761
 30
0.0
  0
VERTEX
  5
20F4
  8
0
  6
CONTINUOUS
 62
     0
 10
19.899627199048489
 20
103.10811261417111
 30
0.0
  0
VERTEX
  5
20F5
  8
0
  6
CONTINUOUS
 62
     0
 10
19.934402038640311
 20
103.17678921014389
 30
0.0
  0
VERTEX
  5
20F6
  8
0
  6
CONTINUOUS
 62
     0
 10
19.971073822671372
 20
103.2449429574732
 30
0.0
  0
VERTEX
  5
20F7
  8
0
  6
CONTINUOUS
 62
     0
 10
20.050047938784189
 20
103.3795715099677
 30
0.0
  0
VERTEX
  5
20F8
  8
0
  6
CONTINUOUS
 62
     0
 10
20.136421378353418
 20
103.5117797796688
 30
0.0
  0
VERTEX
  5
20F9
  8
0
  6
CONTINUOUS
 62
     0
 10
20.230053963801598
 20
103.641353202527
 30
0.0
  0
VERTEX
  5
20FA
  8
0
  6
CONTINUOUS
 62
     0
 10
20.3307937365052
 20
103.7680814906506
 30
0.0
  0
VERTEX
  5
20FB
  8
0
  6
CONTINUOUS
 62
     0
 10
20.438477203411761
 20
103.8917589735868
 30
0.0
  0
VERTEX
  5
20FC
  8
0
  6
CONTINUOUS
 62
     0
 10
20.494868641587569
 20
103.95239073597971
 30
0.0
  0
VERTEX
  5
20FD
  8
0
  6
CONTINUOUS
 62
     0
 10
20.552929602376931
 20
104.0121849321098
 30
0.0
  0
VERTEX
  5
20FE
  8
0
  6
CONTINUOUS
 62
     0
 10
20.67396518579017
 20
104.1291639239723
 30
0.0
  0
VERTEX
  5
20FF
  8
0
  6
CONTINUOUS
 62
     0
 10
20.801387522029131
 20
104.24250610109431
 30
0.0
  0
VERTEX
  5
2100
  8
0
  6
CONTINUOUS
 62
     0
 10
20.867429494272589
 20
104.29775566227551
 30
0.0
  0
SEQEND
  5
2101
  8
0
  6
CONTINUOUS
 62
     0
  0
POLYLINE
  5
1AE0
  8
0
  6
CONTINUOUS
 62
     0
 66
     1
 10
0.0
 20
0.0
 30
0.0
  0
VERTEX
  5
2102
  8
0
  6
CONTINUOUS
 62
     0
 10
28.351172057654878
 20
104.29775566227551
 30
0.0
  0
VERTEX
  5
2103
  8
0
  6
CONTINUOUS
 62
     0
 10
28.417214029898329
 20
104.24250610109431
 30
0.0
  0
VERTEX
  5
2104
  8
0
  6
CONTINUOUS
 62
     0
 10
28.544636366137301
 20
104.1291639239723
 30
0.0
  0
VERTEX
  5
2105
  8
0
  6
CONTINUOUS
 62
     0
 10
28.665671949550529
 20
104.0121849321098
 30
0.0
  0
VERTEX
  5
2106
  8
0
  6
CONTINUOUS
 62
     0
 10
28.723732910339841
 20
103.95239073597971
 30
0.0
  0
VERTEX
  5
2107
  8
0
  6
CONTINUOUS
 62
     0
 10
28.780124348515699
 20
103.8917589735868
 30
0.0
  0
VERTEX
  5
2108
  8
0
  6
CONTINUOUS
 62
     0
 10
28.887807815422271
 20
103.7680814906506
 30
0.0
  0
VERTEX
  5
2109
  8
0
  6
CONTINUOUS
 62
     0
 10
28.988547588125869
 20
103.641353202527
 30
0.0
  0
VERTEX
  5
210A
  8
0
  6
CONTINUOUS
 62
     0
 10
29.082180173574049
 20
103.5117797796688
 30
0.0
  0
VERTEX
  5
210B
  8
0
  6
CONTINUOUS
 62
     0
 10
29.168553613143281
 20
103.3795715099677
 30
0.0
  0
VERTEX
  5
210C
  8
0
  6
CONTINUOUS
 62
     0
 10
29.247527729256088
 20
103.2449429574732
 30
0.0
  0
VERTEX
  5
210D
  8
0
  6
CONTINUOUS
 62
     0
 10
29.284199513287149
 20
103.17678921014389
 30
0.0
  0
VERTEX
  5
210E
  8
0
  6
CONTINUOUS
 62
     0
 10
29.318974352878971
 20
103.10811261417111
 30
0.0
  0
VERTEX
  5
210F
  8
0
  6
CONTINUOUS
 62
     0
 10
29.382777531530909
 20
102.96930254538761
 30
0.0
  0
VERTEX
  5
2110
  8
0
  6
CONTINUOUS
 62
     0
 10
29.43883371746557
 20
102.8287380293942
 30
0.0
  0
VERTEX
  5
2111
  8
0
  6
CONTINUOUS
 62
     0
 10
29.487051935721411
 20
102.6866471917976
 30
0.0
  0
VERTEX
  5
2112
  8
0
  6
CONTINUOUS
 62
     0
 10
29.527353931767209
 20
102.54326063530959
 30
0.0
  0
VERTEX
  5
2113
  8
0
  6
CONTINUOUS
 62
     0
 10
29.5596742985033
 20
102.39881106549601
 30
0.0
  0
VERTEX
  5
2114
  8
0
  6
CONTINUOUS
 62
     0
 10
29.572824470684679
 20
102.3262608531999
 30
0.0
  0
VERTEX
  5
2115
  8
0
  6
CONTINUOUS
 62
     0
 10
29.583960582412431
 20
102.25353291311281
 30
0.0
  0
VERTEX
  5
2116
  8
0
  6
CONTINUOUS
 62
     0
 10
29.600173368687589
 20
102.1076619536432
 30
0.0
  0
VERTEX
  5
2117
  8
0
  6
CONTINUOUS
 62
     0
 10
29.608286345199652
 20
101.9614349246517
 30
0.0
  0
VERTEX
  5
2118
  8
0
  6
CONTINUOUS
 62
     0
 10
29.609300775963732
 20
101.8882620331142
 30
0.0
  0
SEQEND
  5
2119
  8
0
  6
CONTINUOUS
 62
     0
  0
POLYLINE
  5
1AE1
  8
0
  6
CONTINUOUS
 62
     0
 66
     1
 10
0.0
 20
0.0
 30
0.0
  0
VERTEX
  5
211A
  8
0
  6
CONTINUOUS
 62
     0
 10
27.609300775963732
 20
104.7944321451356
 30
0.0
  0
VERTEX
  5
211B
  8
0
  6
CONTINUOUS
 62
     0
 10
27.7423111587525
 20
104.7193779761437
 30
0.0
  0
VERTEX
  5
211C
  8
0
  6
CONTINUOUS
 62
     0
 10
27.997521545807441
 20
104.5597224542427
 30
0.0
  0
VERTEX
  5
211D
  8
0
  6
CONTINUOUS
 62
     0
 10
28.23736010729198
 20
104.38794693591829
 30
0.0
  0
VERTEX
  5
211E
  8
0
  6
CONTINUOUS
 62
     0
 10
28.351172057654878
 20
104.29775566227551
 30
0.0
  0
SEQEND
  5
211F
  8
0
  6
CONTINUOUS
 62
     0
  0
LINE
  5
1AE2
  8
0
  6
CONTINUOUS
 62
     0
 10
26.109300775963732
 20
104.7944321451356
 30
0.0
 11
27.609300775963732
 21
104.7944321451356
 31
0.0
  0
LINE
  5
1AE3
  8
0
  6
CONTINUOUS
 62
     0
 10
19.609300775963671
 20
94.794432145135644
 30
0.0
 11
29.609300775963789
 21
94.794432145135644
 31
0.0
  0
LINE
  5
1AE4
  8
0
  6
CONTINUOUS
 62
     0
 10
19.609300775963732
 20
75.714432145135646
 30
0.0
 11
29.609300775963732
 21
75.714432145135646
 31
0.0
  0
LINE
  5
1AE5
  8
0
  6
CONTINUOUS
 62
     0
 10
20.529300775963751
 20
74.79443214513563
 30
0.0
 11
28.689300775963719
 21
74.79443214513563
 31
0.0
  0
LINE
  5
1AEA
  8
0
  6
CONTINUOUS
 62
     0
 10
19.609300775963732
 20
84.794432145135644
 30
0.0
 11
19.609300775963732
 21
75.714432145135646
 31
0.0
  0
LINE
  5
1AEC
  8
0
  6
CONTINUOUS
 62
     0
 10
19.609300775963732
 20
101.8882620331142
 30
0.0
 11
19.609300775963732
 21
89.794432145135644
 31
0.0
  0
LINE
  5
1AED
  8
0
  6
CONTINUOUS
 62
     0
 10
29.609300775963732
 20
89.794432145135644
 30
0.0
 11
29.609300775963732
 21
101.8882620331142
 31
0.0
  0
LINE
  5
1AEE
  8
0
  6
CONTINUOUS
 62
     0
 10
29.609300775963732
 20
84.794432145135644
 30
0.0
 11
29.609300775963732
 21
84.819984871333304
 31
0.0
  0
LINE
  5
1AEF
  8
0
  6
CONTINUOUS
 62
     0
 10
29.609300775963732
 20
75.714432145135646
 30
0.0
 11
29.609300775963732
 21
84.794432145135644
 31
0.0
  0
LINE
  5
1AF0
  8
0
  6
CONTINUOUS
 62
     0
 10
19.609300775963732
 20
75.714432145135646
 30
0.0
 11
20.529300775963751
 21
74.79443214513563
 31
0.0
  0
LINE
  5
1AF1
  8
0
  6
CONTINUOUS
 62
     0
 10
28.689300775963719
 20
74.79443214513563
 30
0.0
 11
29.609300775963732
 21
75.714432145135646
 31
0.0
  0
LINE
  5
1AFA
  8
0
  6
CONTINUOUS
 62
     0
 10
23.186651045153379
 20
68.79443214513563
 30
0.0
 11
26.031950506774081
 21
68.79443214513563
 31
0.0
  0
LINE
  5
1AFB
  8
0
  6
CONTINUOUS
 62
     0
 10
22.609300775963732
 20
69.79443214513563
 30
0.0
 11
26.609300775963732
 21
69.79443214513563
 31
0.0
  0
LINE
  5
1AFF
  8
0
  6
CONTINUOUS
 62
     0
 10
22.609300775963732
 20
69.79443214513563
 30
0.0
 11
23.186651045153379
 21
68.79443214513563
 31
0.0
  0
LINE
  5
1B00
  8
0
  6
CONTINUOUS
 62
     0
 10
26.031950506774081
 20
68.79443214513563
 30
0.0
 11
26.609300775963732
 21
69.79443214513563
 31
0.0
  0
LINE
  5
1B01
  8
0
  6
CONTINUOUS
 62
     0
 10
22.609300775963732
 20
74.79443214513563
 30
0.0
 11
22.609300775963732
 21
69.79443214513563
 31
0.0
  0
LINE
  5
1B02
  8
0
  6
CONTINUOUS
 62
     0
 10
26.609300775963732
 20
69.79443214513563
 30
0.0
 11
26.609300775963732
 21
74.79443214513563
 31
0.0
  0
LINE
  5
1B08
  8
0
  6
CONTINUOUS
 62
     0
 10
20.867643389189759
 20
105.7944321451356
 30
0.0
 11
20.867643389189759
 21
104.2979251651699
 31
0.0
  0
LINE
  5
1B09
  8
0
  6
CONTINUOUS
 62
     0
 10
28.350958162737701
 20
104.2979251651699
 30
0.0
 11
28.350958162737701
 21
105.7944321451356
 31
0.0
  0
ARC
  5
1B0B
  8
0
  6
CONTINUOUS
 62
     0
 10
24.609300775963732
 20
99.294432145135616
 30
0.0
 40
7.5000000000000284
 50
60.073565133385252
 51
119.9264348666147
  0
LINE
  5
1B0C
  8
1
 10
24.609300775963732
 20
65.79443214513563
 30
0.0
 11
24.609300775963732
 21
109.7944321451356
 31
0.0
  0
POLYLINE
  5
1B0F
  8
0
  6
CONTINUOUS
 62
     0
 66
     1
 10
0.0
 20
0.0
 30
0.0
  0
VERTEX
  5
2120
  8
0
  6
CONTINUOUS
 62
     0
 10
16.109300775963732
 20
85.553621523690467
 30
0.0
  0
VERTEX
  5
2121
  8
0
  6
CONTINUOUS
 62
     0
 10
16.109300775963732
 20
85.511726523312149
 30
0.0
  0
VERTEX
  5
2122
  8
0
  6
CONTINUOUS
 62
     0
 10
16.109300775963732
 20
85.431768118419996
 30
0.0
  0
VERTEX
  5
2123
  8
0
  6
CONTINUOUS
 62
     0
 10
16.109300775963732
 20
85.356823506814465
 30
0.0
  0
VERTEX
  5
2124
  8
0
  6
CONTINUOUS
 62
     0
 10
16.109300775963732
 20
85.321198951334026
 30
0.0
  0
VERTEX
  5
2125
  8
0
  6
CONTINUOUS
 62
     0
 10
16.109300775963732
 20
85.286790604117755
 30
0.0
  0
VERTEX
  5
2126
  8
0
  6
CONTINUOUS
 62
     0
 10
16.109300775963732
 20
85.221580534855804
 30
0.0
  0
VERTEX
  5
2127
  8
0
  6
CONTINUOUS
 62
     0
 10
16.109300775963732
 20
85.161117257470224
 30
0.0
  0
VERTEX
  5
2128
  8
0
  6
CONTINUOUS
 62
     0
 10
16.109300775963732
 20
85.105337274931088
 30
0.0
  0
VERTEX
  5
2129
  8
0
  6
CONTINUOUS
 62
     0
 10
16.109300775963732
 20
85.054189428705385
 30
0.0
  0
VERTEX
  5
212A
  8
0
  6
CONTINUOUS
 62
     0
 10
16.109300775963732
 20
85.007634774877545
 30
0.0
  0
VERTEX
  5
212B
  8
0
  6
CONTINUOUS
 62
     0
 10
16.109300775963732
 20
84.986071053070447
 30
0.0
  0
VERTEX
  5
212C
  8
0
  6
CONTINUOUS
 62
     0
 10
16.109300775963732
 20
84.965646542250454
 30
0.0
  0
VERTEX
  5
212D
  8
0
  6
CONTINUOUS
 62
     0
 10
16.109300775963732
 20
84.928210173302801
 30
0.0
  0
VERTEX
  5
212E
  8
0
  6
CONTINUOUS
 62
     0
 10
16.109300775963732
 20
84.895323449960244
 30
0.0
  0
VERTEX
  5
212F
  8
0
  6
CONTINUOUS
 62
     0
 10
16.109300775963732
 20
84.866996707279469
 30
0.0
  0
VERTEX
  5
2130
  8
0
  6
CONTINUOUS
 62
     0
 10
16.109300775963732
 20
84.843253139368898
 30
0.0
  0
VERTEX
  5
2131
  8
0
  6
CONTINUOUS
 62
     0
 10
16.109300775963732
 20
84.824129203209253
 30
0.0
  0
VERTEX
  5
2132
  8
0
  6
CONTINUOUS
 62
     0
 10
16.109300775963732
 20
84.816314739347348
 30
0.0
  0
VERTEX
  5
2133
  8
0
  6
CONTINUOUS
 62
     0
 10
16.109300775963732
 20
84.809675127520478
 30
0.0
  0
VERTEX
  5
2134
  8
0
  6
CONTINUOUS
 62
     0
 10
16.109300775963732
 20
84.799955535489204
 30
0.0
  0
VERTEX
  5
2135
  8
0
  6
CONTINUOUS
 62
     0
 10
16.109300775963732
 20
84.795050192068203
 30
0.0
  0
VERTEX
  5
2136
  8
0
  6
CONTINUOUS
 62
     0
 10
16.109300775963732
 20
84.794432145135644
 30
0.0
  0
SEQEND
  5
2137
  8
0
  6
CONTINUOUS
 62
     0
  0
LINE
  5
1B10
  8
0
  6
CONTINUOUS
 62
     0
 10
16.109300775963732
 20
85.553621523690467
 30
0.0
 11
16.109300775963732
 21
89.03524276658078
 31
0.0
  0
POLYLINE
  5
1B11
  8
0
  6
CONTINUOUS
 62
     0
 66
     1
 10
0.0
 20
0.0
 30
0.0
  0
VERTEX
  5
2138
  8
0
  6
CONTINUOUS
 62
     0
 10
16.109300775963732
 20
89.794432145135644
 30
0.0
  0
VERTEX
  5
2139
  8
0
  6
CONTINUOUS
 62
     0
 10
16.109300775963732
 20
89.793814098203043
 30
0.0
  0
VERTEX
  5
213A
  8
0
  6
CONTINUOUS
 62
     0
 10
16.109300775963732
 20
89.788908754782057
 30
0.0
  0
VERTEX
  5
213B
  8
0
  6
CONTINUOUS
 62
     0
 10
16.109300775963732
 20
89.779189162750768
 30
0.0
  0
VERTEX
  5
213C
  8
0
  6
CONTINUOUS
 62
     0
 10
16.109300775963732
 20
89.772549550923912
 30
0.0
  0
VERTEX
  5
213D
  8
0
  6
CONTINUOUS
 62
     0
 10
16.109300775963732
 20
89.764735087062007
 30
0.0
  0
VERTEX
  5
213E
  8
0
  6
CONTINUOUS
 62
     0
 10
16.109300775963732
 20
89.745611150902377
 30
0.0
  0
VERTEX
  5
213F
  8
0
  6
CONTINUOUS
 62
     0
 10
16.109300775963732
 20
89.721867582991777
 30
0.0
  0
VERTEX
  5
2140
  8
0
  6
CONTINUOUS
 62
     0
 10
16.109300775963732
 20
89.693540840311016
 30
0.0
  0
VERTEX
  5
2141
  8
0
  6
CONTINUOUS
 62
     0
 10
16.109300775963732
 20
89.660654116968445
 30
0.0
  0
VERTEX
  5
2142
  8
0
  6
CONTINUOUS
 62
     0
 10
16.109300775963732
 20
89.623217748020807
 30
0.0
  0
VERTEX
  5
2143
  8
0
  6
CONTINUOUS
 62
     0
 10
16.109300775963732
 20
89.602793237200814
 30
0.0
  0
VERTEX
  5
2144
  8
0
  6
CONTINUOUS
 62
     0
 10
16.109300775963732
 20
89.581229515393716
 30
0.0
  0
VERTEX
  5
2145
  8
0
  6
CONTINUOUS
 62
     0
 10
16.109300775963732
 20
89.534674861565861
 30
0.0
  0
VERTEX
  5
2146
  8
0
  6
CONTINUOUS
 62
     0
 10
16.109300775963732
 20
89.483527015340186
 30
0.0
  0
VERTEX
  5
2147
  8
0
  6
CONTINUOUS
 62
     0
 10
16.109300775963732
 20
89.427747032801022
 30
0.0
  0
VERTEX
  5
2148
  8
0
  6
CONTINUOUS
 62
     0
 10
16.109300775963732
 20
89.367283755415457
 30
0.0
  0
VERTEX
  5
2149
  8
0
  6
CONTINUOUS
 62
     0
 10
16.109300775963732
 20
89.302073686153506
 30
0.0
  0
VERTEX
  5
214A
  8
0
  6
CONTINUOUS
 62
     0
 10
16.109300775963732
 20
89.267665338937235
 30
0.0
  0
VERTEX
  5
214B
  8
0
  6
CONTINUOUS
 62
     0
 10
16.109300775963732
 20
89.232040783456796
 30
0.0
  0
VERTEX
  5
214C
  8
0
  6
CONTINUOUS
 62
     0
 10
16.109300775963732
 20
89.157096171851265
 30
0.0
  0
VERTEX
  5
214D
  8
0
  6
CONTINUOUS
 62
     0
 10
16.109300775963732
 20
89.077137766959126
 30
0.0
  0
VERTEX
  5
214E
  8
0
  6
CONTINUOUS
 62
     0
 10
16.109300775963732
 20
89.03524276658078
 30
0.0
  0
SEQEND
  5
214F
  8
0
  6
CONTINUOUS
 62
     0
  0
POLYLINE
  5
1B12
  8
0
  6
CONTINUOUS
 62
     0
 66
     1
 10
0.0
 20
0.0
 30
0.0
  0
VERTEX
  5
2150
  8
0
  6
CONTINUOUS
 62
     0
 10
24.609300775963732
 20
89.03524276658078
 30
0.0
  0
VERTEX
  5
2151
  8
0
  6
CONTINUOUS
 62
     0
 10
24.736422331208189
 20
89.077137766959126
 30
0.0
  0
VERTEX
  5
2152
  8
0
  6
CONTINUOUS
 62
     0
 10
24.987783407612032
 20
89.157096171851265
 30
0.0
  0
VERTEX
  5
2153
  8
0
  6
CONTINUOUS
 62
     0
 10
25.235588335190361
 20
89.232040783456796
 30
0.0
  0
VERTEX
  5
2154
  8
0
  6
CONTINUOUS
 62
     0
 10
25.358262362545879
 20
89.267665338937235
 30
0.0
  0
VERTEX
  5
2155
  8
0
  6
CONTINUOUS
 62
     0
 10
25.480172380195711
 20
89.302073686153506
 30
0.0
  0
VERTEX
  5
2156
  8
0
  6
CONTINUOUS
 62
     0
 10
25.721862326238352
 20
89.367283755415457
 30
0.0
  0
VERTEX
  5
2157
  8
0
  6
CONTINUOUS
 62
     0
 10
25.960977931776661
 20
89.427747032801022
 30
0.0
  0
VERTEX
  5
2158
  8
0
  6
CONTINUOUS
 62
     0
 10
26.197833345404259
 20
89.483527015340186
 30
0.0
  0
VERTEX
  5
2159
  8
0
  6
CONTINUOUS
 62
     0
 10
26.432738492143638
 20
89.534674861565861
 30
0.0
  0
VERTEX
  5
215A
  8
0
  6
CONTINUOUS
 62
     0
 10
26.66600044370216
 20
89.581229515393716
 30
0.0
  0
VERTEX
  5
215B
  8
0
  6
CONTINUOUS
 62
     0
 10
26.78211073728966
 20
89.602793237200814
 30
0.0
  0
VERTEX
  5
215C
  8
0
  6
CONTINUOUS
 62
     0
 10
26.89792478559929
 20
89.623217748020807
 30
0.0
  0
VERTEX
  5
215D
  8
0
  6
CONTINUOUS
 62
     0
 10
27.12881699424258
 20
89.660654116968445
 30
0.0
  0
VERTEX
  5
215E
  8
0
  6
CONTINUOUS
 62
     0
 10
27.35898383741295
 20
89.693540840311016
 30
0.0
  0
VERTEX
  5
215F
  8
0
  6
CONTINUOUS
 62
     0
 10
27.588734812241281
 20
89.721867582991777
 30
0.0
  0
VERTEX
  5
2160
  8
0
  6
CONTINUOUS
 62
     0
 10
27.81838363562656
 20
89.745611150902377
 30
0.0
  0
VERTEX
  5
2161
  8
0
  6
CONTINUOUS
 62
     0
 10
28.048249803199781
 20
89.764735087062007
 30
0.0
  0
VERTEX
  5
2162
  8
0
  6
CONTINUOUS
 62
     0
 10
28.163366216334449
 20
89.772549550923912
 30
0.0
  0
VERTEX
  5
2163
  8
0
  6
CONTINUOUS
 62
     0
 10
28.27866023440038
 20
89.779189162750768
 30
0.0
  0
VERTEX
  5
2164
  8
0
  6
CONTINUOUS
 62
     0
 10
28.509951023060701
 20
89.788908754782057
 30
0.0
  0
VERTEX
  5
2165
  8
0
  6
CONTINUOUS
 62
     0
 10
28.742469315133011
 20
89.793814098203043
 30
0.0
  0
VERTEX
  5
2166
  8
0
  6
CONTINUOUS
 62
     0
 10
28.859300775963732
 20
89.794432145135644
 30
0.0
  0
SEQEND
  5
2167
  8
0
  6
CONTINUOUS
 62
     0
  0
LINE
  5
1B13
  8
0
  6
CONTINUOUS
 62
     0
 10
24.609300775963732
 20
85.553621523690467
 30
0.0
 11
24.609300775963732
 21
89.03524276658078
 31
0.0
  0
POLYLINE
  5
1B14
  8
0
  6
CONTINUOUS
 62
     0
 66
     1
 10
0.0
 20
0.0
 30
0.0
  0
VERTEX
  5
2168
  8
0
  6
CONTINUOUS
 62
     0
 10
28.859300775963732
 20
84.794432145135644
 30
0.0
  0
VERTEX
  5
2169
  8
0
  6
CONTINUOUS
 62
     0
 10
28.742469315133011
 20
84.795050192068203
 30
0.0
  0
VERTEX
  5
216A
  8
0
  6
CONTINUOUS
 62
     0
 10
28.509951023060701
 20
84.799955535489204
 30
0.0
  0
VERTEX
  5
216B
  8
0
  6
CONTINUOUS
 62
     0
 10
28.27866023440038
 20
84.809675127520478
 30
0.0
  0
VERTEX
  5
216C
  8
0
  6
CONTINUOUS
 62
     0
 10
28.163366216334449
 20
84.816314739347348
 30
0.0
  0
VERTEX
  5
216D
  8
0
  6
CONTINUOUS
 62
     0
 10
28.048249803199731
 20
84.824129203209253
 30
0.0
  0
VERTEX
  5
216E
  8
0
  6
CONTINUOUS
 62
     0
 10
27.81838363562656
 20
84.843253139368898
 30
0.0
  0
VERTEX
  5
216F
  8
0
  6
CONTINUOUS
 62
     0
 10
27.588734812241281
 20
84.866996707279469
 30
0.0
  0
VERTEX
  5
2170
  8
0
  6
CONTINUOUS
 62
     0
 10
27.35898383741295
 20
84.895323449960244
 30
0.0
  0
VERTEX
  5
2171
  8
0
  6
CONTINUOUS
 62
     0
 10
27.12881699424258
 20
84.928210173302801
 30
0.0
  0
VERTEX
  5
2172
  8
0
  6
CONTINUOUS
 62
     0
 10
26.89792478559929
 20
84.965646542250454
 30
0.0
  0
VERTEX
  5
2173
  8
0
  6
CONTINUOUS
 62
     0
 10
26.78211073728966
 20
84.986071053070447
 30
0.0
  0
VERTEX
  5
2174
  8
0
  6
CONTINUOUS
 62
     0
 10
26.66600044370216
 20
85.007634774877545
 30
0.0
  0
VERTEX
  5
2175
  8
0
  6
CONTINUOUS
 62
     0
 10
26.432738492143638
 20
85.054189428705385
 30
0.0
  0
VERTEX
  5
2176
  8
0
  6
CONTINUOUS
 62
     0
 10
26.197833345404259
 20
85.105337274931088
 30
0.0
  0
VERTEX
  5
2177
  8
0
  6
CONTINUOUS
 62
     0
 10
25.960977931776661
 20
85.161117257470224
 30
0.0
  0
VERTEX
  5
2178
  8
0
  6
CONTINUOUS
 62
     0
 10
25.721862326238352
 20
85.221580534855804
 30
0.0
  0
VERTEX
  5
2179
  8
0
  6
CONTINUOUS
 62
     0
 10
25.480172380195711
 20
85.286790604117755
 30
0.0
  0
VERTEX
  5
217A
  8
0
  6
CONTINUOUS
 62
     0
 10
25.358262362545879
 20
85.321198951334026
 30
0.0
  0
VERTEX
  5
217B
  8
0
  6
CONTINUOUS
 62
     0
 10
25.235588335190361
 20
85.356823506814465
 30
0.0
  0
VERTEX
  5
217C
  8
0
  6
CONTINUOUS
 62
     0
 10
24.987783407612032
 20
85.431768118419996
 30
0.0
  0
VERTEX
  5
217D
  8
0
  6
CONTINUOUS
 62
     0
 10
24.736422331208189
 20
85.511726523312149
 30
0.0
  0
VERTEX
  5
217E
  8
0
  6
CONTINUOUS
 62
     0
 10
24.609300775963732
 20
85.553621523690467
 30
0.0
  0
SEQEND
  5
217F
  8
0
  6
CONTINUOUS
 62
     0
  0
POLYLINE
  5
1B15
  8
0
  6
CONTINUOUS
 62
     0
 66
     1
 10
0.0
 20
0.0
 30
0.0
  0
VERTEX
  5
2180
  8
0
  6
CONTINUOUS
 62
     0
 10
33.109300775963732
 20
85.553621523690467
 30
0.0
  0
VERTEX
  5
2181
  8
0
  6
CONTINUOUS
 62
     0
 10
32.982179220719267
 20
85.511726523312149
 30
0.0
  0
VERTEX
  5
2182
  8
0
  6
CONTINUOUS
 62
     0
 10
32.730818144315442
 20
85.431768118419996
 30
0.0
  0
VERTEX
  5
2183
  8
0
  6
CONTINUOUS
 62
     0
 10
32.483013216737113
 20
85.356823506814465
 30
0.0
  0
VERTEX
  5
2184
  8
0
  6
CONTINUOUS
 62
     0
 10
32.360339189381591
 20
85.321198951334026
 30
0.0
  0
VERTEX
  5
2185
  8
0
  6
CONTINUOUS
 62
     0
 10
32.238429171731752
 20
85.286790604117755
 30
0.0
  0
VERTEX
  5
2186
  8
0
  6
CONTINUOUS
 62
     0
 10
31.996739225689112
 20
85.221580534855804
 30
0.0
  0
VERTEX
  5
2187
  8
0
  6
CONTINUOUS
 62
     0
 10
31.757623620150749
 20
85.161117257470224
 30
0.0
  0
VERTEX
  5
2188
  8
0
  6
CONTINUOUS
 62
     0
 10
31.520768206523201
 20
85.105337274931088
 30
0.0
  0
VERTEX
  5
2189
  8
0
  6
CONTINUOUS
 62
     0
 10
31.285863059783821
 20
85.054189428705385
 30
0.0
  0
VERTEX
  5
218A
  8
0
  6
CONTINUOUS
 62
     0
 10
31.052601108225311
 20
85.007634774877545
 30
0.0
  0
VERTEX
  5
218B
  8
0
  6
CONTINUOUS
 62
     0
 10
30.936490814637811
 20
84.986071053070447
 30
0.0
  0
VERTEX
  5
218C
  8
0
  6
CONTINUOUS
 62
     0
 10
30.82067676632818
 20
84.965646542250454
 30
0.0
  0
VERTEX
  5
218D
  8
0
  6
CONTINUOUS
 62
     0
 10
30.589784557684879
 20
84.928210173302801
 30
0.0
  0
VERTEX
  5
218E
  8
0
  6
CONTINUOUS
 62
     0
 10
30.35961771451451
 20
84.895323449960244
 30
0.0
  0
VERTEX
  5
218F
  8
0
  6
CONTINUOUS
 62
     0
 10
30.129866739686179
 20
84.866996707279469
 30
0.0
  0
VERTEX
  5
2190
  8
0
  6
CONTINUOUS
 62
     0
 10
29.9002179163009
 20
84.843253139368898
 30
0.0
  0
VERTEX
  5
2191
  8
0
  6
CONTINUOUS
 62
     0
 10
29.670351748727679
 20
84.824129203209253
 30
0.0
  0
VERTEX
  5
2192
  8
0
  6
CONTINUOUS
 62
     0
 10
29.555235335593011
 20
84.816314739347348
 30
0.0
  0
VERTEX
  5
2193
  8
0
  6
CONTINUOUS
 62
     0
 10
29.43994131752709
 20
84.809675127520478
 30
0.0
  0
VERTEX
  5
2194
  8
0
  6
CONTINUOUS
 62
     0
 10
29.208650528866769
 20
84.799955535489204
 30
0.0
  0
VERTEX
  5
2195
  8
0
  6
CONTINUOUS
 62
     0
 10
28.976132236794459
 20
84.795050192068203
 30
0.0
  0
VERTEX
  5
2196
  8
0
  6
CONTINUOUS
 62
     0
 10
28.859300775963732
 20
84.794432145135644
 30
0.0
  0
SEQEND
  5
2197
  8
0
  6
CONTINUOUS
 62
     0
  0
LINE
  5
1B16
  8
0
  6
CONTINUOUS
 62
     0
 10
33.109300775963732
 20
85.553621523690467
 30
0.0
 11
33.109300775963732
 21
89.03524276658078
 31
0.0
  0
POLYLINE
  5
1B17
  8
0
  6
CONTINUOUS
 62
     0
 66
     1
 10
0.0
 20
0.0
 30
0.0
  0
VERTEX
  5
2198
  8
0
  6
CONTINUOUS
 62
     0
 10
28.859300775963732
 20
89.794432145135644
 30
0.0
  0
VERTEX
  5
2199
  8
0
  6
CONTINUOUS
 62
     0
 10
28.976132236794459
 20
89.793814098203043
 30
0.0
  0
VERTEX
  5
219A
  8
0
  6
CONTINUOUS
 62
     0
 10
29.208650528866769
 20
89.788908754782057
 30
0.0
  0
VERTEX
  5
219B
  8
0
  6
CONTINUOUS
 62
     0
 10
29.43994131752709
 20
89.779189162750768
 30
0.0
  0
VERTEX
  5
219C
  8
0
  6
CONTINUOUS
 62
     0
 10
29.555235335593011
 20
89.772549550923912
 30
0.0
  0
VERTEX
  5
219D
  8
0
  6
CONTINUOUS
 62
     0
 10
29.670351748727679
 20
89.764735087062007
 30
0.0
  0
VERTEX
  5
219E
  8
0
  6
CONTINUOUS
 62
     0
 10
29.9002179163009
 20
89.745611150902377
 30
0.0
  0
VERTEX
  5
219F
  8
0
  6
CONTINUOUS
 62
     0
 10
30.129866739686179
 20
89.721867582991777
 30
0.0
  0
VERTEX
  5
21A0
  8
0
  6
CONTINUOUS
 62
     0
 10
30.35961771451451
 20
89.693540840311016
 30
0.0
  0
VERTEX
  5
21A1
  8
0
  6
CONTINUOUS
 62
     0
 10
30.589784557684879
 20
89.660654116968445
 30
0.0
  0
VERTEX
  5
21A2
  8
0
  6
CONTINUOUS
 62
     0
 10
30.82067676632818
 20
89.623217748020807
 30
0.0
  0
VERTEX
  5
21A3
  8
0
  6
CONTINUOUS
 62
     0
 10
30.936490814637811
 20
89.602793237200814
 30
0.0
  0
VERTEX
  5
21A4
  8
0
  6
CONTINUOUS
 62
     0
 10
31.052601108225311
 20
89.581229515393716
 30
0.0
  0
VERTEX
  5
21A5
  8
0
  6
CONTINUOUS
 62
     0
 10
31.285863059783821
 20
89.534674861565861
 30
0.0
  0
VERTEX
  5
21A6
  8
0
  6
CONTINUOUS
 62
     0
 10
31.520768206523201
 20
89.483527015340186
 30
0.0
  0
VERTEX
  5
21A7
  8
0
  6
CONTINUOUS
 62
     0
 10
31.75762362015081
 20
89.427747032801022
 30
0.0
  0
VERTEX
  5
21A8
  8
0
  6
CONTINUOUS
 62
     0
 10
31.996739225689112
 20
89.367283755415457
 30
0.0
  0
VERTEX
  5
21A9
  8
0
  6
CONTINUOUS
 62
     0
 10
32.238429171731752
 20
89.302073686153506
 30
0.0
  0
VERTEX
  5
21AA
  8
0
  6
CONTINUOUS
 62
     0
 10
32.360339189381591
 20
89.267665338937235
 30
0.0
  0
VERTEX
  5
21AB
  8
0
  6
CONTINUOUS
 62
     0
 10
32.483013216737113
 20
89.232040783456796
 30
0.0
  0
VERTEX
  5
21AC
  8
0
  6
CONTINUOUS
 62
     0
 10
32.730818144315442
 20
89.157096171851265
 30
0.0
  0
VERTEX
  5
21AD
  8
0
  6
CONTINUOUS
 62
     0
 10
32.982179220719267
 20
89.077137766959126
 30
0.0
  0
VERTEX
  5
21AE
  8
0
  6
CONTINUOUS
 62
     0
 10
33.109300775963732
 20
89.03524276658078
 30
0.0
  0
SEQEND
  5
21AF
  8
0
  6
CONTINUOUS
 62
     0
  0
POLYLINE
  5
1B18
  8
0
  6
CONTINUOUS
 62
     0
 66
     1
 10
0.0
 20
0.0
 30
0.0
  0
VERTEX
  5
21B0
  8
0
  6
CONTINUOUS
 62
     0
 10
16.109300775963732
 20
89.03524276658078
 30
0.0
  0
VERTEX
  5
21B1
  8
0
  6
CONTINUOUS
 62
     0
 10
16.236422331208189
 20
89.077137766959126
 30
0.0
  0
VERTEX
  5
21B2
  8
0
  6
CONTINUOUS
 62
     0
 10
16.487783407612081
 20
89.157096171851265
 30
0.0
  0
VERTEX
  5
21B3
  8
0
  6
CONTINUOUS
 62
     0
 10
16.735588335190361
 20
89.232040783456796
 30
0.0
  0
VERTEX
  5
21B4
  8
0
  6
CONTINUOUS
 62
     0
 10
16.858262362545869
 20
89.267665338937235
 30
0.0
  0
VERTEX
  5
21B5
  8
0
  6
CONTINUOUS
 62
     0
 10
16.980172380195711
 20
89.302073686153506
 30
0.0
  0
VERTEX
  5
21B6
  8
0
  6
CONTINUOUS
 62
     0
 10
17.221862326238352
 20
89.367283755415457
 30
0.0
  0
VERTEX
  5
21B7
  8
0
  6
CONTINUOUS
 62
     0
 10
17.460977931776711
 20
89.427747032801022
 30
0.0
  0
VERTEX
  5
21B8
  8
0
  6
CONTINUOUS
 62
     0
 10
17.697833345404259
 20
89.483527015340186
 30
0.0
  0
VERTEX
  5
21B9
  8
0
  6
CONTINUOUS
 62
     0
 10
17.932738492143638
 20
89.534674861565861
 30
0.0
  0
VERTEX
  5
21BA
  8
0
  6
CONTINUOUS
 62
     0
 10
18.16600044370216
 20
89.581229515393716
 30
0.0
  0
VERTEX
  5
21BB
  8
0
  6
CONTINUOUS
 62
     0
 10
18.282110737289649
 20
89.602793237200814
 30
0.0
  0
VERTEX
  5
21BC
  8
0
  6
CONTINUOUS
 62
     0
 10
18.39792478559934
 20
89.623217748020807
 30
0.0
  0
VERTEX
  5
21BD
  8
0
  6
CONTINUOUS
 62
     0
 10
18.62881699424258
 20
89.660654116968445
 30
0.0
  0
VERTEX
  5
21BE
  8
0
  6
CONTINUOUS
 62
     0
 10
18.85898383741295
 20
89.693540840311016
 30
0.0
  0
VERTEX
  5
21BF
  8
0
  6
CONTINUOUS
 62
     0
 10
19.088734812241281
 20
89.721867582991777
 30
0.0
  0
VERTEX
  5
21C0
  8
0
  6
CONTINUOUS
 62
     0
 10
19.31838363562661
 20
89.745611150902377
 30
0.0
  0
VERTEX
  5
21C1
  8
0
  6
CONTINUOUS
 62
     0
 10
19.548249803199781
 20
89.764735087062007
 30
0.0
  0
VERTEX
  5
21C2
  8
0
  6
CONTINUOUS
 62
     0
 10
19.663366216334449
 20
89.772549550923912
 30
0.0
  0
VERTEX
  5
21C3
  8
0
  6
CONTINUOUS
 62
     0
 10
19.77866023440038
 20
89.779189162750768
 30
0.0
  0
VERTEX
  5
21C4
  8
0
  6
CONTINUOUS
 62
     0
 10
20.00995102306069
 20
89.788908754782057
 30
0.0
  0
VERTEX
  5
21C5
  8
0
  6
CONTINUOUS
 62
     0
 10
20.242469315133011
 20
89.793814098203043
 30
0.0
  0
VERTEX
  5
21C6
  8
0
  6
CONTINUOUS
 62
     0
 10
20.359300775963732
 20
89.794432145135644
 30
0.0
  0
SEQEND
  5
21C7
  8
0
  6
CONTINUOUS
 62
     0
  0
POLYLINE
  5
1B19
  8
0
  6
CONTINUOUS
 62
     0
 66
     1
 10
0.0
 20
0.0
 30
0.0
  0
VERTEX
  5
21C8
  8
0
  6
CONTINUOUS
 62
     0
 10
20.359300775963732
 20
84.794432145135644
 30
0.0
  0
VERTEX
  5
21C9
  8
0
  6
CONTINUOUS
 62
     0
 10
20.242469315133011
 20
84.795050192068203
 30
0.0
  0
VERTEX
  5
21CA
  8
0
  6
CONTINUOUS
 62
     0
 10
20.00995102306069
 20
84.799955535489204
 30
0.0
  0
VERTEX
  5
21CB
  8
0
  6
CONTINUOUS
 62
     0
 10
19.77866023440038
 20
84.809675127520478
 30
0.0
  0
VERTEX
  5
21CC
  8
0
  6
CONTINUOUS
 62
     0
 10
19.663366216334449
 20
84.816314739347348
 30
0.0
  0
VERTEX
  5
21CD
  8
0
  6
CONTINUOUS
 62
     0
 10
19.548249803199781
 20
84.824129203209253
 30
0.0
  0
VERTEX
  5
21CE
  8
0
  6
CONTINUOUS
 62
     0
 10
19.31838363562656
 20
84.843253139368898
 30
0.0
  0
VERTEX
  5
21CF
  8
0
  6
CONTINUOUS
 62
     0
 10
19.088734812241281
 20
84.866996707279469
 30
0.0
  0
VERTEX
  5
21D0
  8
0
  6
CONTINUOUS
 62
     0
 10
18.85898383741295
 20
84.895323449960244
 30
0.0
  0
VERTEX
  5
21D1
  8
0
  6
CONTINUOUS
 62
     0
 10
18.62881699424258
 20
84.928210173302801
 30
0.0
  0
VERTEX
  5
21D2
  8
0
  6
CONTINUOUS
 62
     0
 10
18.39792478559928
 20
84.965646542250454
 30
0.0
  0
VERTEX
  5
21D3
  8
0
  6
CONTINUOUS
 62
     0
 10
18.282110737289649
 20
84.986071053070447
 30
0.0
  0
VERTEX
  5
21D4
  8
0
  6
CONTINUOUS
 62
     0
 10
18.16600044370216
 20
85.007634774877545
 30
0.0
  0
VERTEX
  5
21D5
  8
0
  6
CONTINUOUS
 62
     0
 10
17.932738492143638
 20
85.054189428705385
 30
0.0
  0
VERTEX
  5
21D6
  8
0
  6
CONTINUOUS
 62
     0
 10
17.697833345404259
 20
85.105337274931088
 30
0.0
  0
VERTEX
  5
21D7
  8
0
  6
CONTINUOUS
 62
     0
 10
17.46097793177665
 20
85.161117257470224
 30
0.0
  0
VERTEX
  5
21D8
  8
0
  6
CONTINUOUS
 62
     0
 10
17.221862326238352
 20
85.221580534855804
 30
0.0
  0
VERTEX
  5
21D9
  8
0
  6
CONTINUOUS
 62
     0
 10
16.980172380195711
 20
85.286790604117755
 30
0.0
  0
VERTEX
  5
21DA
  8
0
  6
CONTINUOUS
 62
     0
 10
16.858262362545869
 20
85.321198951334026
 30
0.0
  0
VERTEX
  5
21DB
  8
0
  6
CONTINUOUS
 62
     0
 10
16.735588335190361
 20
85.356823506814465
 30
0.0
  0
VERTEX
  5
21DC
  8
0
  6
CONTINUOUS
 62
     0
 10
16.487783407612032
 20
85.431768118419996
 30
0.0
  0
VERTEX
  5
21DD
  8
0
  6
CONTINUOUS
 62
     0
 10
16.236422331208189
 20
85.511726523312149
 30
0.0
  0
VERTEX
  5
21DE
  8
0
  6
CONTINUOUS
 62
     0
 10
16.109300775963732
 20
85.553621523690467
 30
0.0
  0
SEQEND
  5
21DF
  8
0
  6
CONTINUOUS
 62
     0
  0
POLYLINE
  5
1B1A
  8
0
  6
CONTINUOUS
 62
     0
 66
     1
 10
0.0
 20
0.0
 30
0.0
  0
VERTEX
  5
21E0
  8
0
  6
CONTINUOUS
 62
     0
 10
24.609300775963732
 20
85.553621523690467
 30
0.0
  0
VERTEX
  5
21E1
  8
0
  6
CONTINUOUS
 62
     0
 10
24.482179220719281
 20
85.511726523312149
 30
0.0
  0
VERTEX
  5
21E2
  8
0
  6
CONTINUOUS
 62
     0
 10
24.230818144315439
 20
85.431768118419996
 30
0.0
  0
VERTEX
  5
21E3
  8
0
  6
CONTINUOUS
 62
     0
 10
23.98301321673711
 20
85.356823506814465
 30
0.0
  0
VERTEX
  5
21E4
  8
0
  6
CONTINUOUS
 62
     0
 10
23.860339189381591
 20
85.321198951334026
 30
0.0
  0
VERTEX
  5
21E5
  8
0
  6
CONTINUOUS
 62
     0
 10
23.738429171731749
 20
85.286790604117755
 30
0.0
  0
VERTEX
  5
21E6
  8
0
  6
CONTINUOUS
 62
     0
 10
23.496739225689112
 20
85.221580534855804
 30
0.0
  0
VERTEX
  5
21E7
  8
0
  6
CONTINUOUS
 62
     0
 10
23.25762362015081
 20
85.161117257470224
 30
0.0
  0
VERTEX
  5
21E8
  8
0
  6
CONTINUOUS
 62
     0
 10
23.020768206523201
 20
85.105337274931088
 30
0.0
  0
VERTEX
  5
21E9
  8
0
  6
CONTINUOUS
 62
     0
 10
22.785863059783821
 20
85.054189428705385
 30
0.0
  0
VERTEX
  5
21EA
  8
0
  6
CONTINUOUS
 62
     0
 10
22.5526011082253
 20
85.007634774877545
 30
0.0
  0
VERTEX
  5
21EB
  8
0
  6
CONTINUOUS
 62
     0
 10
22.436490814637811
 20
84.986071053070447
 30
0.0
  0
VERTEX
  5
21EC
  8
0
  6
CONTINUOUS
 62
     0
 10
22.32067676632818
 20
84.965646542250454
 30
0.0
  0
VERTEX
  5
21ED
  8
0
  6
CONTINUOUS
 62
     0
 10
22.089784557684879
 20
84.928210173302801
 30
0.0
  0
VERTEX
  5
21EE
  8
0
  6
CONTINUOUS
 62
     0
 10
21.85961771451451
 20
84.895323449960244
 30
0.0
  0
VERTEX
  5
21EF
  8
0
  6
CONTINUOUS
 62
     0
 10
21.629866739686179
 20
84.866996707279469
 30
0.0
  0
VERTEX
  5
21F0
  8
0
  6
CONTINUOUS
 62
     0
 10
21.4002179163009
 20
84.843253139368898
 30
0.0
  0
VERTEX
  5
21F1
  8
0
  6
CONTINUOUS
 62
     0
 10
21.170351748727679
 20
84.824129203209253
 30
0.0
  0
VERTEX
  5
21F2
  8
0
  6
CONTINUOUS
 62
     0
 10
21.055235335593011
 20
84.816314739347348
 30
0.0
  0
VERTEX
  5
21F3
  8
0
  6
CONTINUOUS
 62
     0
 10
20.93994131752709
 20
84.809675127520478
 30
0.0
  0
VERTEX
  5
21F4
  8
0
  6
CONTINUOUS
 62
     0
 10
20.708650528866769
 20
84.799955535489204
 30
0.0
  0
VERTEX
  5
21F5
  8
0
  6
CONTINUOUS
 62
     0
 10
20.476132236794459
 20
84.795050192068203
 30
0.0
  0
VERTEX
  5
21F6
  8
0
  6
CONTINUOUS
 62
     0
 10
20.359300775963732
 20
84.794432145135644
 30
0.0
  0
SEQEND
  5
21F7
  8
0
  6
CONTINUOUS
 62
     0
  0
POLYLINE
  5
1B1B
  8
0
  6
CONTINUOUS
 62
     0
 66
     1
 10
0.0
 20
0.0
 30
0.0
  0
VERTEX
  5
21F8
  8
0
  6
CONTINUOUS
 62
     0
 10
20.359300775963732
 20
89.794432145135644
 30
0.0
  0
VERTEX
  5
21F9
  8
0
  6
CONTINUOUS
 62
     0
 10
20.476132236794459
 20
89.793814098203043
 30
0.0
  0
VERTEX
  5
21FA
  8
0
  6
CONTINUOUS
 62
     0
 10
20.708650528866769
 20
89.788908754782057
 30
0.0
  0
VERTEX
  5
21FB
  8
0
  6
CONTINUOUS
 62
     0
 10
20.93994131752709
 20
89.779189162750768
 30
0.0
  0
VERTEX
  5
21FC
  8
0
  6
CONTINUOUS
 62
     0
 10
21.055235335593011
 20
89.772549550923912
 30
0.0
  0
VERTEX
  5
21FD
  8
0
  6
CONTINUOUS
 62
     0
 10
21.170351748727679
 20
89.764735087062007
 30
0.0
  0
VERTEX
  5
21FE
  8
0
  6
CONTINUOUS
 62
     0
 10
21.4002179163009
 20
89.745611150902377
 30
0.0
  0
VERTEX
  5
21FF
  8
0
  6
CONTINUOUS
 62
     0
 10
21.629866739686179
 20
89.721867582991777
 30
0.0
  0
VERTEX
  5
2200
  8
0
  6
CONTINUOUS
 62
     0
 10
21.85961771451451
 20
89.693540840311016
 30
0.0
  0
VERTEX
  5
2201
  8
0
  6
CONTINUOUS
 62
     0
 10
22.089784557684879
 20
89.660654116968445
 30
0.0
  0
VERTEX
  5
2202
  8
0
  6
CONTINUOUS
 62
     0
 10
22.32067676632818
 20
89.623217748020807
 30
0.0
  0
VERTEX
  5
2203
  8
0
  6
CONTINUOUS
 62
     0
 10
22.436490814637811
 20
89.602793237200814
 30
0.0
  0
VERTEX
  5
2204
  8
0
  6
CONTINUOUS
 62
     0
 10
22.5526011082253
 20
89.581229515393716
 30
0.0
  0
VERTEX
  5
2205
  8
0
  6
CONTINUOUS
 62
     0
 10
22.785863059783821
 20
89.534674861565861
 30
0.0
  0
VERTEX
  5
2206
  8
0
  6
CONTINUOUS
 62
     0
 10
23.020768206523201
 20
89.483527015340186
 30
0.0
  0
VERTEX
  5
2207
  8
0
  6
CONTINUOUS
 62
     0
 10
23.25762362015081
 20
89.427747032801022
 30
0.0
  0
VERTEX
  5
2208
  8
0
  6
CONTINUOUS
 62
     0
 10
23.496739225689112
 20
89.367283755415457
 30
0.0
  0
VERTEX
  5
2209
  8
0
  6
CONTINUOUS
 62
     0
 10
23.738429171731749
 20
89.302073686153506
 30
0.0
  0
VERTEX
  5
220A
  8
0
  6
CONTINUOUS
 62
     0
 10
23.860339189381591
 20
89.267665338937235
 30
0.0
  0
VERTEX
  5
220B
  8
0
  6
CONTINUOUS
 62
     0
 10
23.98301321673711
 20
89.232040783456796
 30
0.0
  0
VERTEX
  5
220C
  8
0
  6
CONTINUOUS
 62
     0
 10
24.230818144315439
 20
89.157096171851265
 30
0.0
  0
VERTEX
  5
220D
  8
0
  6
CONTINUOUS
 62
     0
 10
24.482179220719281
 20
89.077137766959126
 30
0.0
  0
VERTEX
  5
220E
  8
0
  6
CONTINUOUS
 62
     0
 10
24.609300775963732
 20
89.03524276658078
 30
0.0
  0
SEQEND
  5
220F
  8
0
  6
CONTINUOUS
 62
     0
  0
POLYLINE
  5
1B1C
  8
0
  6
CONTINUOUS
 62
     0
 66
     1
 10
0.0
 20
0.0
 30
0.0
  0
VERTEX
  5
2210
  8
0
  6
CONTINUOUS
 62
     0
 10
33.109300775963732
 20
89.03524276658078
 30
0.0
  0
VERTEX
  5
2211
  8
0
  6
CONTINUOUS
 62
     0
 10
33.109300775963732
 20
89.077137766959126
 30
0.0
  0
VERTEX
  5
2212
  8
0
  6
CONTINUOUS
 62
     0
 10
33.109300775963732
 20
89.157096171851265
 30
0.0
  0
VERTEX
  5
2213
  8
0
  6
CONTINUOUS
 62
     0
 10
33.109300775963732
 20
89.232040783456796
 30
0.0
  0
VERTEX
  5
2214
  8
0
  6
CONTINUOUS
 62
     0
 10
33.109300775963732
 20
89.267665338937235
 30
0.0
  0
VERTEX
  5
2215
  8
0
  6
CONTINUOUS
 62
     0
 10
33.109300775963732
 20
89.302073686153506
 30
0.0
  0
VERTEX
  5
2216
  8
0
  6
CONTINUOUS
 62
     0
 10
33.109300775963732
 20
89.367283755415457
 30
0.0
  0
VERTEX
  5
2217
  8
0
  6
CONTINUOUS
 62
     0
 10
33.109300775963732
 20
89.427747032801022
 30
0.0
  0
VERTEX
  5
2218
  8
0
  6
CONTINUOUS
 62
     0
 10
33.109300775963732
 20
89.483527015340186
 30
0.0
  0
VERTEX
  5
2219
  8
0
  6
CONTINUOUS
 62
     0
 10
33.109300775963732
 20
89.534674861565861
 30
0.0
  0
VERTEX
  5
221A
  8
0
  6
CONTINUOUS
 62
     0
 10
33.109300775963732
 20
89.581229515393716
 30
0.0
  0
VERTEX
  5
221B
  8
0
  6
CONTINUOUS
 62
     0
 10
33.109300775963732
 20
89.602793237200814
 30
0.0
  0
VERTEX
  5
221C
  8
0
  6
CONTINUOUS
 62
     0
 10
33.109300775963732
 20
89.623217748020807
 30
0.0
  0
VERTEX
  5
221D
  8
0
  6
CONTINUOUS
 62
     0
 10
33.109300775963732
 20
89.660654116968445
 30
0.0
  0
VERTEX
  5
221E
  8
0
  6
CONTINUOUS
 62
     0
 10
33.109300775963732
 20
89.693540840311016
 30
0.0
  0
VERTEX
  5
221F
  8
0
  6
CONTINUOUS
 62
     0
 10
33.109300775963732
 20
89.721867582991777
 30
0.0
  0
VERTEX
  5
2220
  8
0
  6
CONTINUOUS
 62
     0
 10
33.109300775963732
 20
89.745611150902377
 30
0.0
  0
VERTEX
  5
2221
  8
0
  6
CONTINUOUS
 62
     0
 10
33.109300775963732
 20
89.764735087062007
 30
0.0
  0
VERTEX
  5
2222
  8
0
  6
CONTINUOUS
 62
     0
 10
33.109300775963732
 20
89.772549550923912
 30
0.0
  0
VERTEX
  5
2223
  8
0
  6
CONTINUOUS
 62
     0
 10
33.109300775963732
 20
89.779189162750768
 30
0.0
  0
VERTEX
  5
2224
  8
0
  6
CONTINUOUS
 62
     0
 10
33.109300775963732
 20
89.788908754782057
 30
0.0
  0
VERTEX
  5
2225
  8
0
  6
CONTINUOUS
 62
     0
 10
33.109300775963732
 20
89.793814098203043
 30
0.0
  0
VERTEX
  5
2226
  8
0
  6
CONTINUOUS
 62
     0
 10
33.109300775963732
 20
89.794432145135644
 30
0.0
  0
SEQEND
  5
2227
  8
0
  6
CONTINUOUS
 62
     0
  0
POLYLINE
  5
1B1D
  8
0
  6
CONTINUOUS
 62
     0
 66
     1
 10
0.0
 20
0.0
 30
0.0
  0
VERTEX
  5
2228
  8
0
  6
CONTINUOUS
 62
     0
 10
33.109300775963732
 20
84.794432145135644
 30
0.0
  0
VERTEX
  5
2229
  8
0
  6
CONTINUOUS
 62
     0
 10
33.109300775963732
 20
84.795050192068203
 30
0.0
  0
VERTEX
  5
222A
  8
0
  6
CONTINUOUS
 62
     0
 10
33.109300775963732
 20
84.799955535489204
 30
0.0
  0
VERTEX
  5
222B
  8
0
  6
CONTINUOUS
 62
     0
 10
33.109300775963732
 20
84.809675127520478
 30
0.0
  0
VERTEX
  5
222C
  8
0
  6
CONTINUOUS
 62
     0
 10
33.109300775963732
 20
84.816314739347348
 30
0.0
  0
VERTEX
  5
222D
  8
0
  6
CONTINUOUS
 62
     0
 10
33.109300775963732
 20
84.824129203209253
 30
0.0
  0
VERTEX
  5
222E
  8
0
  6
CONTINUOUS
 62
     0
 10
33.109300775963732
 20
84.843253139368898
 30
0.0
  0
VERTEX
  5
222F
  8
0
  6
CONTINUOUS
 62
     0
 10
33.109300775963732
 20
84.866996707279469
 30
0.0
  0
VERTEX
  5
2230
  8
0
  6
CONTINUOUS
 62
     0
 10
33.109300775963732
 20
84.895323449960244
 30
0.0
  0
VERTEX
  5
2231
  8
0
  6
CONTINUOUS
 62
     0
 10
33.109300775963732
 20
84.928210173302801
 30
0.0
  0
VERTEX
  5
2232
  8
0
  6
CONTINUOUS
 62
     0
 10
33.109300775963732
 20
84.965646542250454
 30
0.0
  0
VERTEX
  5
2233
  8
0
  6
CONTINUOUS
 62
     0
 10
33.109300775963732
 20
84.986071053070447
 30
0.0
  0
VERTEX
  5
2234
  8
0
  6
CONTINUOUS
 62
     0
 10
33.109300775963732
 20
85.007634774877545
 30
0.0
  0
VERTEX
  5
2235
  8
0
  6
CONTINUOUS
 62
     0
 10
33.109300775963732
 20
85.054189428705385
 30
0.0
  0
VERTEX
  5
2236
  8
0
  6
CONTINUOUS
 62
     0
 10
33.109300775963732
 20
85.105337274931088
 30
0.0
  0
VERTEX
  5
2237
  8
0
  6
CONTINUOUS
 62
     0
 10
33.109300775963732
 20
85.161117257470224
 30
0.0
  0
VERTEX
  5
2238
  8
0
  6
CONTINUOUS
 62
     0
 10
33.109300775963732
 20
85.221580534855804
 30
0.0
  0
VERTEX
  5
2239
  8
0
  6
CONTINUOUS
 62
     0
 10
33.109300775963732
 20
85.286790604117755
 30
0.0
  0
VERTEX
  5
223A
  8
0
  6
CONTINUOUS
 62
     0
 10
33.109300775963732
 20
85.321198951334026
 30
0.0
  0
VERTEX
  5
223B
  8
0
  6
CONTINUOUS
 62
     0
 10
33.109300775963732
 20
85.356823506814465
 30
0.0
  0
VERTEX
  5
223C
  8
0
  6
CONTINUOUS
 62
     0
 10
33.109300775963732
 20
85.431768118419996
 30
0.0
  0
VERTEX
  5
223D
  8
0
  6
CONTINUOUS
 62
     0
 10
33.109300775963732
 20
85.511726523312149
 30
0.0
  0
VERTEX
  5
223E
  8
0
  6
CONTINUOUS
 62
     0
 10
33.109300775963732
 20
85.553621523690467
 30
0.0
  0
SEQEND
  5
223F
  8
0
  6
CONTINUOUS
 62
     0
  0
POLYLINE
  5
1B1E
  8
0
  6
CONTINUOUS
 62
     0
 66
     1
 10
0.0
 20
0.0
 30
0.0
  0
VERTEX
  5
2240
  8
0
  6
CONTINUOUS
 62
     0
 10
28.859300775963732
 20
89.794432145135644
 30
0.0
  0
VERTEX
  5
2241
  8
0
  6
CONTINUOUS
 62
     0
 10
28.742469315133011
 20
89.793814098203043
 30
0.0
  0
VERTEX
  5
2242
  8
0
  6
CONTINUOUS
 62
     0
 10
28.509951023060701
 20
89.788908754782057
 30
0.0
  0
VERTEX
  5
2243
  8
0
  6
CONTINUOUS
 62
     0
 10
28.27866023440038
 20
89.779189162750768
 30
0.0
  0
VERTEX
  5
2244
  8
0
  6
CONTINUOUS
 62
     0
 10
28.163366216334449
 20
89.772549550923912
 30
0.0
  0
VERTEX
  5
2245
  8
0
  6
CONTINUOUS
 62
     0
 10
28.048249803199781
 20
89.764735087062007
 30
0.0
  0
VERTEX
  5
2246
  8
0
  6
CONTINUOUS
 62
     0
 10
27.81838363562656
 20
89.745611150902377
 30
0.0
  0
VERTEX
  5
2247
  8
0
  6
CONTINUOUS
 62
     0
 10
27.588734812241281
 20
89.721867582991777
 30
0.0
  0
VERTEX
  5
2248
  8
0
  6
CONTINUOUS
 62
     0
 10
27.35898383741295
 20
89.693540840311016
 30
0.0
  0
VERTEX
  5
2249
  8
0
  6
CONTINUOUS
 62
     0
 10
27.12881699424258
 20
89.660654116968445
 30
0.0
  0
VERTEX
  5
224A
  8
0
  6
CONTINUOUS
 62
     0
 10
26.89792478559929
 20
89.623217748020807
 30
0.0
  0
VERTEX
  5
224B
  8
0
  6
CONTINUOUS
 62
     0
 10
26.78211073728966
 20
89.602793237200814
 30
0.0
  0
VERTEX
  5
224C
  8
0
  6
CONTINUOUS
 62
     0
 10
26.66600044370216
 20
89.581229515393716
 30
0.0
  0
VERTEX
  5
224D
  8
0
  6
CONTINUOUS
 62
     0
 10
26.432738492143638
 20
89.534674861565861
 30
0.0
  0
VERTEX
  5
224E
  8
0
  6
CONTINUOUS
 62
     0
 10
26.197833345404259
 20
89.483527015340186
 30
0.0
  0
VERTEX
  5
224F
  8
0
  6
CONTINUOUS
 62
     0
 10
25.960977931776661
 20
89.427747032801022
 30
0.0
  0
VERTEX
  5
2250
  8
0
  6
CONTINUOUS
 62
     0
 10
25.721862326238352
 20
89.367283755415457
 30
0.0
  0
VERTEX
  5
2251
  8
0
  6
CONTINUOUS
 62
     0
 10
25.480172380195711
 20
89.302073686153506
 30
0.0
  0
VERTEX
  5
2252
  8
0
  6
CONTINUOUS
 62
     0
 10
25.358262362545879
 20
89.267665338937235
 30
0.0
  0
VERTEX
  5
2253
  8
0
  6
CONTINUOUS
 62
     0
 10
25.235588335190361
 20
89.232040783456796
 30
0.0
  0
VERTEX
  5
2254
  8
0
  6
CONTINUOUS
 62
     0
 10
24.987783407612032
 20
89.157096171851265
 30
0.0
  0
VERTEX
  5
2255
  8
0
  6
CONTINUOUS
 62
     0
 10
24.736422331208189
 20
89.077137766959126
 30
0.0
  0
VERTEX
  5
2256
  8
0
  6
CONTINUOUS
 62
     0
 10
24.609300775963732
 20
89.03524276658078
 30
0.0
  0
SEQEND
  5
2257
  8
0
  6
CONTINUOUS
 62
     0
  0
POLYLINE
  5
1B1F
  8
0
  6
CONTINUOUS
 62
     0
 66
     1
 10
0.0
 20
0.0
 30
0.0
  0
VERTEX
  5
2258
  8
0
  6
CONTINUOUS
 62
     0
 10
33.109300775963732
 20
89.03524276658078
 30
0.0
  0
VERTEX
  5
2259
  8
0
  6
CONTINUOUS
 62
     0
 10
32.982179220719267
 20
89.077137766959126
 30
0.0
  0
VERTEX
  5
225A
  8
0
  6
CONTINUOUS
 62
     0
 10
32.730818144315379
 20
89.157096171851265
 30
0.0
  0
VERTEX
  5
225B
  8
0
  6
CONTINUOUS
 62
     0
 10
32.483013216737113
 20
89.232040783456796
 30
0.0
  0
VERTEX
  5
225C
  8
0
  6
CONTINUOUS
 62
     0
 10
32.360339189381591
 20
89.267665338937235
 30
0.0
  0
VERTEX
  5
225D
  8
0
  6
CONTINUOUS
 62
     0
 10
32.238429171731752
 20
89.302073686153506
 30
0.0
  0
VERTEX
  5
225E
  8
0
  6
CONTINUOUS
 62
     0
 10
31.996739225689112
 20
89.367283755415457
 30
0.0
  0
VERTEX
  5
225F
  8
0
  6
CONTINUOUS
 62
     0
 10
31.757623620150749
 20
89.427747032801022
 30
0.0
  0
VERTEX
  5
2260
  8
0
  6
CONTINUOUS
 62
     0
 10
31.520768206523201
 20
89.483527015340186
 30
0.0
  0
VERTEX
  5
2261
  8
0
  6
CONTINUOUS
 62
     0
 10
31.285863059783821
 20
89.534674861565861
 30
0.0
  0
VERTEX
  5
2262
  8
0
  6
CONTINUOUS
 62
     0
 10
31.052601108225311
 20
89.581229515393716
 30
0.0
  0
VERTEX
  5
2263
  8
0
  6
CONTINUOUS
 62
     0
 10
30.936490814637811
 20
89.602793237200814
 30
0.0
  0
VERTEX
  5
2264
  8
0
  6
CONTINUOUS
 62
     0
 10
30.82067676632812
 20
89.623217748020807
 30
0.0
  0
VERTEX
  5
2265
  8
0
  6
CONTINUOUS
 62
     0
 10
30.589784557684879
 20
89.660654116968445
 30
0.0
  0
VERTEX
  5
2266
  8
0
  6
CONTINUOUS
 62
     0
 10
30.35961771451451
 20
89.693540840311016
 30
0.0
  0
VERTEX
  5
2267
  8
0
  6
CONTINUOUS
 62
     0
 10
30.129866739686179
 20
89.721867582991777
 30
0.0
  0
VERTEX
  5
2268
  8
0
  6
CONTINUOUS
 62
     0
 10
29.900217916300839
 20
89.745611150902377
 30
0.0
  0
VERTEX
  5
2269
  8
0
  6
CONTINUOUS
 62
     0
 10
29.670351748727679
 20
89.764735087062007
 30
0.0
  0
VERTEX
  5
226A
  8
0
  6
CONTINUOUS
 62
     0
 10
29.555235335593011
 20
89.772549550923912
 30
0.0
  0
VERTEX
  5
226B
  8
0
  6
CONTINUOUS
 62
     0
 10
29.43994131752709
 20
89.779189162750768
 30
0.0
  0
VERTEX
  5
226C
  8
0
  6
CONTINUOUS
 62
     0
 10
29.208650528866769
 20
89.788908754782057
 30
0.0
  0
VERTEX
  5
226D
  8
0
  6
CONTINUOUS
 62
     0
 10
28.976132236794459
 20
89.793814098203043
 30
0.0
  0
VERTEX
  5
226E
  8
0
  6
CONTINUOUS
 62
     0
 10
28.859300775963732
 20
89.794432145135644
 30
0.0
  0
SEQEND
  5
226F
  8
0
  6
CONTINUOUS
 62
     0
  0
POLYLINE
  5
1B20
  8
0
  6
CONTINUOUS
 62
     0
 66
     1
 10
0.0
 20
0.0
 30
0.0
  0
VERTEX
  5
2270
  8
0
  6
CONTINUOUS
 62
     0
 10
28.859300775963732
 20
84.794432145135644
 30
0.0
  0
VERTEX
  5
2271
  8
0
  6
CONTINUOUS
 62
     0
 10
28.976132236794459
 20
84.795050192068203
 30
0.0
  0
VERTEX
  5
2272
  8
0
  6
CONTINUOUS
 62
     0
 10
29.208650528866769
 20
84.799955535489204
 30
0.0
  0
VERTEX
  5
2273
  8
0
  6
CONTINUOUS
 62
     0
 10
29.43994131752709
 20
84.809675127520478
 30
0.0
  0
VERTEX
  5
2274
  8
0
  6
CONTINUOUS
 62
     0
 10
29.555235335593011
 20
84.816314739347348
 30
0.0
  0
VERTEX
  5
2275
  8
0
  6
CONTINUOUS
 62
     0
 10
29.670351748727679
 20
84.824129203209253
 30
0.0
  0
VERTEX
  5
2276
  8
0
  6
CONTINUOUS
 62
     0
 10
29.9002179163009
 20
84.843253139368898
 30
0.0
  0
VERTEX
  5
2277
  8
0
  6
CONTINUOUS
 62
     0
 10
30.129866739686179
 20
84.866996707279469
 30
0.0
  0
VERTEX
  5
2278
  8
0
  6
CONTINUOUS
 62
     0
 10
30.35961771451451
 20
84.895323449960244
 30
0.0
  0
VERTEX
  5
2279
  8
0
  6
CONTINUOUS
 62
     0
 10
30.589784557684879
 20
84.928210173302801
 30
0.0
  0
VERTEX
  5
227A
  8
0
  6
CONTINUOUS
 62
     0
 10
30.82067676632818
 20
84.965646542250454
 30
0.0
  0
VERTEX
  5
227B
  8
0
  6
CONTINUOUS
 62
     0
 10
30.936490814637811
 20
84.986071053070447
 30
0.0
  0
VERTEX
  5
227C
  8
0
  6
CONTINUOUS
 62
     0
 10
31.052601108225311
 20
85.007634774877545
 30
0.0
  0
VERTEX
  5
227D
  8
0
  6
CONTINUOUS
 62
     0
 10
31.285863059783821
 20
85.054189428705385
 30
0.0
  0
VERTEX
  5
227E
  8
0
  6
CONTINUOUS
 62
     0
 10
31.520768206523201
 20
85.105337274931088
 30
0.0
  0
VERTEX
  5
227F
  8
0
  6
CONTINUOUS
 62
     0
 10
31.75762362015081
 20
85.161117257470224
 30
0.0
  0
VERTEX
  5
2280
  8
0
  6
CONTINUOUS
 62
     0
 10
31.996739225689112
 20
85.221580534855804
 30
0.0
  0
VERTEX
  5
2281
  8
0
  6
CONTINUOUS
 62
     0
 10
32.238429171731752
 20
85.286790604117755
 30
0.0
  0
VERTEX
  5
2282
  8
0
  6
CONTINUOUS
 62
     0
 10
32.360339189381591
 20
85.321198951334026
 30
0.0
  0
VERTEX
  5
2283
  8
0
  6
CONTINUOUS
 62
     0
 10
32.483013216737113
 20
85.356823506814465
 30
0.0
  0
VERTEX
  5
2284
  8
0
  6
CONTINUOUS
 62
     0
 10
32.730818144315442
 20
85.431768118419996
 30
0.0
  0
VERTEX
  5
2285
  8
0
  6
CONTINUOUS
 62
     0
 10
32.982179220719267
 20
85.511726523312149
 30
0.0
  0
VERTEX
  5
2286
  8
0
  6
CONTINUOUS
 62
     0
 10
33.109300775963732
 20
85.553621523690467
 30
0.0
  0
SEQEND
  5
2287
  8
0
  6
CONTINUOUS
 62
     0
  0
POLYLINE
  5
1B21
  8
0
  6
CONTINUOUS
 62
     0
 66
     1
 10
0.0
 20
0.0
 30
0.0
  0
VERTEX
  5
2288
  8
0
  6
CONTINUOUS
 62
     0
 10
24.609300775963732
 20
85.553621523690467
 30
0.0
  0
VERTEX
  5
2289
  8
0
  6
CONTINUOUS
 62
     0
 10
24.736422331208189
 20
85.511726523312149
 30
0.0
  0
VERTEX
  5
228A
  8
0
  6
CONTINUOUS
 62
     0
 10
24.987783407612032
 20
85.431768118419996
 30
0.0
  0
VERTEX
  5
228B
  8
0
  6
CONTINUOUS
 62
     0
 10
25.235588335190361
 20
85.356823506814465
 30
0.0
  0
VERTEX
  5
228C
  8
0
  6
CONTINUOUS
 62
     0
 10
25.358262362545879
 20
85.321198951334026
 30
0.0
  0
VERTEX
  5
228D
  8
0
  6
CONTINUOUS
 62
     0
 10
25.480172380195711
 20
85.286790604117755
 30
0.0
  0
VERTEX
  5
228E
  8
0
  6
CONTINUOUS
 62
     0
 10
25.721862326238352
 20
85.221580534855804
 30
0.0
  0
VERTEX
  5
228F
  8
0
  6
CONTINUOUS
 62
     0
 10
25.960977931776661
 20
85.161117257470224
 30
0.0
  0
VERTEX
  5
2290
  8
0
  6
CONTINUOUS
 62
     0
 10
26.197833345404259
 20
85.105337274931088
 30
0.0
  0
VERTEX
  5
2291
  8
0
  6
CONTINUOUS
 62
     0
 10
26.432738492143638
 20
85.054189428705385
 30
0.0
  0
VERTEX
  5
2292
  8
0
  6
CONTINUOUS
 62
     0
 10
26.66600044370216
 20
85.007634774877545
 30
0.0
  0
VERTEX
  5
2293
  8
0
  6
CONTINUOUS
 62
     0
 10
26.78211073728966
 20
84.986071053070447
 30
0.0
  0
VERTEX
  5
2294
  8
0
  6
CONTINUOUS
 62
     0
 10
26.89792478559929
 20
84.965646542250454
 30
0.0
  0
VERTEX
  5
2295
  8
0
  6
CONTINUOUS
 62
     0
 10
27.12881699424258
 20
84.928210173302801
 30
0.0
  0
VERTEX
  5
2296
  8
0
  6
CONTINUOUS
 62
     0
 10
27.35898383741295
 20
84.895323449960244
 30
0.0
  0
VERTEX
  5
2297
  8
0
  6
CONTINUOUS
 62
     0
 10
27.588734812241281
 20
84.866996707279469
 30
0.0
  0
VERTEX
  5
2298
  8
0
  6
CONTINUOUS
 62
     0
 10
27.81838363562656
 20
84.843253139368898
 30
0.0
  0
VERTEX
  5
2299
  8
0
  6
CONTINUOUS
 62
     0
 10
28.048249803199781
 20
84.824129203209253
 30
0.0
  0
VERTEX
  5
229A
  8
0
  6
CONTINUOUS
 62
     0
 10
28.163366216334449
 20
84.816314739347348
 30
0.0
  0
VERTEX
  5
229B
  8
0
  6
CONTINUOUS
 62
     0
 10
28.27866023440038
 20
84.809675127520478
 30
0.0
  0
VERTEX
  5
229C
  8
0
  6
CONTINUOUS
 62
     0
 10
28.509951023060701
 20
84.799955535489204
 30
0.0
  0
VERTEX
  5
229D
  8
0
  6
CONTINUOUS
 62
     0
 10
28.742469315133011
 20
84.795050192068203
 30
0.0
  0
VERTEX
  5
229E
  8
0
  6
CONTINUOUS
 62
     0
 10
28.859300775963732
 20
84.794432145135644
 30
0.0
  0
SEQEND
  5
229F
  8
0
  6
CONTINUOUS
 62
     0
  0
POLYLINE
  5
1B22
  8
0
  6
CONTINUOUS
 62
     0
 66
     1
 10
0.0
 20
0.0
 30
0.0
  0
VERTEX
  5
22A0
  8
0
  6
CONTINUOUS
 62
     0
 10
20.359300775963732
 20
89.794432145135644
 30
0.0
  0
VERTEX
  5
22A1
  8
0
  6
CONTINUOUS
 62
     0
 10
20.242469315133011
 20
89.793814098203043
 30
0.0
  0
VERTEX
  5
22A2
  8
0
  6
CONTINUOUS
 62
     0
 10
20.00995102306069
 20
89.788908754782057
 30
0.0
  0
VERTEX
  5
22A3
  8
0
  6
CONTINUOUS
 62
     0
 10
19.77866023440038
 20
89.779189162750768
 30
0.0
  0
VERTEX
  5
22A4
  8
0
  6
CONTINUOUS
 62
     0
 10
19.663366216334449
 20
89.772549550923912
 30
0.0
  0
VERTEX
  5
22A5
  8
0
  6
CONTINUOUS
 62
     0
 10
19.548249803199781
 20
89.764735087062007
 30
0.0
  0
VERTEX
  5
22A6
  8
0
  6
CONTINUOUS
 62
     0
 10
19.31838363562656
 20
89.745611150902377
 30
0.0
  0
VERTEX
  5
22A7
  8
0
  6
CONTINUOUS
 62
     0
 10
19.088734812241281
 20
89.721867582991777
 30
0.0
  0
VERTEX
  5
22A8
  8
0
  6
CONTINUOUS
 62
     0
 10
18.85898383741295
 20
89.693540840311016
 30
0.0
  0
VERTEX
  5
22A9
  8
0
  6
CONTINUOUS
 62
     0
 10
18.62881699424258
 20
89.660654116968445
 30
0.0
  0
VERTEX
  5
22AA
  8
0
  6
CONTINUOUS
 62
     0
 10
18.39792478559928
 20
89.623217748020807
 30
0.0
  0
VERTEX
  5
22AB
  8
0
  6
CONTINUOUS
 62
     0
 10
18.282110737289649
 20
89.602793237200814
 30
0.0
  0
VERTEX
  5
22AC
  8
0
  6
CONTINUOUS
 62
     0
 10
18.16600044370216
 20
89.581229515393716
 30
0.0
  0
VERTEX
  5
22AD
  8
0
  6
CONTINUOUS
 62
     0
 10
17.932738492143638
 20
89.534674861565861
 30
0.0
  0
VERTEX
  5
22AE
  8
0
  6
CONTINUOUS
 62
     0
 10
17.697833345404259
 20
89.483527015340186
 30
0.0
  0
VERTEX
  5
22AF
  8
0
  6
CONTINUOUS
 62
     0
 10
17.46097793177665
 20
89.427747032801022
 30
0.0
  0
VERTEX
  5
22B0
  8
0
  6
CONTINUOUS
 62
     0
 10
17.221862326238352
 20
89.367283755415457
 30
0.0
  0
VERTEX
  5
22B1
  8
0
  6
CONTINUOUS
 62
     0
 10
16.980172380195711
 20
89.302073686153506
 30
0.0
  0
VERTEX
  5
22B2
  8
0
  6
CONTINUOUS
 62
     0
 10
16.858262362545869
 20
89.267665338937235
 30
0.0
  0
VERTEX
  5
22B3
  8
0
  6
CONTINUOUS
 62
     0
 10
16.735588335190361
 20
89.232040783456796
 30
0.0
  0
VERTEX
  5
22B4
  8
0
  6
CONTINUOUS
 62
     0
 10
16.487783407612032
 20
89.157096171851265
 30
0.0
  0
VERTEX
  5
22B5
  8
0
  6
CONTINUOUS
 62
     0
 10
16.236422331208189
 20
89.077137766959126
 30
0.0
  0
VERTEX
  5
22B6
  8
0
  6
CONTINUOUS
 62
     0
 10
16.109300775963732
 20
89.03524276658078
 30
0.0
  0
SEQEND
  5
22B7
  8
0
  6
CONTINUOUS
 62
     0
  0
POLYLINE
  5
1B23
  8
0
  6
CONTINUOUS
 62
     0
 66
     1
 10
0.0
 20
0.0
 30
0.0
  0
VERTEX
  5
22B8
  8
0
  6
CONTINUOUS
 62
     0
 10
24.609300775963732
 20
89.03524276658078
 30
0.0
  0
VERTEX
  5
22B9
  8
0
  6
CONTINUOUS
 62
     0
 10
24.482179220719281
 20
89.077137766959126
 30
0.0
  0
VERTEX
  5
22BA
  8
0
  6
CONTINUOUS
 62
     0
 10
24.230818144315439
 20
89.157096171851265
 30
0.0
  0
VERTEX
  5
22BB
  8
0
  6
CONTINUOUS
 62
     0
 10
23.98301321673711
 20
89.232040783456796
 30
0.0
  0
VERTEX
  5
22BC
  8
0
  6
CONTINUOUS
 62
     0
 10
23.860339189381591
 20
89.267665338937235
 30
0.0
  0
VERTEX
  5
22BD
  8
0
  6
CONTINUOUS
 62
     0
 10
23.738429171731749
 20
89.302073686153506
 30
0.0
  0
VERTEX
  5
22BE
  8
0
  6
CONTINUOUS
 62
     0
 10
23.496739225689112
 20
89.367283755415457
 30
0.0
  0
VERTEX
  5
22BF
  8
0
  6
CONTINUOUS
 62
     0
 10
23.25762362015081
 20
89.427747032801022
 30
0.0
  0
VERTEX
  5
22C0
  8
0
  6
CONTINUOUS
 62
     0
 10
23.020768206523201
 20
89.483527015340186
 30
0.0
  0
VERTEX
  5
22C1
  8
0
  6
CONTINUOUS
 62
     0
 10
22.785863059783821
 20
89.534674861565861
 30
0.0
  0
VERTEX
  5
22C2
  8
0
  6
CONTINUOUS
 62
     0
 10
22.5526011082253
 20
89.581229515393716
 30
0.0
  0
VERTEX
  5
22C3
  8
0
  6
CONTINUOUS
 62
     0
 10
22.436490814637811
 20
89.602793237200814
 30
0.0
  0
VERTEX
  5
22C4
  8
0
  6
CONTINUOUS
 62
     0
 10
22.32067676632818
 20
89.623217748020807
 30
0.0
  0
VERTEX
  5
22C5
  8
0
  6
CONTINUOUS
 62
     0
 10
22.089784557684879
 20
89.660654116968445
 30
0.0
  0
VERTEX
  5
22C6
  8
0
  6
CONTINUOUS
 62
     0
 10
21.85961771451451
 20
89.693540840311016
 30
0.0
  0
VERTEX
  5
22C7
  8
0
  6
CONTINUOUS
 62
     0
 10
21.629866739686179
 20
89.721867582991777
 30
0.0
  0
VERTEX
  5
22C8
  8
0
  6
CONTINUOUS
 62
     0
 10
21.4002179163009
 20
89.745611150902377
 30
0.0
  0
VERTEX
  5
22C9
  8
0
  6
CONTINUOUS
 62
     0
 10
21.170351748727679
 20
89.764735087062007
 30
0.0
  0
VERTEX
  5
22CA
  8
0
  6
CONTINUOUS
 62
     0
 10
21.055235335593011
 20
89.772549550923912
 30
0.0
  0
VERTEX
  5
22CB
  8
0
  6
CONTINUOUS
 62
     0
 10
20.93994131752709
 20
89.779189162750768
 30
0.0
  0
VERTEX
  5
22CC
  8
0
  6
CONTINUOUS
 62
     0
 10
20.708650528866769
 20
89.788908754782057
 30
0.0
  0
VERTEX
  5
22CD
  8
0
  6
CONTINUOUS
 62
     0
 10
20.476132236794459
 20
89.793814098203043
 30
0.0
  0
VERTEX
  5
22CE
  8
0
  6
CONTINUOUS
 62
     0
 10
20.359300775963732
 20
89.794432145135644
 30
0.0
  0
SEQEND
  5
22CF
  8
0
  6
CONTINUOUS
 62
     0
  0
POLYLINE
  5
1B24
  8
0
  6
CONTINUOUS
 62
     0
 66
     1
 10
0.0
 20
0.0
 30
0.0
  0
VERTEX
  5
22D0
  8
0
  6
CONTINUOUS
 62
     0
 10
20.359300775963732
 20
84.794432145135644
 30
0.0
  0
VERTEX
  5
22D1
  8
0
  6
CONTINUOUS
 62
     0
 10
20.476132236794459
 20
84.795050192068203
 30
0.0
  0
VERTEX
  5
22D2
  8
0
  6
CONTINUOUS
 62
     0
 10
20.708650528866769
 20
84.799955535489204
 30
0.0
  0
VERTEX
  5
22D3
  8
0
  6
CONTINUOUS
 62
     0
 10
20.93994131752709
 20
84.809675127520478
 30
0.0
  0
VERTEX
  5
22D4
  8
0
  6
CONTINUOUS
 62
     0
 10
21.055235335593011
 20
84.816314739347348
 30
0.0
  0
VERTEX
  5
22D5
  8
0
  6
CONTINUOUS
 62
     0
 10
21.17035174872774
 20
84.824129203209253
 30
0.0
  0
VERTEX
  5
22D6
  8
0
  6
CONTINUOUS
 62
     0
 10
21.4002179163009
 20
84.843253139368898
 30
0.0
  0
VERTEX
  5
22D7
  8
0
  6
CONTINUOUS
 62
     0
 10
21.629866739686179
 20
84.866996707279469
 30
0.0
  0
VERTEX
  5
22D8
  8
0
  6
CONTINUOUS
 62
     0
 10
21.85961771451451
 20
84.895323449960244
 30
0.0
  0
VERTEX
  5
22D9
  8
0
  6
CONTINUOUS
 62
     0
 10
22.089784557684879
 20
84.928210173302801
 30
0.0
  0
VERTEX
  5
22DA
  8
0
  6
CONTINUOUS
 62
     0
 10
22.32067676632818
 20
84.965646542250454
 30
0.0
  0
VERTEX
  5
22DB
  8
0
  6
CONTINUOUS
 62
     0
 10
22.436490814637811
 20
84.986071053070447
 30
0.0
  0
VERTEX
  5
22DC
  8
0
  6
CONTINUOUS
 62
     0
 10
22.5526011082253
 20
85.007634774877545
 30
0.0
  0
VERTEX
  5
22DD
  8
0
  6
CONTINUOUS
 62
     0
 10
22.785863059783821
 20
85.054189428705385
 30
0.0
  0
VERTEX
  5
22DE
  8
0
  6
CONTINUOUS
 62
     0
 10
23.020768206523201
 20
85.105337274931088
 30
0.0
  0
VERTEX
  5
22DF
  8
0
  6
CONTINUOUS
 62
     0
 10
23.25762362015081
 20
85.161117257470224
 30
0.0
  0
VERTEX
  5
22E0
  8
0
  6
CONTINUOUS
 62
     0
 10
23.496739225689112
 20
85.221580534855804
 30
0.0
  0
VERTEX
  5
22E1
  8
0
  6
CONTINUOUS
 62
     0
 10
23.738429171731749
 20
85.286790604117755
 30
0.0
  0
VERTEX
  5
22E2
  8
0
  6
CONTINUOUS
 62
     0
 10
23.860339189381591
 20
85.321198951334026
 30
0.0
  0
VERTEX
  5
22E3
  8
0
  6
CONTINUOUS
 62
     0
 10
23.98301321673711
 20
85.356823506814465
 30
0.0
  0
VERTEX
  5
22E4
  8
0
  6
CONTINUOUS
 62
     0
 10
24.230818144315439
 20
85.431768118419996
 30
0.0
  0
VERTEX
  5
22E5
  8
0
  6
CONTINUOUS
 62
     0
 10
24.482179220719281
 20
85.511726523312149
 30
0.0
  0
VERTEX
  5
22E6
  8
0
  6
CONTINUOUS
 62
     0
 10
24.609300775963732
 20
85.553621523690467
 30
0.0
  0
SEQEND
  5
22E7
  8
0
  6
CONTINUOUS
 62
     0
  0
POLYLINE
  5
1B25
  8
0
  6
CONTINUOUS
 62
     0
 66
     1
 10
0.0
 20
0.0
 30
0.0
  0
VERTEX
  5
22E8
  8
0
  6
CONTINUOUS
 62
     0
 10
16.109300775963732
 20
85.553621523690467
 30
0.0
  0
VERTEX
  5
22E9
  8
0
  6
CONTINUOUS
 62
     0
 10
16.236422331208189
 20
85.511726523312149
 30
0.0
  0
VERTEX
  5
22EA
  8
0
  6
CONTINUOUS
 62
     0
 10
16.487783407612032
 20
85.431768118419996
 30
0.0
  0
VERTEX
  5
22EB
  8
0
  6
CONTINUOUS
 62
     0
 10
16.735588335190361
 20
85.356823506814465
 30
0.0
  0
VERTEX
  5
22EC
  8
0
  6
CONTINUOUS
 62
     0
 10
16.858262362545869
 20
85.321198951334026
 30
0.0
  0
VERTEX
  5
22ED
  8
0
  6
CONTINUOUS
 62
     0
 10
16.980172380195711
 20
85.286790604117755
 30
0.0
  0
VERTEX
  5
22EE
  8
0
  6
CONTINUOUS
 62
     0
 10
17.221862326238352
 20
85.221580534855804
 30
0.0
  0
VERTEX
  5
22EF
  8
0
  6
CONTINUOUS
 62
     0
 10
17.460977931776711
 20
85.161117257470224
 30
0.0
  0
VERTEX
  5
22F0
  8
0
  6
CONTINUOUS
 62
     0
 10
17.697833345404259
 20
85.105337274931088
 30
0.0
  0
VERTEX
  5
22F1
  8
0
  6
CONTINUOUS
 62
     0
 10
17.932738492143638
 20
85.054189428705385
 30
0.0
  0
VERTEX
  5
22F2
  8
0
  6
CONTINUOUS
 62
     0
 10
18.16600044370216
 20
85.007634774877545
 30
0.0
  0
VERTEX
  5
22F3
  8
0
  6
CONTINUOUS
 62
     0
 10
18.282110737289649
 20
84.986071053070447
 30
0.0
  0
VERTEX
  5
22F4
  8
0
  6
CONTINUOUS
 62
     0
 10
18.39792478559928
 20
84.965646542250454
 30
0.0
  0
VERTEX
  5
22F5
  8
0
  6
CONTINUOUS
 62
     0
 10
18.62881699424258
 20
84.928210173302801
 30
0.0
  0
VERTEX
  5
22F6
  8
0
  6
CONTINUOUS
 62
     0
 10
18.85898383741295
 20
84.895323449960244
 30
0.0
  0
VERTEX
  5
22F7
  8
0
  6
CONTINUOUS
 62
     0
 10
19.088734812241281
 20
84.866996707279469
 30
0.0
  0
VERTEX
  5
22F8
  8
0
  6
CONTINUOUS
 62
     0
 10
19.31838363562656
 20
84.843253139368898
 30
0.0
  0
VERTEX
  5
22F9
  8
0
  6
CONTINUOUS
 62
     0
 10
19.548249803199781
 20
84.824129203209253
 30
0.0
  0
VERTEX
  5
22FA
  8
0
  6
CONTINUOUS
 62
     0
 10
19.663366216334449
 20
84.816314739347348
 30
0.0
  0
VERTEX
  5
22FB
  8
0
  6
CONTINUOUS
 62
     0
 10
19.77866023440038
 20
84.809675127520478
 30
0.0
  0
VERTEX
  5
22FC
  8
0
  6
CONTINUOUS
 62
     0
 10
20.00995102306069
 20
84.799955535489204
 30
0.0
  0
VERTEX
  5
22FD
  8
0
  6
CONTINUOUS
 62
     0
 10
20.242469315133011
 20
84.795050192068203
 30
0.0
  0
VERTEX
  5
22FE
  8
0
  6
CONTINUOUS
 62
     0
 10
20.359300775963732
 20
84.794432145135644
 30
0.0
  0
SEQEND
  5
22FF
  8
0
  6
CONTINUOUS
 62
     0
  0
LINE
  5
1B26
  8
0
  6
CONTINUOUS
 62
     0
 10
33.109300775963732
 20
89.794432145135644
 30
0.0
 11
16.109300775963732
 21
89.794432145135644
 31
0.0
  0
LINE
  5
1B27
  8
0
  6
CONTINUOUS
 62
     0
 10
33.109300775963732
 20
84.794432145135644
 30
0.0
 11
16.109300775963732
 21
84.794432145135644
 31
0.0
  0
POINT
  5
1BA1
  8
0
 62
     0
 10
87.784818859673507
 20
84.794432145135644
 30
0.0
210
0.0
220
0.0
230
-1.0
  0
POINT
  5
1BA2
  8
0
 62
     0
 10
87.784818859673507
 20
74.79443214513563
 30
0.0
  0
POINT
  5
1BA3
  8
0
 62
     0
 10
87.784818859673507
 20
74.79443214513563
 30
0.0
  0
POINT
  5
1BA4
  8
0
 62
     0
 10
87.784818859673507
 20
84.794432145135644
 30
0.0
  0
POINT
  5
1BA5
  8
0
 62
     0
 10
87.784818859673507
 20
74.79443214513563
 30
0.0
  0
LINE
  5
1BA7
  8
3
 10
83.704818859673495
 20
74.79443214513563
 30
0.0
 11
83.704818859673495
 21
84.794432145135644
 31
0.0
  0
LINE
  5
1BA8
  8
3
 10
91.864818859673477
 20
74.79443214513563
 30
0.0
 11
91.864818859673477
 21
84.794432145135644
 31
0.0
  0
POLYLINE
  5
1BA9
  8
0
  6
CONTINUOUS
 62
     0
 66
     1
 10
0.0
 20
0.0
 30
0.0
  0
VERTEX
  5
2300
  8
0
  6
CONTINUOUS
 62
     0
 10
82.784818859673507
 20
104.2944321451356
 30
0.0
  0
VERTEX
  5
2301
  8
0
  6
CONTINUOUS
 62
     0
 10
82.785007755937983
 20
104.2948099590768
 30
0.0
  0
VERTEX
  5
2302
  8
0
  6
CONTINUOUS
 62
     0
 10
82.786533890372908
 20
104.2978639737579
 30
0.0
  0
VERTEX
  5
2303
  8
0
  6
CONTINUOUS
 62
     0
 10
82.789617086762036
 20
104.3040424663709
 30
0.0
  0
VERTEX
  5
2304
  8
0
  6
CONTINUOUS
 62
     0
 10
82.791748948657215
 20
104.3083212995987
 30
0.0
  0
VERTEX
  5
2305
  8
0
  6
CONTINUOUS
 62
     0
 10
82.794275904457464
 20
104.31340030578799
 30
0.0
  0
VERTEX
  5
2306
  8
0
  6
CONTINUOUS
 62
     0
 10
82.800514478720714
 20
104.3259730788384
 30
0.0
  0
VERTEX
  5
2307
  8
0
  6
CONTINUOUS
 62
     0
 10
82.808322921340647
 20
104.3417781083332
 30
0.0
  0
VERTEX
  5
2308
  8
0
  6
CONTINUOUS
 62
     0
 10
82.817678123388035
 20
104.36081609200269
 30
0.0
  0
VERTEX
  5
2309
  8
0
  6
CONTINUOUS
 62
     0
 10
82.828543891875228
 20
104.3830712106375
 30
0.0
  0
VERTEX
  5
230A
  8
0
  6
CONTINUOUS
 62
     0
 10
82.840870653979863
 20
104.408510130362
 30
0.0
  0
VERTEX
  5
230B
  8
0
  6
CONTINUOUS
 62
     0
 10
82.847562888839349
 20
104.422408426549
 30
0.0
  0
VERTEX
  5
230C
  8
0
  6
CONTINUOUS
 62
     0
 10
82.854596030821284
 20
104.4370825439657
 30
0.0
  0
VERTEX
  5
230D
  8
0
  6
CONTINUOUS
 62
     0
 10
82.869645862341571
 20
104.4687224483547
 30
0.0
  0
VERTEX
  5
230E
  8
0
  6
CONTINUOUS
 62
     0
 10
82.885936597223889
 20
104.5033521767924
 30
0.0
  0
VERTEX
  5
230F
  8
0
  6
CONTINUOUS
 62
     0
 10
82.903383546989602
 20
104.5408992050796
 30
0.0
  0
VERTEX
  5
2310
  8
0
  6
CONTINUOUS
 62
     0
 10
82.921887500322015
 20
104.5812666732913
 30
0.0
  0
VERTEX
  5
2311
  8
0
  6
CONTINUOUS
 62
     0
 10
82.941338458680633
 20
104.62433942942
 30
0.0
  0
VERTEX
  5
2312
  8
0
  6
CONTINUOUS
 62
     0
 10
82.951382526711683
 20
104.6468505320659
 30
0.0
  0
VERTEX
  5
2313
  8
0
  6
CONTINUOUS
 62
     0
 10
82.961618665819586
 20
104.6699886627167
 30
0.0
  0
VERTEX
  5
2314
  8
0
  6
CONTINUOUS
 62
     0
 10
82.982604192323905
 20
104.71807338246779
 30
0.0
  0
VERTEX
  5
2315
  8
0
  6
CONTINUOUS
 62
     0
 10
83.004166624414694
 20
104.7684420675477
 30
0.0
  0
VERTEX
  5
2316
  8
0
  6
CONTINUOUS
 62
     0
 10
83.015122852588746
 20
104.7944321451356
 30
0.0
  0
SEQEND
  5
2317
  8
0
  6
CONTINUOUS
 62
     0
  0
POLYLINE
  5
1BAA
  8
0
  6
CONTINUOUS
 62
     0
 66
     1
 10
0.0
 20
0.0
 30
0.0
  0
VERTEX
  5
2318
  8
0
  6
CONTINUOUS
 62
     0
 10
83.015122852588746
 20
104.7944321451356
 30
0.0
  0
VERTEX
  5
2319
  8
0
  6
CONTINUOUS
 62
     0
 10
83.004166624414694
 20
104.7684420675477
 30
0.0
  0
VERTEX
  5
231A
  8
0
  6
CONTINUOUS
 62
     0
 10
82.982604192323905
 20
104.71807338246779
 30
0.0
  0
VERTEX
  5
231B
  8
0
  6
CONTINUOUS
 62
     0
 10
82.961618665819586
 20
104.6699886627167
 30
0.0
  0
VERTEX
  5
231C
  8
0
  6
CONTINUOUS
 62
     0
 10
82.951382526711683
 20
104.6468505320658
 30
0.0
  0
VERTEX
  5
231D
  8
0
  6
CONTINUOUS
 62
     0
 10
82.941338458680633
 20
104.62433942942
 30
0.0
  0
VERTEX
  5
231E
  8
0
  6
CONTINUOUS
 62
     0
 10
82.921887500322015
 20
104.5812666732913
 30
0.0
  0
VERTEX
  5
231F
  8
0
  6
CONTINUOUS
 62
     0
 10
82.903383546989602
 20
104.5408992050796
 30
0.0
  0
VERTEX
  5
2320
  8
0
  6
CONTINUOUS
 62
     0
 10
82.885936597223889
 20
104.5033521767924
 30
0.0
  0
VERTEX
  5
2321
  8
0
  6
CONTINUOUS
 62
     0
 10
82.869645862341571
 20
104.4687224483547
 30
0.0
  0
VERTEX
  5
2322
  8
0
  6
CONTINUOUS
 62
     0
 10
82.854596030821284
 20
104.4370825439657
 30
0.0
  0
VERTEX
  5
2323
  8
0
  6
CONTINUOUS
 62
     0
 10
82.847562888839349
 20
104.422408426549
 30
0.0
  0
VERTEX
  5
2324
  8
0
  6
CONTINUOUS
 62
     0
 10
82.840870653979863
 20
104.408510130362
 30
0.0
  0
VERTEX
  5
2325
  8
0
  6
CONTINUOUS
 62
     0
 10
82.828543891875228
 20
104.3830712106375
 30
0.0
  0
VERTEX
  5
2326
  8
0
  6
CONTINUOUS
 62
     0
 10
82.817678123388035
 20
104.36081609200269
 30
0.0
  0
VERTEX
  5
2327
  8
0
  6
CONTINUOUS
 62
     0
 10
82.808322921340647
 20
104.3417781083332
 30
0.0
  0
VERTEX
  5
2328
  8
0
  6
CONTINUOUS
 62
     0
 10
82.800514478720714
 20
104.3259730788384
 30
0.0
  0
VERTEX
  5
2329
  8
0
  6
CONTINUOUS
 62
     0
 10
82.794275904457464
 20
104.31340030578799
 30
0.0
  0
VERTEX
  5
232A
  8
0
  6
CONTINUOUS
 62
     0
 10
82.791748948657215
 20
104.3083212995987
 30
0.0
  0
VERTEX
  5
232B
  8
0
  6
CONTINUOUS
 62
     0
 10
82.789617086762036
 20
104.3040424663709
 30
0.0
  0
VERTEX
  5
232C
  8
0
  6
CONTINUOUS
 62
     0
 10
82.786533890372908
 20
104.2978639737579
 30
0.0
  0
VERTEX
  5
232D
  8
0
  6
CONTINUOUS
 62
     0
 10
82.785007755937983
 20
104.2948099590768
 30
0.0
  0
VERTEX
  5
232E
  8
0
  6
CONTINUOUS
 62
     0
 10
82.784818859673507
 20
104.2944321451356
 30
0.0
  0
SEQEND
  5
232F
  8
0
  6
CONTINUOUS
 62
     0
  0
LINE
  5
1BB0
  8
0
  6
CONTINUOUS
 62
     0
 10
83.015122852588746
 20
104.7944321451356
 30
0.0
 11
83.784818859673493
 21
104.7944321451356
 31
0.0
  0
POLYLINE
  5
1BB1
  8
0
  6
CONTINUOUS
 62
     0
 66
     1
 10
0.0
 20
0.0
 30
0.0
  0
VERTEX
  5
2330
  8
0
  6
CONTINUOUS
 62
     0
 10
92.784818859673507
 20
98.255549393087364
 30
0.0
  0
VERTEX
  5
2331
  8
0
  6
CONTINUOUS
 62
     0
 10
92.784484476539006
 20
98.255792336655205
 30
0.0
  0
VERTEX
  5
2332
  8
0
  6
CONTINUOUS
 62
     0
 10
92.781809679806216
 20
98.257735690235364
 30
0.0
  0
VERTEX
  5
2333
  8
0
  6
CONTINUOUS
 62
     0
 10
92.776461517343776
 20
98.261621357710993
 30
0.0
  0
VERTEX
  5
2334
  8
0
  6
CONTINUOUS
 62
     0
 10
92.772785762269706
 20
98.264291950094886
 30
0.0
  0
VERTEX
  5
2335
  8
0
  6
CONTINUOUS
 62
     0
 10
92.768442850392631
 20
98.267447260268952
 30
0.0
  0
VERTEX
  5
2336
  8
0
  6
CONTINUOUS
 62
     0
 10
92.757757968900435
 20
98.275210281079737
 30
0.0
  0
VERTEX
  5
2337
  8
0
  6
CONTINUOUS
 62
     0
 10
92.744412589226684
 20
98.284906266965038
 30
0.0
  0
VERTEX
  5
2338
  8
0
  6
CONTINUOUS
 62
     0
 10
92.728413851084582
 20
98.296530030619721
 30
0.0
  0
VERTEX
  5
2339
  8
0
  6
CONTINUOUS
 62
     0
 10
92.709770313720895
 20
98.310075353386921
 30
0.0
  0
VERTEX
  5
233A
  8
0
  6
CONTINUOUS
 62
     0
 10
92.688491951337284
 20
98.325534988584906
 30
0.0
  0
VERTEX
  5
233B
  8
0
  6
CONTINUOUS
 62
     0
 10
92.676868213305028
 20
98.333980128599762
 30
0.0
  0
VERTEX
  5
233C
  8
0
  6
CONTINUOUS
 62
     0
 10
92.664590147753955
 20
98.342900665384235
 30
0.0
  0
VERTEX
  5
233D
  8
0
  6
CONTINUOUS
 62
     0
 10
92.638077690319179
 20
98.36216309323251
 30
0.0
  0
VERTEX
  5
233E
  8
0
  6
CONTINUOUS
 62
     0
 10
92.608968763068575
 20
98.383311966824692
 30
0.0
  0
VERTEX
  5
233F
  8
0
  6
CONTINUOUS
 62
     0
 10
92.577278939136278
 20
98.406335971616528
 30
0.0
  0
VERTEX
  5
2340
  8
0
  6
CONTINUOUS
 62
     0
 10
92.543025172423555
 20
98.431222789877694
 30
0.0
  0
VERTEX
  5
2341
  8
0
  6
CONTINUOUS
 62
     0
 10
92.506225788528667
 20
98.457959107281695
 30
0.0
  0
VERTEX
  5
2342
  8
0
  6
CONTINUOUS
 62
     0
 10
92.486877589562965
 20
98.472016396670625
 30
0.0
  0
VERTEX
  5
2343
  8
0
  6
CONTINUOUS
 62
     0
 10
92.466900474942605
 20
98.486530620029129
 30
0.0
  0
VERTEX
  5
2344
  8
0
  6
CONTINUOUS
 62
     0
 10
92.425070270516443
 20
98.516922042499885
 30
0.0
  0
VERTEX
  5
2345
  8
0
  6
CONTINUOUS
 62
     0
 10
92.380757554205644
 20
98.54911711543113
 30
0.0
  0
VERTEX
  5
2346
  8
0
  6
CONTINUOUS
 62
     0
 10
92.357677611020094
 20
98.565885675699377
 30
0.0
  0
VERTEX
  5
2347
  8
0
  6
CONTINUOUS
 62
     0
 10
92.333986033097375
 20
98.583098614615764
 30
0.0
  0
VERTEX
  5
2348
  8
0
  6
CONTINUOUS
 62
     0
 10
92.284780729727487
 20
98.618848360117425
 30
0.0
  0
VERTEX
  5
2349
  8
0
  6
CONTINUOUS
 62
     0
 10
92.233167968693394
 20
98.656347225996484
 30
0.0
  0
VERTEX
  5
234A
  8
0
  6
CONTINUOUS
 62
     0
 10
92.206467370569754
 20
98.675746346056485
 30
0.0
  0
VERTEX
  5
234B
  8
0
  6
CONTINUOUS
 62
     0
 10
92.179175362570646
 20
98.695575150542524
 30
0.0
  0
VERTEX
  5
234C
  8
0
  6
CONTINUOUS
 62
     0
 10
92.122831797140265
 20
98.736511147007135
 30
0.0
  0
VERTEX
  5
234D
  8
0
  6
CONTINUOUS
 62
     0
 10
92.064167415935188
 20
98.779133314831711
 30
0.0
  0
VERTEX
  5
234E
  8
0
  6
CONTINUOUS
 62
     0
 10
92.003213604113313
 20
98.823418851364323
 30
0.0
  0
VERTEX
  5
234F
  8
0
  6
CONTINUOUS
 62
     0
 10
91.940002971666928
 20
98.869344064058765
 30
0.0
  0
VERTEX
  5
2350
  8
0
  6
CONTINUOUS
 62
     0
 10
91.874569335976133
 20
98.916884383150133
 30
0.0
  0
VERTEX
  5
2351
  8
0
  6
CONTINUOUS
 62
     0
 10
91.841029785551285
 20
98.941252292903954
 30
0.0
  0
VERTEX
  5
2352
  8
0
  6
CONTINUOUS
 62
     0
 10
91.8069477037171
 20
98.966014374799471
 30
0.0
  0
VERTEX
  5
2353
  8
0
  6
CONTINUOUS
 62
     0
 10
91.737174252133428
 20
99.016707754700732
 30
0.0
  0
VERTEX
  5
2354
  8
0
  6
CONTINUOUS
 62
     0
 10
91.665286309681633
 20
99.068937402142751
 30
0.0
  0
VERTEX
  5
2355
  8
0
  6
CONTINUOUS
 62
     0
 10
91.591322336060472
 20
99.12267537451882
 30
0.0
  0
VERTEX
  5
2356
  8
0
  6
CONTINUOUS
 62
     0
 10
91.515321901635247
 20
99.177892922275618
 30
0.0
  0
VERTEX
  5
2357
  8
0
  6
CONTINUOUS
 62
     0
 10
91.437325666267924
 20
99.234560504294308
 30
0.0
  0
VERTEX
  5
2358
  8
0
  6
CONTINUOUS
 62
     0
 10
91.397592122005534
 20
99.263428613989291
 30
0.0
  0
VERTEX
  5
2359
  8
0
  6
CONTINUOUS
 62
     0
 10
91.357375357564166
 20
99.292647803694734
 30
0.0
  0
VERTEX
  5
235A
  8
0
  6
CONTINUOUS
 62
     0
 10
91.275513748549443
 20
99.352123744054865
 30
0.0
  0
VERTEX
  5
235B
  8
0
  6
CONTINUOUS
 62
     0
 10
91.191784634785463
 20
99.412956506036579
 30
0.0
  0
VERTEX
  5
235C
  8
0
  6
CONTINUOUS
 62
     0
 10
91.106232810940057
 20
99.475113544408714
 30
0.0
  0
VERTEX
  5
235D
  8
0
  6
CONTINUOUS
 62
     0
 10
91.018904046821746
 20
99.538561605458796
 30
0.0
  0
VERTEX
  5
235E
  8
0
  6
CONTINUOUS
 62
     0
 10
90.929845062893733
 20
99.603266744783411
 30
0.0
  0
VERTEX
  5
235F
  8
0
  6
CONTINUOUS
 62
     0
 10
90.884681592449482
 20
99.636079926773533
 30
0.0
  0
VERTEX
  5
2360
  8
0
  6
CONTINUOUS
 62
     0
 10
90.839103505278345
 20
99.669194345448474
 30
0.0
  0
VERTEX
  5
2361
  8
0
  6
CONTINUOUS
 62
     0
 10
90.746727920266466
 20
99.736309136509007
 30
0.0
  0
VERTEX
  5
2362
  8
0
  6
CONTINUOUS
 62
     0
 10
90.652767728345765
 20
99.804575211878941
 30
0.0
  0
VERTEX
  5
2363
  8
0
  6
CONTINUOUS
 62
     0
 10
90.557273197760907
 20
99.873956049540723
 30
0.0
  0
VERTEX
  5
2364
  8
0
  6
CONTINUOUS
 62
     0
 10
90.460295417620245
 20
99.944414531084476
 30
0.0
  0
VERTEX
  5
2365
  8
0
  6
CONTINUOUS
 62
     0
 10
90.361886270563417
 20
100.015912961566
 30
0.0
  0
VERTEX
  5
2366
  8
0
  6
CONTINUOUS
 62
     0
 10
90.312161357925191
 20
100.052040225299
 30
0.0
  0
VERTEX
  5
2367
  8
0
  6
CONTINUOUS
 62
     0
 10
90.262098405004366
 20
100.08841308967349
 30
0.0
  0
VERTEX
  5
2368
  8
0
  6
CONTINUOUS
 62
     0
 10
90.160985206964725
 20
100.16187612819191
 30
0.0
  0
VERTEX
  5
2369
  8
0
  6
CONTINUOUS
 62
     0
 10
90.058600771512516
 20
100.2362627747538
 30
0.0
  0
VERTEX
  5
236A
  8
0
  6
CONTINUOUS
 62
     0
 10
89.954999873821649
 20
100.3115332328657
 30
0.0
  0
VERTEX
  5
236B
  8
0
  6
CONTINUOUS
 62
     0
 10
89.850237939867355
 20
100.3876472331996
 30
0.0
  0
VERTEX
  5
236C
  8
0
  6
CONTINUOUS
 62
     0
 10
89.744371016773613
 20
100.46456405513629
 30
0.0
  0
VERTEX
  5
236D
  8
0
  6
CONTINUOUS
 62
     0
 10
89.691040861498465
 20
100.5033106809688
 30
0.0
  0
VERTEX
  5
236E
  8
0
  6
CONTINUOUS
 62
     0
 10
89.637455742828166
 20
100.542242548551
 30
0.0
  0
VERTEX
  5
236F
  8
0
  6
CONTINUOUS
 62
     0
 10
89.529549317181392
 20
100.62064115582839
 30
0.0
  0
VERTEX
  5
2370
  8
0
  6
CONTINUOUS
 62
     0
 10
89.420709469245054
 20
100.6997179340958
 30
0.0
  0
VERTEX
  5
2371
  8
0
  6
CONTINUOUS
 62
     0
 10
89.365957689757664
 20
100.7394974303774
 30
0.0
  0
VERTEX
  5
2372
  8
0
  6
CONTINUOUS
 62
     0
 10
89.310994427807117
 20
100.7794305776623
 30
0.0
  0
VERTEX
  5
2373
  8
0
  6
CONTINUOUS
 62
     0
 10
89.200462889880015
 20
100.8597364406522
 30
0.0
  0
VERTEX
  5
2374
  8
0
  6
CONTINUOUS
 62
     0
 10
89.089173989297677
 20
100.9405925598202
 30
0.0
  0
VERTEX
  5
2375
  8
0
  6
CONTINUOUS
 62
     0
 10
89.033264118996357
 20
100.98121345832941
 30
0.0
  0
VERTEX
  5
2376
  8
0
  6
CONTINUOUS
 62
     0
 10
88.977187265079436
 20
101.02195567753679
 30
0.0
  0
VERTEX
  5
2377
  8
0
  6
CONTINUOUS
 62
     0
 10
88.864562629576795
 20
101.1037822649305
 30
0.0
  0
VERTEX
  5
2378
  8
0
  6
CONTINUOUS
 62
     0
 10
88.751360336420774
 20
101.1860285451761
 30
0.0
  0
VERTEX
  5
2379
  8
0
  6
CONTINUOUS
 62
     0
 10
88.637640948286375
 20
101.26865051691451
 30
0.0
  0
VERTEX
  5
237A
  8
0
  6
CONTINUOUS
 62
     0
 10
88.52346530449185
 20
101.3516039777937
 30
0.0
  0
VERTEX
  5
237B
  8
0
  6
CONTINUOUS
 62
     0
 10
88.408894488450088
 20
101.4348445481163
 30
0.0
  0
VERTEX
  5
237C
  8
0
  6
CONTINUOUS
 62
     0
 10
88.351480038107837
 20
101.476558588012
 30
0.0
  0
VERTEX
  5
237D
  8
0
  6
CONTINUOUS
 62
     0
 10
88.29398979498913
 20
101.51832769458311
 30
0.0
  0
VERTEX
  5
237E
  8
0
  6
CONTINUOUS
 62
     0
 10
88.178812697559891
 20
101.60200875411761
 30
0.0
  0
VERTEX
  5
237F
  8
0
  6
CONTINUOUS
 62
     0
 10
88.063424815348029
 20
101.685842957761
 30
0.0
  0
VERTEX
  5
2380
  8
0
  6
CONTINUOUS
 62
     0
 10
87.947887880308002
 20
101.769785454623
 30
0.0
  0
VERTEX
  5
2381
  8
0
  6
CONTINUOUS
 62
     0
 10
87.832263704136864
 20
101.85379133587691
 30
0.0
  0
VERTEX
  5
2382
  8
0
  6
CONTINUOUS
 62
     0
 10
87.716614145205213
 20
101.93781565878579
 30
0.0
  0
VERTEX
  5
2383
  8
0
  6
CONTINUOUS
 62
     0
 10
87.658799182563342
 20
101.9798206879002
 30
0.0
  0
VERTEX
  5
2384
  8
0
  6
CONTINUOUS
 62
     0
 10
87.601001075463344
 20
102.02181347074649
 30
0.0
  0
VERTEX
  5
2385
  8
0
  6
CONTINUOUS
 62
     0
 10
87.485486347339958
 20
102.1057398333392
 30
0.0
  0
VERTEX
  5
2386
  8
0
  6
CONTINUOUS
 62
     0
 10
87.370131760651446
 20
102.18954984636881
 30
0.0
  0
VERTEX
  5
2387
  8
0
  6
CONTINUOUS
 62
     0
 10
87.254999029539448
 20
102.2731986718871
 30
0.0
  0
VERTEX
  5
2388
  8
0
  6
CONTINUOUS
 62
     0
 10
87.140149749453798
 20
102.3566415581801
 30
0.0
  0
VERTEX
  5
2389
  8
0
  6
CONTINUOUS
 62
     0
 10
87.025645364199505
 20
102.4398338637105
 30
0.0
  0
VERTEX
  5
238A
  8
0
  6
CONTINUOUS
 62
     0
 10
86.968541658766199
 20
102.48132213421449
 30
0.0
  0
VERTEX
  5
238B
  8
0
  6
CONTINUOUS
 62
     0
 10
86.911547133064545
 20
102.5227310810002
 30
0.0
  0
VERTEX
  5
238C
  8
0
  6
CONTINUOUS
 62
     0
 10
86.797916098046272
 20
102.6052888604423
 30
0.0
  0
VERTEX
  5
238D
  8
0
  6
CONTINUOUS
 62
     0
 10
86.684813051194539
 20
102.687463034027
 30
0.0
  0
VERTEX
  5
238E
  8
0
  6
CONTINUOUS
 62
     0
 10
86.572298502088103
 20
102.7692096389722
 30
0.0
  0
VERTEX
  5
238F
  8
0
  6
CONTINUOUS
 62
     0
 10
86.460432645462248
 20
102.8504849412427
 30
0.0
  0
VERTEX
  5
2390
  8
0
  6
CONTINUOUS
 62
     0
 10
86.349275329004897
 20
102.9312454589479
 30
0.0
  0
VERTEX
  5
2391
  8
0
  6
CONTINUOUS
 62
     0
 10
86.293980972962544
 20
102.97141916017129
 30
0.0
  0
VERTEX
  5
2392
  8
0
  6
CONTINUOUS
 62
     0
 10
86.238886021338445
 20
103.0114479856046
 30
0.0
  0
VERTEX
  5
2393
  8
0
  6
CONTINUOUS
 62
     0
 10
86.129323780204487
 20
103.091049613252
 30
0.0
  0
VERTEX
  5
2394
  8
0
  6
CONTINUOUS
 62
     0
 10
86.020647220867914
 20
103.1700077554073
 30
0.0
  0
VERTEX
  5
2395
  8
0
  6
CONTINUOUS
 62
     0
 10
85.912914484758133
 20
103.24828016984939
 30
0.0
  0
VERTEX
  5
2396
  8
0
  6
CONTINUOUS
 62
     0
 10
85.806183208363876
 20
103.3258249812182
 30
0.0
  0
VERTEX
  5
2397
  8
0
  6
CONTINUOUS
 62
     0
 10
85.700510492397626
 20
103.40260070341751
 30
0.0
  0
VERTEX
  5
2398
  8
0
  6
CONTINUOUS
 62
     0
 10
85.648088784522514
 20
103.4406873035794
 30
0.0
  0
VERTEX
  5
2399
  8
0
  6
CONTINUOUS
 62
     0
 10
85.595952871247405
 20
103.4785662618102
 30
0.0
  0
VERTEX
  5
239A
  8
0
  6
CONTINUOUS
 62
     0
 10
85.492566282730735
 20
103.55368101519289
 30
0.0
  0
VERTEX
  5
239B
  8
0
  6
CONTINUOUS
 62
     0
 10
85.390406038168564
 20
103.6279047775388
 30
0.0
  0
VERTEX
  5
239C
  8
0
  6
CONTINUOUS
 62
     0
 10
85.339802901061134
 20
103.6646701086979
 30
0.0
  0
VERTEX
  5
239D
  8
0
  6
CONTINUOUS
 62
     0
 10
85.289526792793694
 20
103.7011978394967
 30
0.0
  0
VERTEX
  5
239E
  8
0
  6
CONTINUOUS
 62
     0
 10
85.189982516510582
 20
103.7735209896359
 30
0.0
  0
VERTEX
  5
239F
  8
0
  6
CONTINUOUS
 62
     0
 10
85.09182646502191
 20
103.8448355354235
 30
0.0
  0
VERTEX
  5
23A0
  8
0
  6
CONTINUOUS
 62
     0
 10
85.043285463673186
 20
103.88010263725531
 30
0.0
  0
VERTEX
  5
23A1
  8
0
  6
CONTINUOUS
 62
     0
 10
84.995111151336602
 20
103.91510332392529
 30
0.0
  0
VERTEX
  5
23A2
  8
0
  6
CONTINUOUS
 62
     0
 10
84.899888317676087
 20
103.9842867622168
 30
0.0
  0
VERTEX
  5
23A3
  8
0
  6
CONTINUOUS
 62
     0
 10
84.806208907792239
 20
104.0523488374959
 30
0.0
  0
VERTEX
  5
23A4
  8
0
  6
CONTINUOUS
 62
     0
 10
84.714123039712518
 20
104.1192531368841
 30
0.0
  0
VERTEX
  5
23A5
  8
0
  6
CONTINUOUS
 62
     0
 10
84.62367997892764
 20
104.1849638669073
 30
0.0
  0
VERTEX
  5
23A6
  8
0
  6
CONTINUOUS
 62
     0
 10
84.534928112034066
 20
104.2494458726453
 30
0.0
  0
VERTEX
  5
23A7
  8
0
  6
CONTINUOUS
 62
     0
 10
84.491201250405055
 20
104.28121529723499
 30
0.0
  0
VERTEX
  5
23A8
  8
0
  6
CONTINUOUS
 62
     0
 10
84.447914920848035
 20
104.3126646565394
 30
0.0
  0
VERTEX
  5
23A9
  8
0
  6
CONTINUOUS
 62
     0
 10
84.362686957002694
 20
104.3745863968484
 30
0.0
  0
VERTEX
  5
23AA
  8
0
  6
CONTINUOUS
 62
     0
 10
84.279289817043122
 20
104.43517796574299
 30
0.0
  0
VERTEX
  5
23AB
  8
0
  6
CONTINUOUS
 62
     0
 10
84.197768118032727
 20
104.4944069470294
 30
0.0
  0
VERTEX
  5
23AC
  8
0
  6
CONTINUOUS
 62
     0
 10
84.118165473683078
 20
104.55224165349109
 30
0.0
  0
VERTEX
  5
23AD
  8
0
  6
CONTINUOUS
 62
     0
 10
84.040524471020859
 20
104.6086511438421
 30
0.0
  0
VERTEX
  5
23AE
  8
0
  6
CONTINUOUS
 62
     0
 10
84.00245260741579
 20
104.63631197187161
 30
0.0
  0
VERTEX
  5
23AF
  8
0
  6
CONTINUOUS
 62
     0
 10
83.964886647604004
 20
104.6636052392802
 30
0.0
  0
VERTEX
  5
23B0
  8
0
  6
CONTINUOUS
 62
     0
 10
83.891292469299316
 20
104.71707453963219
 30
0.0
  0
VERTEX
  5
23B1
  8
0
  6
CONTINUOUS
 62
     0
 10
83.819781308633452
 20
104.769030439083
 30
0.0
  0
VERTEX
  5
23B2
  8
0
  6
CONTINUOUS
 62
     0
 10
83.784818859673493
 20
104.7944321451356
 30
0.0
  0
SEQEND
  5
23B3
  8
0
  6
CONTINUOUS
 62
     0
  0
LINE
  5
1BB2
  8
0
  6
CONTINUOUS
 62
     0
 10
82.784818859673436
 20
94.794432145135644
 30
0.0
 11
92.784818859673507
 21
94.794432145135644
 31
0.0
  0
LINE
  5
1BB3
  8
0
  6
CONTINUOUS
 62
     0
 10
82.784818859673507
 20
75.714432145135646
 30
0.0
 11
92.784818859673507
 21
75.714432145135646
 31
0.0
  0
LINE
  5
1BB4
  8
0
  6
CONTINUOUS
 62
     0
 10
83.704818859673495
 20
74.79443214513563
 30
0.0
 11
91.864818859673477
 21
74.79443214513563
 31
0.0
  0
LINE
  5
1BBA
  8
0
  6
CONTINUOUS
 62
     0
 10
82.784818859673507
 20
84.794432145135644
 30
0.0
 11
82.784818859673507
 21
75.714432145135646
 31
0.0
  0
LINE
  5
1BBC
  8
0
  6
CONTINUOUS
 62
     0
 10
82.784818859673507
 20
104.2944321451356
 30
0.0
 11
82.784818859673507
 21
89.794432145135644
 31
0.0
  0
LINE
  5
1BBD
  8
0
  6
CONTINUOUS
 62
     0
 10
92.784818859673507
 20
89.794432145135644
 30
0.0
 11
92.784818859673507
 21
98.255549393087364
 31
0.0
  0
LINE
  5
1BBF
  8
0
  6
CONTINUOUS
 62
     0
 10
92.784818859673507
 20
75.714432145135646
 30
0.0
 11
92.784818859673507
 21
84.794432145135644
 31
0.0
  0
LINE
  5
1BC0
  8
0
  6
CONTINUOUS
 62
     0
 10
82.784818859673507
 20
75.714432145135646
 30
0.0
 11
83.704818859673495
 21
74.79443214513563
 31
0.0
  0
LINE
  5
1BC1
  8
0
  6
CONTINUOUS
 62
     0
 10
91.864818859673477
 20
74.79443214513563
 30
0.0
 11
92.784818859673507
 21
75.714432145135646
 31
0.0
  0
LINE
  5
1BC6
  8
0
  6
CONTINUOUS
 62
     0
 10
107.78481885967351
 20
98.29443214513563
 30
0.0
 11
101.78481885967351
 21
98.29443214513563
 31
0.0
  0
ARC
  5
1BC7
  8
0
  6
CONTINUOUS
 62
     0
 10
107.78481885967351
 20
101.2944321451356
 30
0.0
 40
3.0
 50
270.0
 51
90.0
  0
LINE
  5
1BC8
  8
0
  6
CONTINUOUS
 62
     0
 10
101.78481885967351
 20
104.2944321451356
 30
0.0
 11
107.78481885967351
 21
104.2944321451356
 31
0.0
  0
ARC
  5
1BC9
  8
0
  6
CONTINUOUS
 62
     0
 10
101.78481885967351
 20
101.2944321451356
 30
0.0
 40
3.0
 50
90.0
 51
270.0
  0
LINE
  5
1BCA
  8
0
  6
CONTINUOUS
 62
     0
 10
91.212646159874026
 20
99.396215890042896
 30
0.0
 11
91.212646159874026
 21
105.7944321451356
 31
0.0
  0
LINE
  5
1BCC
  8
0
  6
CONTINUOUS
 62
     0
 10
92.73641322015564
 20
98.290718148792394
 30
0.0
 11
96.784818859673507
 21
98.29443214513563
 31
0.0
  0
LINE
  5
1BCD
  8
0
  6
CONTINUOUS
 62
     0
 10
96.784818859673507
 20
98.29443214513563
 30
0.0
 11
99.384818859673516
 21
96.79443214513563
 31
0.0
  0
LINE
  5
1BCE
  8
0
  6
CONTINUOUS
 62
     0
 10
99.384818859673516
 20
96.79443214513563
 30
0.0
 11
108.28481885967351
 21
96.79443214513563
 31
0.0
  0
ARC
  5
1BCF
  8
0
  6
CONTINUOUS
 62
     0
 10
108.28481885967351
 20
101.2944321451356
 30
0.0
 40
4.5
 50
270.0
 51
90.0
  0
LINE
  5
1BD1
  8
0
  6
CONTINUOUS
 62
     0
 10
86.362169128863144
 20
68.794432145134564
 30
0.0
 11
89.207468590483828
 21
68.794432145136682
 31
0.0
  0
LINE
  5
1BD2
  8
0
  6
CONTINUOUS
 62
     0
 10
85.784818859673493
 20
69.794432145134152
 30
0.0
 11
89.784818859673493
 21
69.794432145137094
 31
0.0
  0
LINE
  5
1BD4
  8
0
  6
CONTINUOUS
 62
     0
 10
91.212646159874026
 20
105.7944321451328
 30
0.0
 11
108.28481885967351
 21
105.7944321451356
 31
0.0
  0
LINE
  5
1BD5
  8
0
  6
CONTINUOUS
 62
     0
 10
85.784818859673493
 20
69.79443214513563
 30
0.0
 11
86.362169128863144
 21
68.79443214513563
 31
0.0
  0
LINE
  5
1BD6
  8
0
  6
CONTINUOUS
 62
     0
 10
89.207468590483828
 20
68.79443214513563
 30
0.0
 11
89.784818859673493
 21
69.79443214513563
 31
0.0
  0
LINE
  5
1BD7
  8
0
  6
CONTINUOUS
 62
     0
 10
85.784818859673493
 20
74.79443214513563
 30
0.0
 11
85.784818859673493
 21
69.79443214513563
 31
0.0
  0
LINE
  5
1BD8
  8
0
  6
CONTINUOUS
 62
     0
 10
89.784818859673493
 20
69.79443214513563
 30
0.0
 11
89.784818859673493
 21
74.79443214513563
 31
0.0
  0
LINE
  5
1BDE
  8
0
  6
CONTINUOUS
 62
     0
 10
84.043161472899527
 20
105.7944321451356
 30
0.0
 11
84.043161472899527
 21
104.6088688847499
 31
0.0
  0
ARC
  5
1BDF
  8
0
  6
CONTINUOUS
 62
     0
 10
87.784818859673507
 20
99.294432145135616
 30
0.0
 40
7.5000000000000284
 50
60.073565133385252
 51
119.9264348666147
  0
LINE
  5
1BE0
  8
1
 10
87.78481885967355
 20
65.794432145135644
 30
0.0
 11
87.784818859673507
 21
109.7944321451356
 31
0.0
  0
POLYLINE
  5
1BE3
  8
0
  6
CONTINUOUS
 62
     0
 66
     1
 10
0.0
 20
0.0
 30
0.0
  0
VERTEX
  5
23B4
  8
0
  6
CONTINUOUS
 62
     0
 10
82.877341571561686
 20
89.03524276658078
 30
0.0
  0
VERTEX
  5
23B5
  8
0
  6
CONTINUOUS
 62
     0
 10
83.024128899842054
 20
89.077137766959126
 30
0.0
  0
VERTEX
  5
23B6
  8
0
  6
CONTINUOUS
 62
     0
 10
83.314375670093199
 20
89.157096171851265
 30
0.0
  0
VERTEX
  5
23B7
  8
0
  6
CONTINUOUS
 62
     0
 10
83.60051615338088
 20
89.232040783456796
 30
0.0
  0
VERTEX
  5
23B8
  8
0
  6
CONTINUOUS
 62
     0
 10
83.742167918813465
 20
89.267665338937235
 30
0.0
  0
VERTEX
  5
23B9
  8
0
  6
CONTINUOUS
 62
     0
 10
83.882937481827554
 20
89.302073686153506
 30
0.0
  0
VERTEX
  5
23BA
  8
0
  6
CONTINUOUS
 62
     0
 10
84.162016992643856
 20
89.367283755415457
 30
0.0
  0
VERTEX
  5
23BB
  8
0
  6
CONTINUOUS
 62
     0
 10
84.438123911093797
 20
89.427747032801022
 30
0.0
  0
VERTEX
  5
23BC
  8
0
  6
CONTINUOUS
 62
     0
 10
84.711620984727602
 20
89.483527015340186
 30
0.0
  0
VERTEX
  5
23BD
  8
0
  6
CONTINUOUS
 62
     0
 10
84.982866084135679
 20
89.534674861565861
 30
0.0
  0
VERTEX
  5
23BE
  8
0
  6
CONTINUOUS
 62
     0
 10
85.25221378518367
 20
89.581229515393716
 30
0.0
  0
VERTEX
  5
23BF
  8
0
  6
CONTINUOUS
 62
     0
 10
85.386286403700538
 20
89.602793237200814
 30
0.0
  0
VERTEX
  5
23C0
  8
0
  6
CONTINUOUS
 62
     0
 10
85.520016947635597
 20
89.623217748020807
 30
0.0
  0
VERTEX
  5
23C1
  8
0
  6
CONTINUOUS
 62
     0
 10
85.786628305263534
 20
89.660654116968445
 30
0.0
  0
VERTEX
  5
23C2
  8
0
  6
CONTINUOUS
 62
     0
 10
86.052402082989403
 20
89.693540840311016
 30
0.0
  0
VERTEX
  5
23C3
  8
0
  6
CONTINUOUS
 62
     0
 10
86.317695657316818
 20
89.721867582991777
 30
0.0
  0
VERTEX
  5
23C4
  8
0
  6
CONTINUOUS
 62
     0
 10
86.582871277317992
 20
89.745611150902377
 30
0.0
  0
VERTEX
  5
23C5
  8
0
  6
CONTINUOUS
 62
     0
 10
86.848297864769947
 20
89.764735087062007
 30
0.0
  0
VERTEX
  5
23C6
  8
0
  6
CONTINUOUS
 62
     0
 10
86.981222848992871
 20
89.772549550923912
 30
0.0
  0
VERTEX
  5
23C7
  8
0
  6
CONTINUOUS
 62
     0
 10
87.114352913725469
 20
89.779189162750768
 30
0.0
  0
VERTEX
  5
23C8
  8
0
  6
CONTINUOUS
 62
     0
 10
87.38142451191365
 20
89.788908754782057
 30
0.0
  0
VERTEX
  5
23C9
  8
0
  6
CONTINUOUS
 62
     0
 10
87.649913508952608
 20
89.793814098203043
 30
0.0
  0
VERTEX
  5
23CA
  8
0
  6
CONTINUOUS
 62
     0
 10
87.784818859673507
 20
89.794432145135644
 30
0.0
  0
SEQEND
  5
23CB
  8
0
  6
CONTINUOUS
 62
     0
  0
LINE
  5
1BE4
  8
0
  6
CONTINUOUS
 62
     0
 10
82.877341571561686
 20
85.553621523690467
 30
0.0
 11
82.877341571561686
 21
89.03524276658078
 31
0.0
  0
POLYLINE
  5
1BE5
  8
0
  6
CONTINUOUS
 62
     0
 66
     1
 10
0.0
 20
0.0
 30
0.0
  0
VERTEX
  5
23CC
  8
0
  6
CONTINUOUS
 62
     0
 10
87.784818859673507
 20
84.794432145135644
 30
0.0
  0
VERTEX
  5
23CD
  8
0
  6
CONTINUOUS
 62
     0
 10
87.649913508952608
 20
84.795050192068203
 30
0.0
  0
VERTEX
  5
23CE
  8
0
  6
CONTINUOUS
 62
     0
 10
87.38142451191365
 20
84.799955535489204
 30
0.0
  0
VERTEX
  5
23CF
  8
0
  6
CONTINUOUS
 62
     0
 10
87.114352913725469
 20
84.809675127520478
 30
0.0
  0
VERTEX
  5
23D0
  8
0
  6
CONTINUOUS
 62
     0
 10
86.981222848992815
 20
84.816314739347348
 30
0.0
  0
VERTEX
  5
23D1
  8
0
  6
CONTINUOUS
 62
     0
 10
86.848297864769947
 20
84.824129203209253
 30
0.0
  0
VERTEX
  5
23D2
  8
0
  6
CONTINUOUS
 62
     0
 10
86.582871277317992
 20
84.843253139368898
 30
0.0
  0
VERTEX
  5
23D3
  8
0
  6
CONTINUOUS
 62
     0
 10
86.317695657316818
 20
84.866996707279469
 30
0.0
  0
VERTEX
  5
23D4
  8
0
  6
CONTINUOUS
 62
     0
 10
86.052402082989403
 20
84.895323449960244
 30
0.0
  0
VERTEX
  5
23D5
  8
0
  6
CONTINUOUS
 62
     0
 10
85.786628305263534
 20
84.928210173302801
 30
0.0
  0
VERTEX
  5
23D6
  8
0
  6
CONTINUOUS
 62
     0
 10
85.520016947635597
 20
84.965646542250454
 30
0.0
  0
VERTEX
  5
23D7
  8
0
  6
CONTINUOUS
 62
     0
 10
85.386286403700538
 20
84.986071053070447
 30
0.0
  0
VERTEX
  5
23D8
  8
0
  6
CONTINUOUS
 62
     0
 10
85.25221378518367
 20
85.007634774877545
 30
0.0
  0
VERTEX
  5
23D9
  8
0
  6
CONTINUOUS
 62
     0
 10
84.982866084135679
 20
85.054189428705385
 30
0.0
  0
VERTEX
  5
23DA
  8
0
  6
CONTINUOUS
 62
     0
 10
84.711620984727602
 20
85.105337274931088
 30
0.0
  0
VERTEX
  5
23DB
  8
0
  6
CONTINUOUS
 62
     0
 10
84.438123911093797
 20
85.161117257470224
 30
0.0
  0
VERTEX
  5
23DC
  8
0
  6
CONTINUOUS
 62
     0
 10
84.162016992643856
 20
85.221580534855804
 30
0.0
  0
VERTEX
  5
23DD
  8
0
  6
CONTINUOUS
 62
     0
 10
83.882937481827554
 20
85.286790604117755
 30
0.0
  0
VERTEX
  5
23DE
  8
0
  6
CONTINUOUS
 62
     0
 10
83.742167918813465
 20
85.321198951334026
 30
0.0
  0
VERTEX
  5
23DF
  8
0
  6
CONTINUOUS
 62
     0
 10
83.60051615338088
 20
85.356823506814465
 30
0.0
  0
VERTEX
  5
23E0
  8
0
  6
CONTINUOUS
 62
     0
 10
83.314375670093199
 20
85.431768118419996
 30
0.0
  0
VERTEX
  5
23E1
  8
0
  6
CONTINUOUS
 62
     0
 10
83.024128899842054
 20
85.511726523312149
 30
0.0
  0
VERTEX
  5
23E2
  8
0
  6
CONTINUOUS
 62
     0
 10
82.877341571561686
 20
85.553621523690467
 30
0.0
  0
SEQEND
  5
23E3
  8
0
  6
CONTINUOUS
 62
     0
  0
POLYLINE
  5
1BE6
  8
0
  6
CONTINUOUS
 62
     0
 66
     1
 10
0.0
 20
0.0
 30
0.0
  0
VERTEX
  5
23E4
  8
0
  6
CONTINUOUS
 62
     0
 10
92.692296147785285
 20
85.553621523690467
 30
0.0
  0
VERTEX
  5
23E5
  8
0
  6
CONTINUOUS
 62
     0
 10
92.545508819504931
 20
85.511726523312149
 30
0.0
  0
VERTEX
  5
23E6
  8
0
  6
CONTINUOUS
 62
     0
 10
92.255262049253787
 20
85.431768118419996
 30
0.0
  0
VERTEX
  5
23E7
  8
0
  6
CONTINUOUS
 62
     0
 10
91.969121565966105
 20
85.356823506814465
 30
0.0
  0
VERTEX
  5
23E8
  8
0
  6
CONTINUOUS
 62
     0
 10
91.827469800533521
 20
85.321198951334026
 30
0.0
  0
VERTEX
  5
23E9
  8
0
  6
CONTINUOUS
 62
     0
 10
91.686700237519432
 20
85.286790604117755
 30
0.0
  0
VERTEX
  5
23EA
  8
0
  6
CONTINUOUS
 62
     0
 10
91.407620726703115
 20
85.221580534855804
 30
0.0
  0
VERTEX
  5
23EB
  8
0
  6
CONTINUOUS
 62
     0
 10
91.131513808253175
 20
85.161117257470224
 30
0.0
  0
VERTEX
  5
23EC
  8
0
  6
CONTINUOUS
 62
     0
 10
90.858016734619383
 20
85.105337274931088
 30
0.0
  0
VERTEX
  5
23ED
  8
0
  6
CONTINUOUS
 62
     0
 10
90.586771635211306
 20
85.054189428705385
 30
0.0
  0
VERTEX
  5
23EE
  8
0
  6
CONTINUOUS
 62
     0
 10
90.317423934163315
 20
85.007634774877545
 30
0.0
  0
VERTEX
  5
23EF
  8
0
  6
CONTINUOUS
 62
     0
 10
90.183351315646433
 20
84.986071053070447
 30
0.0
  0
VERTEX
  5
23F0
  8
0
  6
CONTINUOUS
 62
     0
 10
90.049620771711403
 20
84.965646542250454
 30
0.0
  0
VERTEX
  5
23F1
  8
0
  6
CONTINUOUS
 62
     0
 10
89.783009414083466
 20
84.928210173302801
 30
0.0
  0
VERTEX
  5
23F2
  8
0
  6
CONTINUOUS
 62
     0
 10
89.517235636357569
 20
84.895323449960244
 30
0.0
  0
VERTEX
  5
23F3
  8
0
  6
CONTINUOUS
 62
     0
 10
89.251942062030153
 20
84.866996707279469
 30
0.0
  0
VERTEX
  5
23F4
  8
0
  6
CONTINUOUS
 62
     0
 10
88.986766442028994
 20
84.843253139368898
 30
0.0
  0
VERTEX
  5
23F5
  8
0
  6
CONTINUOUS
 62
     0
 10
88.721339854577053
 20
84.824129203209253
 30
0.0
  0
VERTEX
  5
23F6
  8
0
  6
CONTINUOUS
 62
     0
 10
88.588414870354114
 20
84.816314739347348
 30
0.0
  0
VERTEX
  5
23F7
  8
0
  6
CONTINUOUS
 62
     0
 10
88.455284805621517
 20
84.809675127520478
 30
0.0
  0
VERTEX
  5
23F8
  8
0
  6
CONTINUOUS
 62
     0
 10
88.188213207433336
 20
84.799955535489204
 30
0.0
  0
VERTEX
  5
23F9
  8
0
  6
CONTINUOUS
 62
     0
 10
87.919724210394364
 20
84.795050192068203
 30
0.0
  0
VERTEX
  5
23FA
  8
0
  6
CONTINUOUS
 62
     0
 10
87.784818859673507
 20
84.794432145135644
 30
0.0
  0
SEQEND
  5
23FB
  8
0
  6
CONTINUOUS
 62
     0
  0
LINE
  5
1BE7
  8
0
  6
CONTINUOUS
 62
     0
 10
92.692296147785285
 20
85.553621523690467
 30
0.0
 11
92.692296147785285
 21
89.03524276658078
 31
0.0
  0
POLYLINE
  5
1BE8
  8
0
  6
CONTINUOUS
 62
     0
 66
     1
 10
0.0
 20
0.0
 30
0.0
  0
VERTEX
  5
23FC
  8
0
  6
CONTINUOUS
 62
     0
 10
87.784818859673507
 20
89.794432145135644
 30
0.0
  0
VERTEX
  5
23FD
  8
0
  6
CONTINUOUS
 62
     0
 10
87.919724210394364
 20
89.793814098203043
 30
0.0
  0
VERTEX
  5
23FE
  8
0
  6
CONTINUOUS
 62
     0
 10
88.188213207433336
 20
89.788908754782057
 30
0.0
  0
VERTEX
  5
23FF
  8
0
  6
CONTINUOUS
 62
     0
 10
88.455284805621517
 20
89.779189162750768
 30
0.0
  0
VERTEX
  5
2400
  8
0
  6
CONTINUOUS
 62
     0
 10
88.588414870354114
 20
89.772549550923912
 30
0.0
  0
VERTEX
  5
2401
  8
0
  6
CONTINUOUS
 62
     0
 10
88.721339854577053
 20
89.764735087062007
 30
0.0
  0
VERTEX
  5
2402
  8
0
  6
CONTINUOUS
 62
     0
 10
88.986766442028994
 20
89.745611150902377
 30
0.0
  0
VERTEX
  5
2403
  8
0
  6
CONTINUOUS
 62
     0
 10
89.251942062030153
 20
89.721867582991777
 30
0.0
  0
VERTEX
  5
2404
  8
0
  6
CONTINUOUS
 62
     0
 10
89.517235636357569
 20
89.693540840311016
 30
0.0
  0
VERTEX
  5
2405
  8
0
  6
CONTINUOUS
 62
     0
 10
89.783009414083466
 20
89.660654116968445
 30
0.0
  0
VERTEX
  5
2406
  8
0
  6
CONTINUOUS
 62
     0
 10
90.049620771711403
 20
89.623217748020807
 30
0.0
  0
VERTEX
  5
2407
  8
0
  6
CONTINUOUS
 62
     0
 10
90.183351315646433
 20
89.602793237200814
 30
0.0
  0
VERTEX
  5
2408
  8
0
  6
CONTINUOUS
 62
     0
 10
90.317423934163315
 20
89.581229515393716
 30
0.0
  0
VERTEX
  5
2409
  8
0
  6
CONTINUOUS
 62
     0
 10
90.586771635211306
 20
89.534674861565861
 30
0.0
  0
VERTEX
  5
240A
  8
0
  6
CONTINUOUS
 62
     0
 10
90.858016734619383
 20
89.483527015340186
 30
0.0
  0
VERTEX
  5
240B
  8
0
  6
CONTINUOUS
 62
     0
 10
91.131513808253175
 20
89.427747032801022
 30
0.0
  0
VERTEX
  5
240C
  8
0
  6
CONTINUOUS
 62
     0
 10
91.407620726703115
 20
89.367283755415457
 30
0.0
  0
VERTEX
  5
240D
  8
0
  6
CONTINUOUS
 62
     0
 10
91.686700237519432
 20
89.302073686153506
 30
0.0
  0
VERTEX
  5
240E
  8
0
  6
CONTINUOUS
 62
     0
 10
91.827469800533521
 20
89.267665338937235
 30
0.0
  0
VERTEX
  5
240F
  8
0
  6
CONTINUOUS
 62
     0
 10
91.969121565966105
 20
89.232040783456796
 30
0.0
  0
VERTEX
  5
2410
  8
0
  6
CONTINUOUS
 62
     0
 10
92.255262049253787
 20
89.157096171851265
 30
0.0
  0
VERTEX
  5
2411
  8
0
  6
CONTINUOUS
 62
     0
 10
92.545508819504931
 20
89.077137766959126
 30
0.0
  0
VERTEX
  5
2412
  8
0
  6
CONTINUOUS
 62
     0
 10
92.692296147785285
 20
89.03524276658078
 30
0.0
  0
SEQEND
  5
2413
  8
0
  6
CONTINUOUS
 62
     0
  0
POLYLINE
  5
1BE9
  8
0
  6
CONTINUOUS
 62
     0
 66
     1
 10
0.0
 20
0.0
 30
0.0
  0
VERTEX
  5
2414
  8
0
  6
CONTINUOUS
 62
     0
 10
97.599773435897106
 20
89.03524276658078
 30
0.0
  0
VERTEX
  5
2415
  8
0
  6
CONTINUOUS
 62
     0
 10
97.52637977175695
 20
89.077137766959126
 30
0.0
  0
VERTEX
  5
2416
  8
0
  6
CONTINUOUS
 62
     0
 10
97.381256386631335
 20
89.157096171851265
 30
0.0
  0
VERTEX
  5
2417
  8
0
  6
CONTINUOUS
 62
     0
 10
97.238186144987509
 20
89.232040783456796
 30
0.0
  0
VERTEX
  5
2418
  8
0
  6
CONTINUOUS
 62
     0
 10
97.167360262271217
 20
89.267665338937235
 30
0.0
  0
VERTEX
  5
2419
  8
0
  6
CONTINUOUS
 62
     0
 10
97.0969754807642
 20
89.302073686153506
 30
0.0
  0
VERTEX
  5
241A
  8
0
  6
CONTINUOUS
 62
     0
 10
96.957435725356035
 20
89.367283755415457
 30
0.0
  0
VERTEX
  5
241B
  8
0
  6
CONTINUOUS
 62
     0
 10
96.819382266131043
 20
89.427747032801022
 30
0.0
  0
VERTEX
  5
241C
  8
0
  6
CONTINUOUS
 62
     0
 10
96.682633729314176
 20
89.483527015340186
 30
0.0
  0
VERTEX
  5
241D
  8
0
  6
CONTINUOUS
 62
     0
 10
96.547011179610095
 20
89.534674861565861
 30
0.0
  0
VERTEX
  5
241E
  8
0
  6
CONTINUOUS
 62
     0
 10
96.412337329086114
 20
89.581229515393716
 30
0.0
  0
VERTEX
  5
241F
  8
0
  6
CONTINUOUS
 62
     0
 10
96.345301019827701
 20
89.602793237200814
 30
0.0
  0
VERTEX
  5
2420
  8
0
  6
CONTINUOUS
 62
     0
 10
96.2784357478602
 20
89.623217748020807
 30
0.0
  0
VERTEX
  5
2421
  8
0
  6
CONTINUOUS
 62
     0
 10
96.145130069046189
 20
89.660654116968445
 30
0.0
  0
VERTEX
  5
2422
  8
0
  6
CONTINUOUS
 62
     0
 10
96.012243180183276
 20
89.693540840311016
 30
0.0
  0
VERTEX
  5
2423
  8
0
  6
CONTINUOUS
 62
     0
 10
95.879596393019554
 20
89.721867582991777
 30
0.0
  0
VERTEX
  5
2424
  8
0
  6
CONTINUOUS
 62
     0
 10
95.747008583018982
 20
89.745611150902377
 30
0.0
  0
VERTEX
  5
2425
  8
0
  6
CONTINUOUS
 62
     0
 10
95.61429528929304
 20
89.764735087062007
 30
0.0
  0
VERTEX
  5
2426
  8
0
  6
CONTINUOUS
 62
     0
 10
95.547832797181542
 20
89.772549550923912
 30
0.0
  0
VERTEX
  5
2427
  8
0
  6
CONTINUOUS
 62
     0
 10
95.481267764815215
 20
89.779189162750768
 30
0.0
  0
VERTEX
  5
2428
  8
0
  6
CONTINUOUS
 62
     0
 10
95.347731965721124
 20
89.788908754782057
 30
0.0
  0
VERTEX
  5
2429
  8
0
  6
CONTINUOUS
 62
     0
 10
95.213487467201645
 20
89.793814098203043
 30
0.0
  0
VERTEX
  5
242A
  8
0
  6
CONTINUOUS
 62
     0
 10
95.146034791841217
 20
89.794432145135644
 30
0.0
  0
SEQEND
  5
242B
  8
0
  6
CONTINUOUS
 62
     0
  0
LINE
  5
1BEA
  8
0
  6
CONTINUOUS
 62
     0
 10
97.599773435897106
 20
85.553621523690467
 30
0.0
 11
97.599773435897106
 21
89.03524276658078
 31
0.0
  0
POLYLINE
  5
1BEB
  8
0
  6
CONTINUOUS
 62
     0
 66
     1
 10
0.0
 20
0.0
 30
0.0
  0
VERTEX
  5
242C
  8
0
  6
CONTINUOUS
 62
     0
 10
95.146034791841217
 20
84.794432145135644
 30
0.0
  0
VERTEX
  5
242D
  8
0
  6
CONTINUOUS
 62
     0
 10
95.213487467201645
 20
84.795050192068203
 30
0.0
  0
VERTEX
  5
242E
  8
0
  6
CONTINUOUS
 62
     0
 10
95.347731965721124
 20
84.799955535489204
 30
0.0
  0
VERTEX
  5
242F
  8
0
  6
CONTINUOUS
 62
     0
 10
95.481267764815271
 20
84.809675127520478
 30
0.0
  0
VERTEX
  5
2430
  8
0
  6
CONTINUOUS
 62
     0
 10
95.547832797181542
 20
84.816314739347348
 30
0.0
  0
VERTEX
  5
2431
  8
0
  6
CONTINUOUS
 62
     0
 10
95.614295289292983
 20
84.824129203209253
 30
0.0
  0
VERTEX
  5
2432
  8
0
  6
CONTINUOUS
 62
     0
 10
95.747008583018982
 20
84.843253139368898
 30
0.0
  0
VERTEX
  5
2433
  8
0
  6
CONTINUOUS
 62
     0
 10
95.879596393019554
 20
84.866996707279469
 30
0.0
  0
VERTEX
  5
2434
  8
0
  6
CONTINUOUS
 62
     0
 10
96.012243180183276
 20
84.895323449960244
 30
0.0
  0
VERTEX
  5
2435
  8
0
  6
CONTINUOUS
 62
     0
 10
96.145130069046189
 20
84.928210173302801
 30
0.0
  0
VERTEX
  5
2436
  8
0
  6
CONTINUOUS
 62
     0
 10
96.2784357478602
 20
84.965646542250454
 30
0.0
  0
VERTEX
  5
2437
  8
0
  6
CONTINUOUS
 62
     0
 10
96.345301019827701
 20
84.986071053070447
 30
0.0
  0
VERTEX
  5
2438
  8
0
  6
CONTINUOUS
 62
     0
 10
96.412337329086114
 20
85.007634774877545
 30
0.0
  0
VERTEX
  5
2439
  8
0
  6
CONTINUOUS
 62
     0
 10
96.547011179610095
 20
85.054189428705385
 30
0.0
  0
VERTEX
  5
243A
  8
0
  6
CONTINUOUS
 62
     0
 10
96.682633729314176
 20
85.105337274931088
 30
0.0
  0
VERTEX
  5
243B
  8
0
  6
CONTINUOUS
 62
     0
 10
96.819382266131043
 20
85.161117257470224
 30
0.0
  0
VERTEX
  5
243C
  8
0
  6
CONTINUOUS
 62
     0
 10
96.957435725356035
 20
85.221580534855804
 30
0.0
  0
VERTEX
  5
243D
  8
0
  6
CONTINUOUS
 62
     0
 10
97.0969754807642
 20
85.286790604117755
 30
0.0
  0
VERTEX
  5
243E
  8
0
  6
CONTINUOUS
 62
     0
 10
97.167360262271217
 20
85.321198951334026
 30
0.0
  0
VERTEX
  5
243F
  8
0
  6
CONTINUOUS
 62
     0
 10
97.238186144987509
 20
85.356823506814465
 30
0.0
  0
VERTEX
  5
2440
  8
0
  6
CONTINUOUS
 62
     0
 10
97.381256386631335
 20
85.431768118419996
 30
0.0
  0
VERTEX
  5
2441
  8
0
  6
CONTINUOUS
 62
     0
 10
97.52637977175695
 20
85.511726523312149
 30
0.0
  0
VERTEX
  5
2442
  8
0
  6
CONTINUOUS
 62
     0
 10
97.599773435897106
 20
85.553621523690467
 30
0.0
  0
SEQEND
  5
2443
  8
0
  6
CONTINUOUS
 62
     0
  0
POLYLINE
  5
1BEC
  8
0
  6
CONTINUOUS
 62
     0
 66
     1
 10
0.0
 20
0.0
 30
0.0
  0
VERTEX
  5
2444
  8
0
  6
CONTINUOUS
 62
     0
 10
92.692296147785285
 20
85.553621523690467
 30
0.0
  0
VERTEX
  5
2445
  8
0
  6
CONTINUOUS
 62
     0
 10
92.765689811925526
 20
85.511726523312149
 30
0.0
  0
VERTEX
  5
2446
  8
0
  6
CONTINUOUS
 62
     0
 10
92.910813197051056
 20
85.431768118419996
 30
0.0
  0
VERTEX
  5
2447
  8
0
  6
CONTINUOUS
 62
     0
 10
93.053883438694896
 20
85.356823506814465
 30
0.0
  0
VERTEX
  5
2448
  8
0
  6
CONTINUOUS
 62
     0
 10
93.124709321411189
 20
85.321198951334026
 30
0.0
  0
VERTEX
  5
2449
  8
0
  6
CONTINUOUS
 62
     0
 10
93.195094102918276
 20
85.286790604117755
 30
0.0
  0
VERTEX
  5
244A
  8
0
  6
CONTINUOUS
 62
     0
 10
93.334633858326384
 20
85.221580534855804
 30
0.0
  0
VERTEX
  5
244B
  8
0
  6
CONTINUOUS
 62
     0
 10
93.472687317551362
 20
85.161117257470224
 30
0.0
  0
VERTEX
  5
244C
  8
0
  6
CONTINUOUS
 62
     0
 10
93.609435854368286
 20
85.105337274931088
 30
0.0
  0
VERTEX
  5
244D
  8
0
  6
CONTINUOUS
 62
     0
 10
93.745058404072296
 20
85.054189428705385
 30
0.0
  0
VERTEX
  5
244E
  8
0
  6
CONTINUOUS
 62
     0
 10
93.879732254596306
 20
85.007634774877545
 30
0.0
  0
VERTEX
  5
244F
  8
0
  6
CONTINUOUS
 62
     0
 10
93.946768563854761
 20
84.986071053070447
 30
0.0
  0
VERTEX
  5
2450
  8
0
  6
CONTINUOUS
 62
     0
 10
94.013633835822276
 20
84.965646542250454
 30
0.0
  0
VERTEX
  5
2451
  8
0
  6
CONTINUOUS
 62
     0
 10
94.146939514636216
 20
84.928210173302801
 30
0.0
  0
VERTEX
  5
2452
  8
0
  6
CONTINUOUS
 62
     0
 10
94.279826403499186
 20
84.895323449960244
 30
0.0
  0
VERTEX
  5
2453
  8
0
  6
CONTINUOUS
 62
     0
 10
94.412473190662894
 20
84.866996707279469
 30
0.0
  0
VERTEX
  5
2454
  8
0
  6
CONTINUOUS
 62
     0
 10
94.54506100066348
 20
84.843253139368898
 30
0.0
  0
VERTEX
  5
2455
  8
0
  6
CONTINUOUS
 62
     0
 10
94.677774294389422
 20
84.824129203209253
 30
0.0
  0
VERTEX
  5
2456
  8
0
  6
CONTINUOUS
 62
     0
 10
94.74423678650092
 20
84.816314739347348
 30
0.0
  0
VERTEX
  5
2457
  8
0
  6
CONTINUOUS
 62
     0
 10
94.810801818867191
 20
84.809675127520478
 30
0.0
  0
VERTEX
  5
2458
  8
0
  6
CONTINUOUS
 62
     0
 10
94.944337617961338
 20
84.799955535489204
 30
0.0
  0
VERTEX
  5
2459
  8
0
  6
CONTINUOUS
 62
     0
 10
95.078582116480817
 20
84.795050192068203
 30
0.0
  0
VERTEX
  5
245A
  8
0
  6
CONTINUOUS
 62
     0
 10
95.146034791841217
 20
84.794432145135644
 30
0.0
  0
SEQEND
  5
245B
  8
0
  6
CONTINUOUS
 62
     0
  0
POLYLINE
  5
1BED
  8
0
  6
CONTINUOUS
 62
     0
 66
     1
 10
0.0
 20
0.0
 30
0.0
  0
VERTEX
  5
245C
  8
0
  6
CONTINUOUS
 62
     0
 10
95.146034791841217
 20
89.794432145135644
 30
0.0
  0
VERTEX
  5
245D
  8
0
  6
CONTINUOUS
 62
     0
 10
95.078582116480817
 20
89.793814098203043
 30
0.0
  0
VERTEX
  5
245E
  8
0
  6
CONTINUOUS
 62
     0
 10
94.944337617961338
 20
89.788908754782057
 30
0.0
  0
VERTEX
  5
245F
  8
0
  6
CONTINUOUS
 62
     0
 10
94.810801818867191
 20
89.779189162750768
 30
0.0
  0
VERTEX
  5
2460
  8
0
  6
CONTINUOUS
 62
     0
 10
94.74423678650092
 20
89.772549550923912
 30
0.0
  0
VERTEX
  5
2461
  8
0
  6
CONTINUOUS
 62
     0
 10
94.677774294389422
 20
89.764735087062007
 30
0.0
  0
VERTEX
  5
2462
  8
0
  6
CONTINUOUS
 62
     0
 10
94.54506100066348
 20
89.745611150902377
 30
0.0
  0
VERTEX
  5
2463
  8
0
  6
CONTINUOUS
 62
     0
 10
94.412473190662894
 20
89.721867582991777
 30
0.0
  0
VERTEX
  5
2464
  8
0
  6
CONTINUOUS
 62
     0
 10
94.279826403499186
 20
89.693540840311016
 30
0.0
  0
VERTEX
  5
2465
  8
0
  6
CONTINUOUS
 62
     0
 10
94.146939514636216
 20
89.660654116968445
 30
0.0
  0
VERTEX
  5
2466
  8
0
  6
CONTINUOUS
 62
     0
 10
94.013633835822276
 20
89.623217748020807
 30
0.0
  0
VERTEX
  5
2467
  8
0
  6
CONTINUOUS
 62
     0
 10
93.946768563854761
 20
89.602793237200814
 30
0.0
  0
VERTEX
  5
2468
  8
0
  6
CONTINUOUS
 62
     0
 10
93.879732254596306
 20
89.581229515393716
 30
0.0
  0
VERTEX
  5
2469
  8
0
  6
CONTINUOUS
 62
     0
 10
93.745058404072296
 20
89.534674861565861
 30
0.0
  0
VERTEX
  5
246A
  8
0
  6
CONTINUOUS
 62
     0
 10
93.609435854368286
 20
89.483527015340186
 30
0.0
  0
VERTEX
  5
246B
  8
0
  6
CONTINUOUS
 62
     0
 10
93.472687317551362
 20
89.427747032801022
 30
0.0
  0
VERTEX
  5
246C
  8
0
  6
CONTINUOUS
 62
     0
 10
93.334633858326384
 20
89.367283755415457
 30
0.0
  0
VERTEX
  5
246D
  8
0
  6
CONTINUOUS
 62
     0
 10
93.195094102918276
 20
89.302073686153506
 30
0.0
  0
VERTEX
  5
246E
  8
0
  6
CONTINUOUS
 62
     0
 10
93.124709321411189
 20
89.267665338937235
 30
0.0
  0
VERTEX
  5
246F
  8
0
  6
CONTINUOUS
 62
     0
 10
93.053883438694896
 20
89.232040783456796
 30
0.0
  0
VERTEX
  5
2470
  8
0
  6
CONTINUOUS
 62
     0
 10
92.910813197051056
 20
89.157096171851265
 30
0.0
  0
VERTEX
  5
2471
  8
0
  6
CONTINUOUS
 62
     0
 10
92.765689811925526
 20
89.077137766959126
 30
0.0
  0
VERTEX
  5
2472
  8
0
  6
CONTINUOUS
 62
     0
 10
92.692296147785285
 20
89.03524276658078
 30
0.0
  0
SEQEND
  5
2473
  8
0
  6
CONTINUOUS
 62
     0
  0
POLYLINE
  5
1BEE
  8
0
  6
CONTINUOUS
 62
     0
 66
     1
 10
0.0
 20
0.0
 30
0.0
  0
VERTEX
  5
2474
  8
0
  6
CONTINUOUS
 62
     0
 10
92.692296147785285
 20
89.03524276658078
 30
0.0
  0
VERTEX
  5
2475
  8
0
  6
CONTINUOUS
 62
     0
 10
92.765689811925526
 20
89.077137766959126
 30
0.0
  0
VERTEX
  5
2476
  8
0
  6
CONTINUOUS
 62
     0
 10
92.910813197051056
 20
89.157096171851265
 30
0.0
  0
VERTEX
  5
2477
  8
0
  6
CONTINUOUS
 62
     0
 10
93.053883438694896
 20
89.232040783456796
 30
0.0
  0
VERTEX
  5
2478
  8
0
  6
CONTINUOUS
 62
     0
 10
93.124709321411189
 20
89.267665338937235
 30
0.0
  0
VERTEX
  5
2479
  8
0
  6
CONTINUOUS
 62
     0
 10
93.195094102918276
 20
89.302073686153506
 30
0.0
  0
VERTEX
  5
247A
  8
0
  6
CONTINUOUS
 62
     0
 10
93.334633858326384
 20
89.367283755415457
 30
0.0
  0
VERTEX
  5
247B
  8
0
  6
CONTINUOUS
 62
     0
 10
93.472687317551362
 20
89.427747032801022
 30
0.0
  0
VERTEX
  5
247C
  8
0
  6
CONTINUOUS
 62
     0
 10
93.609435854368286
 20
89.483527015340186
 30
0.0
  0
VERTEX
  5
247D
  8
0
  6
CONTINUOUS
 62
     0
 10
93.745058404072296
 20
89.534674861565861
 30
0.0
  0
VERTEX
  5
247E
  8
0
  6
CONTINUOUS
 62
     0
 10
93.879732254596306
 20
89.581229515393716
 30
0.0
  0
VERTEX
  5
247F
  8
0
  6
CONTINUOUS
 62
     0
 10
93.946768563854761
 20
89.602793237200814
 30
0.0
  0
VERTEX
  5
2480
  8
0
  6
CONTINUOUS
 62
     0
 10
94.013633835822276
 20
89.623217748020807
 30
0.0
  0
VERTEX
  5
2481
  8
0
  6
CONTINUOUS
 62
     0
 10
94.146939514636216
 20
89.660654116968445
 30
0.0
  0
VERTEX
  5
2482
  8
0
  6
CONTINUOUS
 62
     0
 10
94.279826403499186
 20
89.693540840311016
 30
0.0
  0
VERTEX
  5
2483
  8
0
  6
CONTINUOUS
 62
     0
 10
94.412473190662894
 20
89.721867582991777
 30
0.0
  0
VERTEX
  5
2484
  8
0
  6
CONTINUOUS
 62
     0
 10
94.54506100066348
 20
89.745611150902377
 30
0.0
  0
VERTEX
  5
2485
  8
0
  6
CONTINUOUS
 62
     0
 10
94.677774294389422
 20
89.764735087062007
 30
0.0
  0
VERTEX
  5
2486
  8
0
  6
CONTINUOUS
 62
     0
 10
94.74423678650092
 20
89.772549550923912
 30
0.0
  0
VERTEX
  5
2487
  8
0
  6
CONTINUOUS
 62
     0
 10
94.810801818867191
 20
89.779189162750768
 30
0.0
  0
VERTEX
  5
2488
  8
0
  6
CONTINUOUS
 62
     0
 10
94.944337617961338
 20
89.788908754782057
 30
0.0
  0
VERTEX
  5
2489
  8
0
  6
CONTINUOUS
 62
     0
 10
95.078582116480817
 20
89.793814098203043
 30
0.0
  0
VERTEX
  5
248A
  8
0
  6
CONTINUOUS
 62
     0
 10
95.146034791841217
 20
89.794432145135644
 30
0.0
  0
SEQEND
  5
248B
  8
0
  6
CONTINUOUS
 62
     0
  0
POLYLINE
  5
1BEF
  8
0
  6
CONTINUOUS
 62
     0
 66
     1
 10
0.0
 20
0.0
 30
0.0
  0
VERTEX
  5
248C
  8
0
  6
CONTINUOUS
 62
     0
 10
95.146034791841217
 20
84.794432145135644
 30
0.0
  0
VERTEX
  5
248D
  8
0
  6
CONTINUOUS
 62
     0
 10
95.078582116480817
 20
84.795050192068203
 30
0.0
  0
VERTEX
  5
248E
  8
0
  6
CONTINUOUS
 62
     0
 10
94.944337617961338
 20
84.799955535489204
 30
0.0
  0
VERTEX
  5
248F
  8
0
  6
CONTINUOUS
 62
     0
 10
94.810801818867191
 20
84.809675127520478
 30
0.0
  0
VERTEX
  5
2490
  8
0
  6
CONTINUOUS
 62
     0
 10
94.74423678650092
 20
84.816314739347348
 30
0.0
  0
VERTEX
  5
2491
  8
0
  6
CONTINUOUS
 62
     0
 10
94.677774294389422
 20
84.824129203209253
 30
0.0
  0
VERTEX
  5
2492
  8
0
  6
CONTINUOUS
 62
     0
 10
94.54506100066348
 20
84.843253139368898
 30
0.0
  0
VERTEX
  5
2493
  8
0
  6
CONTINUOUS
 62
     0
 10
94.412473190662894
 20
84.866996707279469
 30
0.0
  0
VERTEX
  5
2494
  8
0
  6
CONTINUOUS
 62
     0
 10
94.279826403499186
 20
84.895323449960244
 30
0.0
  0
VERTEX
  5
2495
  8
0
  6
CONTINUOUS
 62
     0
 10
94.146939514636216
 20
84.928210173302801
 30
0.0
  0
VERTEX
  5
2496
  8
0
  6
CONTINUOUS
 62
     0
 10
94.013633835822276
 20
84.965646542250454
 30
0.0
  0
VERTEX
  5
2497
  8
0
  6
CONTINUOUS
 62
     0
 10
93.946768563854761
 20
84.986071053070447
 30
0.0
  0
VERTEX
  5
2498
  8
0
  6
CONTINUOUS
 62
     0
 10
93.879732254596306
 20
85.007634774877545
 30
0.0
  0
VERTEX
  5
2499
  8
0
  6
CONTINUOUS
 62
     0
 10
93.745058404072296
 20
85.054189428705385
 30
0.0
  0
VERTEX
  5
249A
  8
0
  6
CONTINUOUS
 62
     0
 10
93.609435854368286
 20
85.105337274931088
 30
0.0
  0
VERTEX
  5
249B
  8
0
  6
CONTINUOUS
 62
     0
 10
93.472687317551362
 20
85.161117257470224
 30
0.0
  0
VERTEX
  5
249C
  8
0
  6
CONTINUOUS
 62
     0
 10
93.334633858326384
 20
85.221580534855804
 30
0.0
  0
VERTEX
  5
249D
  8
0
  6
CONTINUOUS
 62
     0
 10
93.195094102918276
 20
85.286790604117755
 30
0.0
  0
VERTEX
  5
249E
  8
0
  6
CONTINUOUS
 62
     0
 10
93.124709321411189
 20
85.321198951334026
 30
0.0
  0
VERTEX
  5
249F
  8
0
  6
CONTINUOUS
 62
     0
 10
93.053883438694896
 20
85.356823506814465
 30
0.0
  0
VERTEX
  5
24A0
  8
0
  6
CONTINUOUS
 62
     0
 10
92.910813197051056
 20
85.431768118419996
 30
0.0
  0
VERTEX
  5
24A1
  8
0
  6
CONTINUOUS
 62
     0
 10
92.765689811925526
 20
85.511726523312149
 30
0.0
  0
VERTEX
  5
24A2
  8
0
  6
CONTINUOUS
 62
     0
 10
92.692296147785285
 20
85.553621523690467
 30
0.0
  0
SEQEND
  5
24A3
  8
0
  6
CONTINUOUS
 62
     0
  0
POLYLINE
  5
1BF0
  8
0
  6
CONTINUOUS
 62
     0
 66
     1
 10
0.0
 20
0.0
 30
0.0
  0
VERTEX
  5
24A4
  8
0
  6
CONTINUOUS
 62
     0
 10
97.599773435897106
 20
85.553621523690467
 30
0.0
  0
VERTEX
  5
24A5
  8
0
  6
CONTINUOUS
 62
     0
 10
97.52637977175695
 20
85.511726523312149
 30
0.0
  0
VERTEX
  5
24A6
  8
0
  6
CONTINUOUS
 62
     0
 10
97.381256386631335
 20
85.431768118419996
 30
0.0
  0
VERTEX
  5
24A7
  8
0
  6
CONTINUOUS
 62
     0
 10
97.238186144987509
 20
85.356823506814465
 30
0.0
  0
VERTEX
  5
24A8
  8
0
  6
CONTINUOUS
 62
     0
 10
97.167360262271217
 20
85.321198951334026
 30
0.0
  0
VERTEX
  5
24A9
  8
0
  6
CONTINUOUS
 62
     0
 10
97.0969754807642
 20
85.286790604117755
 30
0.0
  0
VERTEX
  5
24AA
  8
0
  6
CONTINUOUS
 62
     0
 10
96.957435725356035
 20
85.221580534855804
 30
0.0
  0
VERTEX
  5
24AB
  8
0
  6
CONTINUOUS
 62
     0
 10
96.819382266131043
 20
85.161117257470224
 30
0.0
  0
VERTEX
  5
24AC
  8
0
  6
CONTINUOUS
 62
     0
 10
96.682633729314176
 20
85.105337274931088
 30
0.0
  0
VERTEX
  5
24AD
  8
0
  6
CONTINUOUS
 62
     0
 10
96.547011179610095
 20
85.054189428705385
 30
0.0
  0
VERTEX
  5
24AE
  8
0
  6
CONTINUOUS
 62
     0
 10
96.412337329086114
 20
85.007634774877545
 30
0.0
  0
VERTEX
  5
24AF
  8
0
  6
CONTINUOUS
 62
     0
 10
96.345301019827701
 20
84.986071053070447
 30
0.0
  0
VERTEX
  5
24B0
  8
0
  6
CONTINUOUS
 62
     0
 10
96.2784357478602
 20
84.965646542250454
 30
0.0
  0
VERTEX
  5
24B1
  8
0
  6
CONTINUOUS
 62
     0
 10
96.145130069046189
 20
84.928210173302801
 30
0.0
  0
VERTEX
  5
24B2
  8
0
  6
CONTINUOUS
 62
     0
 10
96.012243180183276
 20
84.895323449960244
 30
0.0
  0
VERTEX
  5
24B3
  8
0
  6
CONTINUOUS
 62
     0
 10
95.879596393019554
 20
84.866996707279469
 30
0.0
  0
VERTEX
  5
24B4
  8
0
  6
CONTINUOUS
 62
     0
 10
95.747008583018982
 20
84.843253139368898
 30
0.0
  0
VERTEX
  5
24B5
  8
0
  6
CONTINUOUS
 62
     0
 10
95.614295289292983
 20
84.824129203209253
 30
0.0
  0
VERTEX
  5
24B6
  8
0
  6
CONTINUOUS
 62
     0
 10
95.547832797181542
 20
84.816314739347348
 30
0.0
  0
VERTEX
  5
24B7
  8
0
  6
CONTINUOUS
 62
     0
 10
95.481267764815271
 20
84.809675127520478
 30
0.0
  0
VERTEX
  5
24B8
  8
0
  6
CONTINUOUS
 62
     0
 10
95.347731965721124
 20
84.799955535489204
 30
0.0
  0
VERTEX
  5
24B9
  8
0
  6
CONTINUOUS
 62
     0
 10
95.213487467201645
 20
84.795050192068203
 30
0.0
  0
VERTEX
  5
24BA
  8
0
  6
CONTINUOUS
 62
     0
 10
95.146034791841217
 20
84.794432145135644
 30
0.0
  0
SEQEND
  5
24BB
  8
0
  6
CONTINUOUS
 62
     0
  0
POLYLINE
  5
1BF1
  8
0
  6
CONTINUOUS
 62
     0
 66
     1
 10
0.0
 20
0.0
 30
0.0
  0
VERTEX
  5
24BC
  8
0
  6
CONTINUOUS
 62
     0
 10
95.146034791841217
 20
89.794432145135644
 30
0.0
  0
VERTEX
  5
24BD
  8
0
  6
CONTINUOUS
 62
     0
 10
95.213487467201645
 20
89.793814098203043
 30
0.0
  0
VERTEX
  5
24BE
  8
0
  6
CONTINUOUS
 62
     0
 10
95.347731965721124
 20
89.788908754782057
 30
0.0
  0
VERTEX
  5
24BF
  8
0
  6
CONTINUOUS
 62
     0
 10
95.481267764815215
 20
89.779189162750768
 30
0.0
  0
VERTEX
  5
24C0
  8
0
  6
CONTINUOUS
 62
     0
 10
95.547832797181542
 20
89.772549550923912
 30
0.0
  0
VERTEX
  5
24C1
  8
0
  6
CONTINUOUS
 62
     0
 10
95.61429528929304
 20
89.764735087062007
 30
0.0
  0
VERTEX
  5
24C2
  8
0
  6
CONTINUOUS
 62
     0
 10
95.747008583018982
 20
89.745611150902377
 30
0.0
  0
VERTEX
  5
24C3
  8
0
  6
CONTINUOUS
 62
     0
 10
95.879596393019554
 20
89.721867582991777
 30
0.0
  0
VERTEX
  5
24C4
  8
0
  6
CONTINUOUS
 62
     0
 10
96.012243180183276
 20
89.693540840311016
 30
0.0
  0
VERTEX
  5
24C5
  8
0
  6
CONTINUOUS
 62
     0
 10
96.145130069046189
 20
89.660654116968445
 30
0.0
  0
VERTEX
  5
24C6
  8
0
  6
CONTINUOUS
 62
     0
 10
96.2784357478602
 20
89.623217748020807
 30
0.0
  0
VERTEX
  5
24C7
  8
0
  6
CONTINUOUS
 62
     0
 10
96.345301019827701
 20
89.602793237200814
 30
0.0
  0
VERTEX
  5
24C8
  8
0
  6
CONTINUOUS
 62
     0
 10
96.412337329086114
 20
89.581229515393716
 30
0.0
  0
VERTEX
  5
24C9
  8
0
  6
CONTINUOUS
 62
     0
 10
96.547011179610095
 20
89.534674861565861
 30
0.0
  0
VERTEX
  5
24CA
  8
0
  6
CONTINUOUS
 62
     0
 10
96.682633729314176
 20
89.483527015340186
 30
0.0
  0
VERTEX
  5
24CB
  8
0
  6
CONTINUOUS
 62
     0
 10
96.819382266131043
 20
89.427747032801022
 30
0.0
  0
VERTEX
  5
24CC
  8
0
  6
CONTINUOUS
 62
     0
 10
96.957435725356035
 20
89.367283755415457
 30
0.0
  0
VERTEX
  5
24CD
  8
0
  6
CONTINUOUS
 62
     0
 10
97.0969754807642
 20
89.302073686153506
 30
0.0
  0
VERTEX
  5
24CE
  8
0
  6
CONTINUOUS
 62
     0
 10
97.167360262271217
 20
89.267665338937235
 30
0.0
  0
VERTEX
  5
24CF
  8
0
  6
CONTINUOUS
 62
     0
 10
97.238186144987509
 20
89.232040783456796
 30
0.0
  0
VERTEX
  5
24D0
  8
0
  6
CONTINUOUS
 62
     0
 10
97.381256386631335
 20
89.157096171851265
 30
0.0
  0
VERTEX
  5
24D1
  8
0
  6
CONTINUOUS
 62
     0
 10
97.52637977175695
 20
89.077137766959126
 30
0.0
  0
VERTEX
  5
24D2
  8
0
  6
CONTINUOUS
 62
     0
 10
97.599773435897106
 20
89.03524276658078
 30
0.0
  0
SEQEND
  5
24D3
  8
0
  6
CONTINUOUS
 62
     0
  0
POLYLINE
  5
1BF2
  8
0
  6
CONTINUOUS
 62
     0
 66
     1
 10
0.0
 20
0.0
 30
0.0
  0
VERTEX
  5
24D4
  8
0
  6
CONTINUOUS
 62
     0
 10
87.784818859673507
 20
89.794432145135644
 30
0.0
  0
VERTEX
  5
24D5
  8
0
  6
CONTINUOUS
 62
     0
 10
87.649913508952608
 20
89.793814098203043
 30
0.0
  0
VERTEX
  5
24D6
  8
0
  6
CONTINUOUS
 62
     0
 10
87.38142451191365
 20
89.788908754782057
 30
0.0
  0
VERTEX
  5
24D7
  8
0
  6
CONTINUOUS
 62
     0
 10
87.114352913725469
 20
89.779189162750768
 30
0.0
  0
VERTEX
  5
24D8
  8
0
  6
CONTINUOUS
 62
     0
 10
86.981222848992871
 20
89.772549550923912
 30
0.0
  0
VERTEX
  5
24D9
  8
0
  6
CONTINUOUS
 62
     0
 10
86.848297864769947
 20
89.764735087062007
 30
0.0
  0
VERTEX
  5
24DA
  8
0
  6
CONTINUOUS
 62
     0
 10
86.582871277317992
 20
89.745611150902377
 30
0.0
  0
VERTEX
  5
24DB
  8
0
  6
CONTINUOUS
 62
     0
 10
86.317695657316818
 20
89.721867582991777
 30
0.0
  0
VERTEX
  5
24DC
  8
0
  6
CONTINUOUS
 62
     0
 10
86.052402082989403
 20
89.693540840311016
 30
0.0
  0
VERTEX
  5
24DD
  8
0
  6
CONTINUOUS
 62
     0
 10
85.786628305263534
 20
89.660654116968445
 30
0.0
  0
VERTEX
  5
24DE
  8
0
  6
CONTINUOUS
 62
     0
 10
85.520016947635597
 20
89.623217748020807
 30
0.0
  0
VERTEX
  5
24DF
  8
0
  6
CONTINUOUS
 62
     0
 10
85.386286403700538
 20
89.602793237200814
 30
0.0
  0
VERTEX
  5
24E0
  8
0
  6
CONTINUOUS
 62
     0
 10
85.25221378518367
 20
89.581229515393716
 30
0.0
  0
VERTEX
  5
24E1
  8
0
  6
CONTINUOUS
 62
     0
 10
84.982866084135679
 20
89.534674861565861
 30
0.0
  0
VERTEX
  5
24E2
  8
0
  6
CONTINUOUS
 62
     0
 10
84.711620984727602
 20
89.483527015340186
 30
0.0
  0
VERTEX
  5
24E3
  8
0
  6
CONTINUOUS
 62
     0
 10
84.438123911093797
 20
89.427747032801022
 30
0.0
  0
VERTEX
  5
24E4
  8
0
  6
CONTINUOUS
 62
     0
 10
84.162016992643856
 20
89.367283755415457
 30
0.0
  0
VERTEX
  5
24E5
  8
0
  6
CONTINUOUS
 62
     0
 10
83.882937481827554
 20
89.302073686153506
 30
0.0
  0
VERTEX
  5
24E6
  8
0
  6
CONTINUOUS
 62
     0
 10
83.742167918813465
 20
89.267665338937235
 30
0.0
  0
VERTEX
  5
24E7
  8
0
  6
CONTINUOUS
 62
     0
 10
83.60051615338088
 20
89.232040783456796
 30
0.0
  0
VERTEX
  5
24E8
  8
0
  6
CONTINUOUS
 62
     0
 10
83.314375670093199
 20
89.157096171851265
 30
0.0
  0
VERTEX
  5
24E9
  8
0
  6
CONTINUOUS
 62
     0
 10
83.024128899842054
 20
89.077137766959126
 30
0.0
  0
VERTEX
  5
24EA
  8
0
  6
CONTINUOUS
 62
     0
 10
82.877341571561686
 20
89.03524276658078
 30
0.0
  0
SEQEND
  5
24EB
  8
0
  6
CONTINUOUS
 62
     0
  0
POLYLINE
  5
1BF3
  8
0
  6
CONTINUOUS
 62
     0
 66
     1
 10
0.0
 20
0.0
 30
0.0
  0
VERTEX
  5
24EC
  8
0
  6
CONTINUOUS
 62
     0
 10
92.692296147785285
 20
89.03524276658078
 30
0.0
  0
VERTEX
  5
24ED
  8
0
  6
CONTINUOUS
 62
     0
 10
92.545508819504931
 20
89.077137766959126
 30
0.0
  0
VERTEX
  5
24EE
  8
0
  6
CONTINUOUS
 62
     0
 10
92.255262049253787
 20
89.157096171851265
 30
0.0
  0
VERTEX
  5
24EF
  8
0
  6
CONTINUOUS
 62
     0
 10
91.969121565966105
 20
89.232040783456796
 30
0.0
  0
VERTEX
  5
24F0
  8
0
  6
CONTINUOUS
 62
     0
 10
91.827469800533521
 20
89.267665338937235
 30
0.0
  0
VERTEX
  5
24F1
  8
0
  6
CONTINUOUS
 62
     0
 10
91.686700237519432
 20
89.302073686153506
 30
0.0
  0
VERTEX
  5
24F2
  8
0
  6
CONTINUOUS
 62
     0
 10
91.407620726703115
 20
89.367283755415457
 30
0.0
  0
VERTEX
  5
24F3
  8
0
  6
CONTINUOUS
 62
     0
 10
91.131513808253175
 20
89.427747032801022
 30
0.0
  0
VERTEX
  5
24F4
  8
0
  6
CONTINUOUS
 62
     0
 10
90.858016734619383
 20
89.483527015340186
 30
0.0
  0
VERTEX
  5
24F5
  8
0
  6
CONTINUOUS
 62
     0
 10
90.586771635211306
 20
89.534674861565861
 30
0.0
  0
VERTEX
  5
24F6
  8
0
  6
CONTINUOUS
 62
     0
 10
90.317423934163315
 20
89.581229515393716
 30
0.0
  0
VERTEX
  5
24F7
  8
0
  6
CONTINUOUS
 62
     0
 10
90.183351315646433
 20
89.602793237200814
 30
0.0
  0
VERTEX
  5
24F8
  8
0
  6
CONTINUOUS
 62
     0
 10
90.049620771711403
 20
89.623217748020807
 30
0.0
  0
VERTEX
  5
24F9
  8
0
  6
CONTINUOUS
 62
     0
 10
89.783009414083466
 20
89.660654116968445
 30
0.0
  0
VERTEX
  5
24FA
  8
0
  6
CONTINUOUS
 62
     0
 10
89.517235636357569
 20
89.693540840311016
 30
0.0
  0
VERTEX
  5
24FB
  8
0
  6
CONTINUOUS
 62
     0
 10
89.251942062030153
 20
89.721867582991777
 30
0.0
  0
VERTEX
  5
24FC
  8
0
  6
CONTINUOUS
 62
     0
 10
88.986766442028994
 20
89.745611150902377
 30
0.0
  0
VERTEX
  5
24FD
  8
0
  6
CONTINUOUS
 62
     0
 10
88.721339854577053
 20
89.764735087062007
 30
0.0
  0
VERTEX
  5
24FE
  8
0
  6
CONTINUOUS
 62
     0
 10
88.588414870354114
 20
89.772549550923912
 30
0.0
  0
VERTEX
  5
24FF
  8
0
  6
CONTINUOUS
 62
     0
 10
88.455284805621517
 20
89.779189162750768
 30
0.0
  0
VERTEX
  5
2500
  8
0
  6
CONTINUOUS
 62
     0
 10
88.188213207433336
 20
89.788908754782057
 30
0.0
  0
VERTEX
  5
2501
  8
0
  6
CONTINUOUS
 62
     0
 10
87.919724210394364
 20
89.793814098203043
 30
0.0
  0
VERTEX
  5
2502
  8
0
  6
CONTINUOUS
 62
     0
 10
87.784818859673507
 20
89.794432145135644
 30
0.0
  0
SEQEND
  5
2503
  8
0
  6
CONTINUOUS
 62
     0
  0
POLYLINE
  5
1BF4
  8
0
  6
CONTINUOUS
 62
     0
 66
     1
 10
0.0
 20
0.0
 30
0.0
  0
VERTEX
  5
2504
  8
0
  6
CONTINUOUS
 62
     0
 10
87.784818859673507
 20
84.794432145135644
 30
0.0
  0
VERTEX
  5
2505
  8
0
  6
CONTINUOUS
 62
     0
 10
87.919724210394364
 20
84.795050192068203
 30
0.0
  0
VERTEX
  5
2506
  8
0
  6
CONTINUOUS
 62
     0
 10
88.188213207433336
 20
84.799955535489204
 30
0.0
  0
VERTEX
  5
2507
  8
0
  6
CONTINUOUS
 62
     0
 10
88.455284805621517
 20
84.809675127520478
 30
0.0
  0
VERTEX
  5
2508
  8
0
  6
CONTINUOUS
 62
     0
 10
88.588414870354114
 20
84.816314739347348
 30
0.0
  0
VERTEX
  5
2509
  8
0
  6
CONTINUOUS
 62
     0
 10
88.721339854577053
 20
84.824129203209253
 30
0.0
  0
VERTEX
  5
250A
  8
0
  6
CONTINUOUS
 62
     0
 10
88.986766442028994
 20
84.843253139368898
 30
0.0
  0
VERTEX
  5
250B
  8
0
  6
CONTINUOUS
 62
     0
 10
89.251942062030153
 20
84.866996707279469
 30
0.0
  0
VERTEX
  5
250C
  8
0
  6
CONTINUOUS
 62
     0
 10
89.517235636357569
 20
84.895323449960244
 30
0.0
  0
VERTEX
  5
250D
  8
0
  6
CONTINUOUS
 62
     0
 10
89.783009414083466
 20
84.928210173302801
 30
0.0
  0
VERTEX
  5
250E
  8
0
  6
CONTINUOUS
 62
     0
 10
90.049620771711403
 20
84.965646542250454
 30
0.0
  0
VERTEX
  5
250F
  8
0
  6
CONTINUOUS
 62
     0
 10
90.183351315646433
 20
84.986071053070447
 30
0.0
  0
VERTEX
  5
2510
  8
0
  6
CONTINUOUS
 62
     0
 10
90.317423934163315
 20
85.007634774877545
 30
0.0
  0
VERTEX
  5
2511
  8
0
  6
CONTINUOUS
 62
     0
 10
90.586771635211306
 20
85.054189428705385
 30
0.0
  0
VERTEX
  5
2512
  8
0
  6
CONTINUOUS
 62
     0
 10
90.858016734619383
 20
85.105337274931088
 30
0.0
  0
VERTEX
  5
2513
  8
0
  6
CONTINUOUS
 62
     0
 10
91.131513808253175
 20
85.161117257470224
 30
0.0
  0
VERTEX
  5
2514
  8
0
  6
CONTINUOUS
 62
     0
 10
91.407620726703115
 20
85.221580534855804
 30
0.0
  0
VERTEX
  5
2515
  8
0
  6
CONTINUOUS
 62
     0
 10
91.686700237519432
 20
85.286790604117755
 30
0.0
  0
VERTEX
  5
2516
  8
0
  6
CONTINUOUS
 62
     0
 10
91.827469800533521
 20
85.321198951334026
 30
0.0
  0
VERTEX
  5
2517
  8
0
  6
CONTINUOUS
 62
     0
 10
91.969121565966105
 20
85.356823506814465
 30
0.0
  0
VERTEX
  5
2518
  8
0
  6
CONTINUOUS
 62
     0
 10
92.255262049253787
 20
85.431768118419996
 30
0.0
  0
VERTEX
  5
2519
  8
0
  6
CONTINUOUS
 62
     0
 10
92.545508819504931
 20
85.511726523312149
 30
0.0
  0
VERTEX
  5
251A
  8
0
  6
CONTINUOUS
 62
     0
 10
92.692296147785285
 20
85.553621523690467
 30
0.0
  0
SEQEND
  5
251B
  8
0
  6
CONTINUOUS
 62
     0
  0
POLYLINE
  5
1BF5
  8
0
  6
CONTINUOUS
 62
     0
 66
     1
 10
0.0
 20
0.0
 30
0.0
  0
VERTEX
  5
251C
  8
0
  6
CONTINUOUS
 62
     0
 10
82.877341571561686
 20
85.553621523690467
 30
0.0
  0
VERTEX
  5
251D
  8
0
  6
CONTINUOUS
 62
     0
 10
83.024128899842054
 20
85.511726523312149
 30
0.0
  0
VERTEX
  5
251E
  8
0
  6
CONTINUOUS
 62
     0
 10
83.314375670093199
 20
85.431768118419996
 30
0.0
  0
VERTEX
  5
251F
  8
0
  6
CONTINUOUS
 62
     0
 10
83.60051615338088
 20
85.356823506814465
 30
0.0
  0
VERTEX
  5
2520
  8
0
  6
CONTINUOUS
 62
     0
 10
83.742167918813465
 20
85.321198951334026
 30
0.0
  0
VERTEX
  5
2521
  8
0
  6
CONTINUOUS
 62
     0
 10
83.882937481827554
 20
85.286790604117755
 30
0.0
  0
VERTEX
  5
2522
  8
0
  6
CONTINUOUS
 62
     0
 10
84.162016992643856
 20
85.221580534855804
 30
0.0
  0
VERTEX
  5
2523
  8
0
  6
CONTINUOUS
 62
     0
 10
84.438123911093797
 20
85.161117257470224
 30
0.0
  0
VERTEX
  5
2524
  8
0
  6
CONTINUOUS
 62
     0
 10
84.711620984727602
 20
85.105337274931088
 30
0.0
  0
VERTEX
  5
2525
  8
0
  6
CONTINUOUS
 62
     0
 10
84.982866084135679
 20
85.054189428705385
 30
0.0
  0
VERTEX
  5
2526
  8
0
  6
CONTINUOUS
 62
     0
 10
85.25221378518367
 20
85.007634774877545
 30
0.0
  0
VERTEX
  5
2527
  8
0
  6
CONTINUOUS
 62
     0
 10
85.386286403700538
 20
84.986071053070447
 30
0.0
  0
VERTEX
  5
2528
  8
0
  6
CONTINUOUS
 62
     0
 10
85.520016947635597
 20
84.965646542250454
 30
0.0
  0
VERTEX
  5
2529
  8
0
  6
CONTINUOUS
 62
     0
 10
85.786628305263534
 20
84.928210173302801
 30
0.0
  0
VERTEX
  5
252A
  8
0
  6
CONTINUOUS
 62
     0
 10
86.052402082989403
 20
84.895323449960244
 30
0.0
  0
VERTEX
  5
252B
  8
0
  6
CONTINUOUS
 62
     0
 10
86.317695657316818
 20
84.866996707279469
 30
0.0
  0
VERTEX
  5
252C
  8
0
  6
CONTINUOUS
 62
     0
 10
86.582871277317992
 20
84.843253139368898
 30
0.0
  0
VERTEX
  5
252D
  8
0
  6
CONTINUOUS
 62
     0
 10
86.848297864769947
 20
84.824129203209253
 30
0.0
  0
VERTEX
  5
252E
  8
0
  6
CONTINUOUS
 62
     0
 10
86.981222848992871
 20
84.816314739347348
 30
0.0
  0
VERTEX
  5
252F
  8
0
  6
CONTINUOUS
 62
     0
 10
87.114352913725469
 20
84.809675127520478
 30
0.0
  0
VERTEX
  5
2530
  8
0
  6
CONTINUOUS
 62
     0
 10
87.38142451191365
 20
84.799955535489204
 30
0.0
  0
VERTEX
  5
2531
  8
0
  6
CONTINUOUS
 62
     0
 10
87.649913508952608
 20
84.795050192068203
 30
0.0
  0
VERTEX
  5
2532
  8
0
  6
CONTINUOUS
 62
     0
 10
87.784818859673507
 20
84.794432145135644
 30
0.0
  0
SEQEND
  5
2533
  8
0
  6
CONTINUOUS
 62
     0
  0
POLYLINE
  5
1BF6
  8
0
  6
CONTINUOUS
 62
     0
 66
     1
 10
0.0
 20
0.0
 30
0.0
  0
VERTEX
  5
2534
  8
0
  6
CONTINUOUS
 62
     0
 10
80.423602927505755
 20
89.794432145135644
 30
0.0
  0
VERTEX
  5
2535
  8
0
  6
CONTINUOUS
 62
     0
 10
80.356150252145341
 20
89.793814098203043
 30
0.0
  0
VERTEX
  5
2536
  8
0
  6
CONTINUOUS
 62
     0
 10
80.221905753625862
 20
89.788908754782057
 30
0.0
  0
VERTEX
  5
2537
  8
0
  6
CONTINUOUS
 62
     0
 10
80.088369954531785
 20
89.779189162750768
 30
0.0
  0
VERTEX
  5
2538
  8
0
  6
CONTINUOUS
 62
     0
 10
80.021804922165444
 20
89.772549550923912
 30
0.0
  0
VERTEX
  5
2539
  8
0
  6
CONTINUOUS
 62
     0
 10
79.955342430053946
 20
89.764735087062007
 30
0.0
  0
VERTEX
  5
253A
  8
0
  6
CONTINUOUS
 62
     0
 10
79.822629136328004
 20
89.745611150902377
 30
0.0
  0
VERTEX
  5
253B
  8
0
  6
CONTINUOUS
 62
     0
 10
79.690041326327417
 20
89.721867582991777
 30
0.0
  0
VERTEX
  5
253C
  8
0
  6
CONTINUOUS
 62
     0
 10
79.55739453916371
 20
89.693540840311016
 30
0.0
  0
VERTEX
  5
253D
  8
0
  6
CONTINUOUS
 62
     0
 10
79.424507650300797
 20
89.660654116968445
 30
0.0
  0
VERTEX
  5
253E
  8
0
  6
CONTINUOUS
 62
     0
 10
79.291201971486799
 20
89.623217748020807
 30
0.0
  0
VERTEX
  5
253F
  8
0
  6
CONTINUOUS
 62
     0
 10
79.224336699519284
 20
89.602793237200814
 30
0.0
  0
VERTEX
  5
2540
  8
0
  6
CONTINUOUS
 62
     0
 10
79.157300390260872
 20
89.581229515393716
 30
0.0
  0
VERTEX
  5
2541
  8
0
  6
CONTINUOUS
 62
     0
 10
79.022626539736876
 20
89.534674861565861
 30
0.0
  0
VERTEX
  5
2542
  8
0
  6
CONTINUOUS
 62
     0
 10
78.887003990032809
 20
89.483527015340186
 30
0.0
  0
VERTEX
  5
2543
  8
0
  6
CONTINUOUS
 62
     0
 10
78.750255453215942
 20
89.427747032801022
 30
0.0
  0
VERTEX
  5
2544
  8
0
  6
CONTINUOUS
 62
     0
 10
78.612201993990965
 20
89.367283755415457
 30
0.0
  0
VERTEX
  5
2545
  8
0
  6
CONTINUOUS
 62
     0
 10
78.472662238582785
 20
89.302073686153506
 30
0.0
  0
VERTEX
  5
2546
  8
0
  6
CONTINUOUS
 62
     0
 10
78.402277457075769
 20
89.267665338937235
 30
0.0
  0
VERTEX
  5
2547
  8
0
  6
CONTINUOUS
 62
     0
 10
78.331451574359477
 20
89.232040783456796
 30
0.0
  0
VERTEX
  5
2548
  8
0
  6
CONTINUOUS
 62
     0
 10
78.188381332715636
 20
89.157096171851265
 30
0.0
  0
VERTEX
  5
2549
  8
0
  6
CONTINUOUS
 62
     0
 10
78.043257947590035
 20
89.077137766959126
 30
0.0
  0
VERTEX
  5
254A
  8
0
  6
CONTINUOUS
 62
     0
 10
77.96986428344988
 20
89.03524276658078
 30
0.0
  0
SEQEND
  5
254B
  8
0
  6
CONTINUOUS
 62
     0
  0
POLYLINE
  5
1BF7
  8
0
  6
CONTINUOUS
 62
     0
 66
     1
 10
0.0
 20
0.0
 30
0.0
  0
VERTEX
  5
254C
  8
0
  6
CONTINUOUS
 62
     0
 10
82.877341571561686
 20
89.03524276658078
 30
0.0
  0
VERTEX
  5
254D
  8
0
  6
CONTINUOUS
 62
     0
 10
82.803947907421474
 20
89.077137766959126
 30
0.0
  0
VERTEX
  5
254E
  8
0
  6
CONTINUOUS
 62
     0
 10
82.65882452229593
 20
89.157096171851265
 30
0.0
  0
VERTEX
  5
254F
  8
0
  6
CONTINUOUS
 62
     0
 10
82.515754280652075
 20
89.232040783456796
 30
0.0
  0
VERTEX
  5
2550
  8
0
  6
CONTINUOUS
 62
     0
 10
82.444928397935783
 20
89.267665338937235
 30
0.0
  0
VERTEX
  5
2551
  8
0
  6
CONTINUOUS
 62
     0
 10
82.374543616428724
 20
89.302073686153506
 30
0.0
  0
VERTEX
  5
2552
  8
0
  6
CONTINUOUS
 62
     0
 10
82.235003861020601
 20
89.367283755415457
 30
0.0
  0
VERTEX
  5
2553
  8
0
  6
CONTINUOUS
 62
     0
 10
82.096950401795624
 20
89.427747032801022
 30
0.0
  0
VERTEX
  5
2554
  8
0
  6
CONTINUOUS
 62
     0
 10
81.9602018649787
 20
89.483527015340186
 30
0.0
  0
VERTEX
  5
2555
  8
0
  6
CONTINUOUS
 62
     0
 10
81.82457931527469
 20
89.534674861565861
 30
0.0
  0
VERTEX
  5
2556
  8
0
  6
CONTINUOUS
 62
     0
 10
81.689905464750694
 20
89.581229515393716
 30
0.0
  0
VERTEX
  5
2557
  8
0
  6
CONTINUOUS
 62
     0
 10
81.622869155492225
 20
89.602793237200814
 30
0.0
  0
VERTEX
  5
2558
  8
0
  6
CONTINUOUS
 62
     0
 10
81.55600388352471
 20
89.623217748020807
 30
0.0
  0
VERTEX
  5
2559
  8
0
  6
CONTINUOUS
 62
     0
 10
81.422698204710755
 20
89.660654116968445
 30
0.0
  0
VERTEX
  5
255A
  8
0
  6
CONTINUOUS
 62
     0
 10
81.289811315847786
 20
89.693540840311016
 30
0.0
  0
VERTEX
  5
255B
  8
0
  6
CONTINUOUS
 62
     0
 10
81.157164528684106
 20
89.721867582991777
 30
0.0
  0
VERTEX
  5
255C
  8
0
  6
CONTINUOUS
 62
     0
 10
81.024576718683505
 20
89.745611150902377
 30
0.0
  0
VERTEX
  5
255D
  8
0
  6
CONTINUOUS
 62
     0
 10
80.891863424957549
 20
89.764735087062007
 30
0.0
  0
VERTEX
  5
255E
  8
0
  6
CONTINUOUS
 62
     0
 10
80.825400932846065
 20
89.772549550923912
 30
0.0
  0
VERTEX
  5
255F
  8
0
  6
CONTINUOUS
 62
     0
 10
80.758835900479795
 20
89.779189162750768
 30
0.0
  0
VERTEX
  5
2560
  8
0
  6
CONTINUOUS
 62
     0
 10
80.625300101385633
 20
89.788908754782057
 30
0.0
  0
VERTEX
  5
2561
  8
0
  6
CONTINUOUS
 62
     0
 10
80.491055602866226
 20
89.793814098203043
 30
0.0
  0
VERTEX
  5
2562
  8
0
  6
CONTINUOUS
 62
     0
 10
80.423602927505755
 20
89.794432145135644
 30
0.0
  0
SEQEND
  5
2563
  8
0
  6
CONTINUOUS
 62
     0
  0
POLYLINE
  5
1BF8
  8
0
  6
CONTINUOUS
 62
     0
 66
     1
 10
0.0
 20
0.0
 30
0.0
  0
VERTEX
  5
2564
  8
0
  6
CONTINUOUS
 62
     0
 10
80.423602927505755
 20
84.794432145135644
 30
0.0
  0
VERTEX
  5
2565
  8
0
  6
CONTINUOUS
 62
     0
 10
80.491055602866169
 20
84.795050192068203
 30
0.0
  0
VERTEX
  5
2566
  8
0
  6
CONTINUOUS
 62
     0
 10
80.625300101385633
 20
84.799955535489204
 30
0.0
  0
VERTEX
  5
2567
  8
0
  6
CONTINUOUS
 62
     0
 10
80.758835900479795
 20
84.809675127520478
 30
0.0
  0
VERTEX
  5
2568
  8
0
  6
CONTINUOUS
 62
     0
 10
80.825400932846065
 20
84.816314739347348
 30
0.0
  0
VERTEX
  5
2569
  8
0
  6
CONTINUOUS
 62
     0
 10
80.891863424957549
 20
84.824129203209253
 30
0.0
  0
VERTEX
  5
256A
  8
0
  6
CONTINUOUS
 62
     0
 10
81.024576718683505
 20
84.843253139368898
 30
0.0
  0
VERTEX
  5
256B
  8
0
  6
CONTINUOUS
 62
     0
 10
81.157164528684106
 20
84.866996707279469
 30
0.0
  0
VERTEX
  5
256C
  8
0
  6
CONTINUOUS
 62
     0
 10
81.289811315847786
 20
84.895323449960244
 30
0.0
  0
VERTEX
  5
256D
  8
0
  6
CONTINUOUS
 62
     0
 10
81.422698204710755
 20
84.928210173302801
 30
0.0
  0
VERTEX
  5
256E
  8
0
  6
CONTINUOUS
 62
     0
 10
81.55600388352471
 20
84.965646542250454
 30
0.0
  0
VERTEX
  5
256F
  8
0
  6
CONTINUOUS
 62
     0
 10
81.622869155492225
 20
84.986071053070447
 30
0.0
  0
VERTEX
  5
2570
  8
0
  6
CONTINUOUS
 62
     0
 10
81.689905464750694
 20
85.007634774877545
 30
0.0
  0
VERTEX
  5
2571
  8
0
  6
CONTINUOUS
 62
     0
 10
81.82457931527469
 20
85.054189428705385
 30
0.0
  0
VERTEX
  5
2572
  8
0
  6
CONTINUOUS
 62
     0
 10
81.9602018649787
 20
85.105337274931088
 30
0.0
  0
VERTEX
  5
2573
  8
0
  6
CONTINUOUS
 62
     0
 10
82.096950401795624
 20
85.161117257470224
 30
0.0
  0
VERTEX
  5
2574
  8
0
  6
CONTINUOUS
 62
     0
 10
82.235003861020601
 20
85.221580534855804
 30
0.0
  0
VERTEX
  5
2575
  8
0
  6
CONTINUOUS
 62
     0
 10
82.374543616428724
 20
85.286790604117755
 30
0.0
  0
VERTEX
  5
2576
  8
0
  6
CONTINUOUS
 62
     0
 10
82.444928397935783
 20
85.321198951334026
 30
0.0
  0
VERTEX
  5
2577
  8
0
  6
CONTINUOUS
 62
     0
 10
82.515754280652075
 20
85.356823506814465
 30
0.0
  0
VERTEX
  5
2578
  8
0
  6
CONTINUOUS
 62
     0
 10
82.65882452229593
 20
85.431768118419996
 30
0.0
  0
VERTEX
  5
2579
  8
0
  6
CONTINUOUS
 62
     0
 10
82.803947907421474
 20
85.511726523312149
 30
0.0
  0
VERTEX
  5
257A
  8
0
  6
CONTINUOUS
 62
     0
 10
82.877341571561686
 20
85.553621523690467
 30
0.0
  0
SEQEND
  5
257B
  8
0
  6
CONTINUOUS
 62
     0
  0
POLYLINE
  5
1BF9
  8
0
  6
CONTINUOUS
 62
     0
 66
     1
 10
0.0
 20
0.0
 30
0.0
  0
VERTEX
  5
257C
  8
0
  6
CONTINUOUS
 62
     0
 10
77.96986428344988
 20
85.553621523690467
 30
0.0
  0
VERTEX
  5
257D
  8
0
  6
CONTINUOUS
 62
     0
 10
78.043257947590035
 20
85.511726523312149
 30
0.0
  0
VERTEX
  5
257E
  8
0
  6
CONTINUOUS
 62
     0
 10
78.188381332715636
 20
85.431768118419996
 30
0.0
  0
VERTEX
  5
257F
  8
0
  6
CONTINUOUS
 62
     0
 10
78.331451574359477
 20
85.356823506814465
 30
0.0
  0
VERTEX
  5
2580
  8
0
  6
CONTINUOUS
 62
     0
 10
78.402277457075769
 20
85.321198951334026
 30
0.0
  0
VERTEX
  5
2581
  8
0
  6
CONTINUOUS
 62
     0
 10
78.472662238582785
 20
85.286790604117755
 30
0.0
  0
VERTEX
  5
2582
  8
0
  6
CONTINUOUS
 62
     0
 10
78.612201993990965
 20
85.221580534855804
 30
0.0
  0
VERTEX
  5
2583
  8
0
  6
CONTINUOUS
 62
     0
 10
78.750255453215942
 20
85.161117257470224
 30
0.0
  0
VERTEX
  5
2584
  8
0
  6
CONTINUOUS
 62
     0
 10
78.887003990032809
 20
85.105337274931088
 30
0.0
  0
VERTEX
  5
2585
  8
0
  6
CONTINUOUS
 62
     0
 10
79.022626539736876
 20
85.054189428705385
 30
0.0
  0
VERTEX
  5
2586
  8
0
  6
CONTINUOUS
 62
     0
 10
79.157300390260872
 20
85.007634774877545
 30
0.0
  0
VERTEX
  5
2587
  8
0
  6
CONTINUOUS
 62
     0
 10
79.224336699519284
 20
84.986071053070447
 30
0.0
  0
VERTEX
  5
2588
  8
0
  6
CONTINUOUS
 62
     0
 10
79.291201971486799
 20
84.965646542250454
 30
0.0
  0
VERTEX
  5
2589
  8
0
  6
CONTINUOUS
 62
     0
 10
79.424507650300797
 20
84.928210173302801
 30
0.0
  0
VERTEX
  5
258A
  8
0
  6
CONTINUOUS
 62
     0
 10
79.55739453916371
 20
84.895323449960244
 30
0.0
  0
VERTEX
  5
258B
  8
0
  6
CONTINUOUS
 62
     0
 10
79.690041326327417
 20
84.866996707279469
 30
0.0
  0
VERTEX
  5
258C
  8
0
  6
CONTINUOUS
 62
     0
 10
79.822629136328004
 20
84.843253139368898
 30
0.0
  0
VERTEX
  5
258D
  8
0
  6
CONTINUOUS
 62
     0
 10
79.955342430054003
 20
84.824129203209253
 30
0.0
  0
VERTEX
  5
258E
  8
0
  6
CONTINUOUS
 62
     0
 10
80.021804922165444
 20
84.816314739347348
 30
0.0
  0
VERTEX
  5
258F
  8
0
  6
CONTINUOUS
 62
     0
 10
80.088369954531785
 20
84.809675127520478
 30
0.0
  0
VERTEX
  5
2590
  8
0
  6
CONTINUOUS
 62
     0
 10
80.221905753625862
 20
84.799955535489204
 30
0.0
  0
VERTEX
  5
2591
  8
0
  6
CONTINUOUS
 62
     0
 10
80.356150252145341
 20
84.795050192068203
 30
0.0
  0
VERTEX
  5
2592
  8
0
  6
CONTINUOUS
 62
     0
 10
80.423602927505755
 20
84.794432145135644
 30
0.0
  0
SEQEND
  5
2593
  8
0
  6
CONTINUOUS
 62
     0
  0
LINE
  5
1BFA
  8
0
  6
CONTINUOUS
 62
     0
 10
77.96986428344988
 20
85.553621523690467
 30
0.0
 11
77.96986428344988
 21
89.03524276658078
 31
0.0
  0
POLYLINE
  5
1BFB
  8
0
  6
CONTINUOUS
 62
     0
 66
     1
 10
0.0
 20
0.0
 30
0.0
  0
VERTEX
  5
2594
  8
0
  6
CONTINUOUS
 62
     0
 10
80.423602927505755
 20
89.794432145135644
 30
0.0
  0
VERTEX
  5
2595
  8
0
  6
CONTINUOUS
 62
     0
 10
80.491055602866226
 20
89.793814098203043
 30
0.0
  0
VERTEX
  5
2596
  8
0
  6
CONTINUOUS
 62
     0
 10
80.625300101385633
 20
89.788908754782057
 30
0.0
  0
VERTEX
  5
2597
  8
0
  6
CONTINUOUS
 62
     0
 10
80.758835900479795
 20
89.779189162750768
 30
0.0
  0
VERTEX
  5
2598
  8
0
  6
CONTINUOUS
 62
     0
 10
80.825400932846065
 20
89.772549550923912
 30
0.0
  0
VERTEX
  5
2599
  8
0
  6
CONTINUOUS
 62
     0
 10
80.891863424957549
 20
89.764735087062007
 30
0.0
  0
VERTEX
  5
259A
  8
0
  6
CONTINUOUS
 62
     0
 10
81.024576718683505
 20
89.745611150902377
 30
0.0
  0
VERTEX
  5
259B
  8
0
  6
CONTINUOUS
 62
     0
 10
81.157164528684106
 20
89.721867582991777
 30
0.0
  0
VERTEX
  5
259C
  8
0
  6
CONTINUOUS
 62
     0
 10
81.289811315847786
 20
89.693540840311016
 30
0.0
  0
VERTEX
  5
259D
  8
0
  6
CONTINUOUS
 62
     0
 10
81.422698204710755
 20
89.660654116968445
 30
0.0
  0
VERTEX
  5
259E
  8
0
  6
CONTINUOUS
 62
     0
 10
81.55600388352471
 20
89.623217748020807
 30
0.0
  0
VERTEX
  5
259F
  8
0
  6
CONTINUOUS
 62
     0
 10
81.622869155492225
 20
89.602793237200814
 30
0.0
  0
VERTEX
  5
25A0
  8
0
  6
CONTINUOUS
 62
     0
 10
81.689905464750694
 20
89.581229515393716
 30
0.0
  0
VERTEX
  5
25A1
  8
0
  6
CONTINUOUS
 62
     0
 10
81.82457931527469
 20
89.534674861565861
 30
0.0
  0
VERTEX
  5
25A2
  8
0
  6
CONTINUOUS
 62
     0
 10
81.9602018649787
 20
89.483527015340186
 30
0.0
  0
VERTEX
  5
25A3
  8
0
  6
CONTINUOUS
 62
     0
 10
82.096950401795624
 20
89.427747032801022
 30
0.0
  0
VERTEX
  5
25A4
  8
0
  6
CONTINUOUS
 62
     0
 10
82.235003861020601
 20
89.367283755415457
 30
0.0
  0
VERTEX
  5
25A5
  8
0
  6
CONTINUOUS
 62
     0
 10
82.374543616428724
 20
89.302073686153506
 30
0.0
  0
VERTEX
  5
25A6
  8
0
  6
CONTINUOUS
 62
     0
 10
82.444928397935783
 20
89.267665338937235
 30
0.0
  0
VERTEX
  5
25A7
  8
0
  6
CONTINUOUS
 62
     0
 10
82.515754280652075
 20
89.232040783456796
 30
0.0
  0
VERTEX
  5
25A8
  8
0
  6
CONTINUOUS
 62
     0
 10
82.65882452229593
 20
89.157096171851265
 30
0.0
  0
VERTEX
  5
25A9
  8
0
  6
CONTINUOUS
 62
     0
 10
82.803947907421474
 20
89.077137766959126
 30
0.0
  0
VERTEX
  5
25AA
  8
0
  6
CONTINUOUS
 62
     0
 10
82.877341571561686
 20
89.03524276658078
 30
0.0
  0
SEQEND
  5
25AB
  8
0
  6
CONTINUOUS
 62
     0
  0
POLYLINE
  5
1BFC
  8
0
  6
CONTINUOUS
 62
     0
 66
     1
 10
0.0
 20
0.0
 30
0.0
  0
VERTEX
  5
25AC
  8
0
  6
CONTINUOUS
 62
     0
 10
77.96986428344988
 20
89.03524276658078
 30
0.0
  0
VERTEX
  5
25AD
  8
0
  6
CONTINUOUS
 62
     0
 10
78.043257947590035
 20
89.077137766959126
 30
0.0
  0
VERTEX
  5
25AE
  8
0
  6
CONTINUOUS
 62
     0
 10
78.188381332715636
 20
89.157096171851265
 30
0.0
  0
VERTEX
  5
25AF
  8
0
  6
CONTINUOUS
 62
     0
 10
78.331451574359477
 20
89.232040783456796
 30
0.0
  0
VERTEX
  5
25B0
  8
0
  6
CONTINUOUS
 62
     0
 10
78.402277457075769
 20
89.267665338937235
 30
0.0
  0
VERTEX
  5
25B1
  8
0
  6
CONTINUOUS
 62
     0
 10
78.472662238582785
 20
89.302073686153506
 30
0.0
  0
VERTEX
  5
25B2
  8
0
  6
CONTINUOUS
 62
     0
 10
78.612201993990965
 20
89.367283755415457
 30
0.0
  0
VERTEX
  5
25B3
  8
0
  6
CONTINUOUS
 62
     0
 10
78.750255453215942
 20
89.427747032801022
 30
0.0
  0
VERTEX
  5
25B4
  8
0
  6
CONTINUOUS
 62
     0
 10
78.887003990032809
 20
89.483527015340186
 30
0.0
  0
VERTEX
  5
25B5
  8
0
  6
CONTINUOUS
 62
     0
 10
79.022626539736876
 20
89.534674861565861
 30
0.0
  0
VERTEX
  5
25B6
  8
0
  6
CONTINUOUS
 62
     0
 10
79.157300390260872
 20
89.581229515393716
 30
0.0
  0
VERTEX
  5
25B7
  8
0
  6
CONTINUOUS
 62
     0
 10
79.224336699519284
 20
89.602793237200814
 30
0.0
  0
VERTEX
  5
25B8
  8
0
  6
CONTINUOUS
 62
     0
 10
79.291201971486799
 20
89.623217748020807
 30
0.0
  0
VERTEX
  5
25B9
  8
0
  6
CONTINUOUS
 62
     0
 10
79.424507650300797
 20
89.660654116968445
 30
0.0
  0
VERTEX
  5
25BA
  8
0
  6
CONTINUOUS
 62
     0
 10
79.55739453916371
 20
89.693540840311016
 30
0.0
  0
VERTEX
  5
25BB
  8
0
  6
CONTINUOUS
 62
     0
 10
79.690041326327417
 20
89.721867582991777
 30
0.0
  0
VERTEX
  5
25BC
  8
0
  6
CONTINUOUS
 62
     0
 10
79.822629136328004
 20
89.745611150902377
 30
0.0
  0
VERTEX
  5
25BD
  8
0
  6
CONTINUOUS
 62
     0
 10
79.955342430053946
 20
89.764735087062007
 30
0.0
  0
VERTEX
  5
25BE
  8
0
  6
CONTINUOUS
 62
     0
 10
80.021804922165444
 20
89.772549550923912
 30
0.0
  0
VERTEX
  5
25BF
  8
0
  6
CONTINUOUS
 62
     0
 10
80.088369954531785
 20
89.779189162750768
 30
0.0
  0
VERTEX
  5
25C0
  8
0
  6
CONTINUOUS
 62
     0
 10
80.221905753625862
 20
89.788908754782057
 30
0.0
  0
VERTEX
  5
25C1
  8
0
  6
CONTINUOUS
 62
     0
 10
80.356150252145341
 20
89.793814098203043
 30
0.0
  0
VERTEX
  5
25C2
  8
0
  6
CONTINUOUS
 62
     0
 10
80.423602927505755
 20
89.794432145135644
 30
0.0
  0
SEQEND
  5
25C3
  8
0
  6
CONTINUOUS
 62
     0
  0
POLYLINE
  5
1BFD
  8
0
  6
CONTINUOUS
 62
     0
 66
     1
 10
0.0
 20
0.0
 30
0.0
  0
VERTEX
  5
25C4
  8
0
  6
CONTINUOUS
 62
     0
 10
80.423602927505755
 20
84.794432145135644
 30
0.0
  0
VERTEX
  5
25C5
  8
0
  6
CONTINUOUS
 62
     0
 10
80.356150252145341
 20
84.795050192068203
 30
0.0
  0
VERTEX
  5
25C6
  8
0
  6
CONTINUOUS
 62
     0
 10
80.221905753625862
 20
84.799955535489204
 30
0.0
  0
VERTEX
  5
25C7
  8
0
  6
CONTINUOUS
 62
     0
 10
80.088369954531714
 20
84.809675127520478
 30
0.0
  0
VERTEX
  5
25C8
  8
0
  6
CONTINUOUS
 62
     0
 10
80.021804922165444
 20
84.816314739347348
 30
0.0
  0
VERTEX
  5
25C9
  8
0
  6
CONTINUOUS
 62
     0
 10
79.955342430053946
 20
84.824129203209253
 30
0.0
  0
VERTEX
  5
25CA
  8
0
  6
CONTINUOUS
 62
     0
 10
79.822629136328004
 20
84.843253139368898
 30
0.0
  0
VERTEX
  5
25CB
  8
0
  6
CONTINUOUS
 62
     0
 10
79.690041326327417
 20
84.866996707279469
 30
0.0
  0
VERTEX
  5
25CC
  8
0
  6
CONTINUOUS
 62
     0
 10
79.55739453916371
 20
84.895323449960244
 30
0.0
  0
VERTEX
  5
25CD
  8
0
  6
CONTINUOUS
 62
     0
 10
79.424507650300797
 20
84.928210173302801
 30
0.0
  0
VERTEX
  5
25CE
  8
0
  6
CONTINUOUS
 62
     0
 10
79.291201971486799
 20
84.965646542250454
 30
0.0
  0
VERTEX
  5
25CF
  8
0
  6
CONTINUOUS
 62
     0
 10
79.224336699519284
 20
84.986071053070447
 30
0.0
  0
VERTEX
  5
25D0
  8
0
  6
CONTINUOUS
 62
     0
 10
79.157300390260872
 20
85.007634774877545
 30
0.0
  0
VERTEX
  5
25D1
  8
0
  6
CONTINUOUS
 62
     0
 10
79.022626539736876
 20
85.054189428705385
 30
0.0
  0
VERTEX
  5
25D2
  8
0
  6
CONTINUOUS
 62
     0
 10
78.887003990032809
 20
85.105337274931088
 30
0.0
  0
VERTEX
  5
25D3
  8
0
  6
CONTINUOUS
 62
     0
 10
78.750255453215942
 20
85.161117257470224
 30
0.0
  0
VERTEX
  5
25D4
  8
0
  6
CONTINUOUS
 62
     0
 10
78.612201993990965
 20
85.221580534855804
 30
0.0
  0
VERTEX
  5
25D5
  8
0
  6
CONTINUOUS
 62
     0
 10
78.472662238582785
 20
85.286790604117755
 30
0.0
  0
VERTEX
  5
25D6
  8
0
  6
CONTINUOUS
 62
     0
 10
78.402277457075769
 20
85.321198951334026
 30
0.0
  0
VERTEX
  5
25D7
  8
0
  6
CONTINUOUS
 62
     0
 10
78.331451574359477
 20
85.356823506814465
 30
0.0
  0
VERTEX
  5
25D8
  8
0
  6
CONTINUOUS
 62
     0
 10
78.188381332715636
 20
85.431768118419996
 30
0.0
  0
VERTEX
  5
25D9
  8
0
  6
CONTINUOUS
 62
     0
 10
78.043257947590035
 20
85.511726523312149
 30
0.0
  0
VERTEX
  5
25DA
  8
0
  6
CONTINUOUS
 62
     0
 10
77.96986428344988
 20
85.553621523690467
 30
0.0
  0
SEQEND
  5
25DB
  8
0
  6
CONTINUOUS
 62
     0
  0
POLYLINE
  5
1BFE
  8
0
  6
CONTINUOUS
 62
     0
 66
     1
 10
0.0
 20
0.0
 30
0.0
  0
VERTEX
  5
25DC
  8
0
  6
CONTINUOUS
 62
     0
 10
82.877341571561686
 20
85.553621523690467
 30
0.0
  0
VERTEX
  5
25DD
  8
0
  6
CONTINUOUS
 62
     0
 10
82.803947907421474
 20
85.511726523312149
 30
0.0
  0
VERTEX
  5
25DE
  8
0
  6
CONTINUOUS
 62
     0
 10
82.65882452229593
 20
85.431768118419996
 30
0.0
  0
VERTEX
  5
25DF
  8
0
  6
CONTINUOUS
 62
     0
 10
82.515754280652075
 20
85.356823506814465
 30
0.0
  0
VERTEX
  5
25E0
  8
0
  6
CONTINUOUS
 62
     0
 10
82.444928397935783
 20
85.321198951334026
 30
0.0
  0
VERTEX
  5
25E1
  8
0
  6
CONTINUOUS
 62
     0
 10
82.374543616428724
 20
85.286790604117755
 30
0.0
  0
VERTEX
  5
25E2
  8
0
  6
CONTINUOUS
 62
     0
 10
82.235003861020601
 20
85.221580534855804
 30
0.0
  0
VERTEX
  5
25E3
  8
0
  6
CONTINUOUS
 62
     0
 10
82.096950401795624
 20
85.161117257470224
 30
0.0
  0
VERTEX
  5
25E4
  8
0
  6
CONTINUOUS
 62
     0
 10
81.9602018649787
 20
85.105337274931088
 30
0.0
  0
VERTEX
  5
25E5
  8
0
  6
CONTINUOUS
 62
     0
 10
81.82457931527469
 20
85.054189428705385
 30
0.0
  0
VERTEX
  5
25E6
  8
0
  6
CONTINUOUS
 62
     0
 10
81.689905464750694
 20
85.007634774877545
 30
0.0
  0
VERTEX
  5
25E7
  8
0
  6
CONTINUOUS
 62
     0
 10
81.622869155492225
 20
84.986071053070447
 30
0.0
  0
VERTEX
  5
25E8
  8
0
  6
CONTINUOUS
 62
     0
 10
81.55600388352471
 20
84.965646542250454
 30
0.0
  0
VERTEX
  5
25E9
  8
0
  6
CONTINUOUS
 62
     0
 10
81.422698204710755
 20
84.928210173302801
 30
0.0
  0
VERTEX
  5
25EA
  8
0
  6
CONTINUOUS
 62
     0
 10
81.289811315847786
 20
84.895323449960244
 30
0.0
  0
VERTEX
  5
25EB
  8
0
  6
CONTINUOUS
 62
     0
 10
81.157164528684106
 20
84.866996707279469
 30
0.0
  0
VERTEX
  5
25EC
  8
0
  6
CONTINUOUS
 62
     0
 10
81.024576718683505
 20
84.843253139368898
 30
0.0
  0
VERTEX
  5
25ED
  8
0
  6
CONTINUOUS
 62
     0
 10
80.891863424957549
 20
84.824129203209253
 30
0.0
  0
VERTEX
  5
25EE
  8
0
  6
CONTINUOUS
 62
     0
 10
80.825400932846065
 20
84.816314739347348
 30
0.0
  0
VERTEX
  5
25EF
  8
0
  6
CONTINUOUS
 62
     0
 10
80.758835900479795
 20
84.809675127520478
 30
0.0
  0
VERTEX
  5
25F0
  8
0
  6
CONTINUOUS
 62
     0
 10
80.625300101385633
 20
84.799955535489204
 30
0.0
  0
VERTEX
  5
25F1
  8
0
  6
CONTINUOUS
 62
     0
 10
80.491055602866169
 20
84.795050192068203
 30
0.0
  0
VERTEX
  5
25F2
  8
0
  6
CONTINUOUS
 62
     0
 10
80.423602927505755
 20
84.794432145135644
 30
0.0
  0
SEQEND
  5
25F3
  8
0
  6
CONTINUOUS
 62
     0
  0
LINE
  5
1BFF
  8
0
  6
CONTINUOUS
 62
     0
 10
96.284818859673493
 20
89.794432145135644
 30
0.0
 11
79.284818859673493
 21
89.794432145135644
 31
0.0
  0
LINE
  5
1C00
  8
0
  6
CONTINUOUS
 62
     0
 10
96.284818859673493
 20
84.794432145135644
 30
0.0
 11
79.284818859673493
 21
84.794432145135644
 31
0.0
  0
LINE
  5
1C03
  8
0
  6
CONTINUOUS
 62
     0
 10
79.284818859673493
 20
89.794432145135644
 30
0.0
 11
77.96986428344988
 21
89.03524276658078
 31
0.0
  0
LINE
  5
1C04
  8
0
  6
CONTINUOUS
 62
     0
 10
97.599773435897106
 20
89.03524276658078
 30
0.0
 11
96.284818859673493
 21
89.794432145135644
 31
0.0
  0
LINE
  5
1C05
  8
0
  6
CONTINUOUS
 62
     0
 10
77.96986428344988
 20
85.553621523690467
 30
0.0
 11
79.284818859673493
 21
84.794432145135644
 31
0.0
  0
LINE
  5
1C06
  8
0
  6
CONTINUOUS
 62
     0
 10
96.284818859673493
 20
84.794432145135644
 30
0.0
 11
97.599773435897106
 21
85.553621523690467
 31
0.0
  0
LINE
  5
1C16
  8
0
  6
CONTINUOUS
 62
     0
 10
178.4216184422028
 20
84.794432145135644
 30
0.0
 11
161.4216184422028
 21
84.794432145135644
 31
0.0
  0
LINE
  5
1C17
  8
0
  6
CONTINUOUS
 62
     0
 10
178.4216184422028
 20
89.794432145135644
 30
0.0
 11
161.4216184422028
 21
89.794432145135644
 31
0.0
  0
POLYLINE
  5
1C18
  8
0
  6
CONTINUOUS
 62
     0
 66
     1
 10
0.0
 20
0.0
 30
0.0
  0
VERTEX
  5
25F4
  8
0
  6
CONTINUOUS
 62
     0
 10
161.4216184422028
 20
85.553621523690467
 30
0.0
  0
VERTEX
  5
25F5
  8
0
  6
CONTINUOUS
 62
     0
 10
161.5487399974472
 20
85.511726523312149
 30
0.0
  0
VERTEX
  5
25F6
  8
0
  6
CONTINUOUS
 62
     0
 10
161.8001010738511
 20
85.431768118419996
 30
0.0
  0
VERTEX
  5
25F7
  8
0
  6
CONTINUOUS
 62
     0
 10
162.0479060014294
 20
85.356823506814465
 30
0.0
  0
VERTEX
  5
25F8
  8
0
  6
CONTINUOUS
 62
     0
 10
162.17058002878491
 20
85.321198951334026
 30
0.0
  0
VERTEX
  5
25F9
  8
0
  6
CONTINUOUS
 62
     0
 10
162.29249004643469
 20
85.286790604117755
 30
0.0
  0
VERTEX
  5
25FA
  8
0
  6
CONTINUOUS
 62
     0
 10
162.53417999247739
 20
85.221580534855804
 30
0.0
  0
VERTEX
  5
25FB
  8
0
  6
CONTINUOUS
 62
     0
 10
162.77329559801581
 20
85.161117257470224
 30
0.0
  0
VERTEX
  5
25FC
  8
0
  6
CONTINUOUS
 62
     0
 10
163.0101510116433
 20
85.105337274931088
 30
0.0
  0
VERTEX
  5
25FD
  8
0
  6
CONTINUOUS
 62
     0
 10
163.24505615838271
 20
85.054189428705385
 30
0.0
  0
VERTEX
  5
25FE
  8
0
  6
CONTINUOUS
 62
     0
 10
163.4783181099412
 20
85.007634774877545
 30
0.0
  0
VERTEX
  5
25FF
  8
0
  6
CONTINUOUS
 62
     0
 10
163.5944284035287
 20
84.986071053070447
 30
0.0
  0
VERTEX
  5
2600
  8
0
  6
CONTINUOUS
 62
     0
 10
163.7102424518383
 20
84.965646542250454
 30
0.0
  0
VERTEX
  5
2601
  8
0
  6
CONTINUOUS
 62
     0
 10
163.94113466048159
 20
84.928210173302801
 30
0.0
  0
VERTEX
  5
2602
  8
0
  6
CONTINUOUS
 62
     0
 10
164.17130150365199
 20
84.895323449960244
 30
0.0
  0
VERTEX
  5
2603
  8
0
  6
CONTINUOUS
 62
     0
 10
164.4010524784803
 20
84.866996707279469
 30
0.0
  0
VERTEX
  5
2604
  8
0
  6
CONTINUOUS
 62
     0
 10
164.6307013018656
 20
84.843253139368898
 30
0.0
  0
VERTEX
  5
2605
  8
0
  6
CONTINUOUS
 62
     0
 10
164.86056746943879
 20
84.824129203209253
 30
0.0
  0
VERTEX
  5
2606
  8
0
  6
CONTINUOUS
 62
     0
 10
164.97568388257349
 20
84.816314739347348
 30
0.0
  0
VERTEX
  5
2607
  8
0
  6
CONTINUOUS
 62
     0
 10
165.09097790063939
 20
84.809675127520478
 30
0.0
  0
VERTEX
  5
2608
  8
0
  6
CONTINUOUS
 62
     0
 10
165.3222686892997
 20
84.799955535489204
 30
0.0
  0
VERTEX
  5
2609
  8
0
  6
CONTINUOUS
 62
     0
 10
165.55478698137199
 20
84.795050192068203
 30
0.0
  0
VERTEX
  5
260A
  8
0
  6
CONTINUOUS
 62
     0
 10
165.6716184422028
 20
84.794432145135644
 30
0.0
  0
SEQEND
  5
260B
  8
0
  6
CONTINUOUS
 62
     0
  0
POLYLINE
  5
1C19
  8
0
  6
CONTINUOUS
 62
     0
 66
     1
 10
0.0
 20
0.0
 30
0.0
  0
VERTEX
  5
260C
  8
0
  6
CONTINUOUS
 62
     0
 10
165.6716184422028
 20
84.794432145135644
 30
0.0
  0
VERTEX
  5
260D
  8
0
  6
CONTINUOUS
 62
     0
 10
165.7884499030335
 20
84.795050192068203
 30
0.0
  0
VERTEX
  5
260E
  8
0
  6
CONTINUOUS
 62
     0
 10
166.02096819510581
 20
84.799955535489204
 30
0.0
  0
VERTEX
  5
260F
  8
0
  6
CONTINUOUS
 62
     0
 10
166.2522589837661
 20
84.809675127520478
 30
0.0
  0
VERTEX
  5
2610
  8
0
  6
CONTINUOUS
 62
     0
 10
166.36755300183211
 20
84.816314739347348
 30
0.0
  0
VERTEX
  5
2611
  8
0
  6
CONTINUOUS
 62
     0
 10
166.48266941496681
 20
84.824129203209253
 30
0.0
  0
VERTEX
  5
2612
  8
0
  6
CONTINUOUS
 62
     0
 10
166.71253558253991
 20
84.843253139368898
 30
0.0
  0
VERTEX
  5
2613
  8
0
  6
CONTINUOUS
 62
     0
 10
166.94218440592519
 20
84.866996707279469
 30
0.0
  0
VERTEX
  5
2614
  8
0
  6
CONTINUOUS
 62
     0
 10
167.17193538075361
 20
84.895323449960244
 30
0.0
  0
VERTEX
  5
2615
  8
0
  6
CONTINUOUS
 62
     0
 10
167.40210222392389
 20
84.928210173302801
 30
0.0
  0
VERTEX
  5
2616
  8
0
  6
CONTINUOUS
 62
     0
 10
167.63299443256719
 20
84.965646542250454
 30
0.0
  0
VERTEX
  5
2617
  8
0
  6
CONTINUOUS
 62
     0
 10
167.7488084808769
 20
84.986071053070447
 30
0.0
  0
VERTEX
  5
2618
  8
0
  6
CONTINUOUS
 62
     0
 10
167.86491877446429
 20
85.007634774877545
 30
0.0
  0
VERTEX
  5
2619
  8
0
  6
CONTINUOUS
 62
     0
 10
168.09818072602289
 20
85.054189428705385
 30
0.0
  0
VERTEX
  5
261A
  8
0
  6
CONTINUOUS
 62
     0
 10
168.3330858727623
 20
85.105337274931088
 30
0.0
  0
VERTEX
  5
261B
  8
0
  6
CONTINUOUS
 62
     0
 10
168.56994128638991
 20
85.161117257470224
 30
0.0
  0
VERTEX
  5
261C
  8
0
  6
CONTINUOUS
 62
     0
 10
168.80905689192821
 20
85.221580534855804
 30
0.0
  0
VERTEX
  5
261D
  8
0
  6
CONTINUOUS
 62
     0
 10
169.05074683797079
 20
85.286790604117755
 30
0.0
  0
VERTEX
  5
261E
  8
0
  6
CONTINUOUS
 62
     0
 10
169.1726568556206
 20
85.321198951334026
 30
0.0
  0
VERTEX
  5
261F
  8
0
  6
CONTINUOUS
 62
     0
 10
169.29533088297609
 20
85.356823506814465
 30
0.0
  0
VERTEX
  5
2620
  8
0
  6
CONTINUOUS
 62
     0
 10
169.5431358105545
 20
85.431768118419996
 30
0.0
  0
VERTEX
  5
2621
  8
0
  6
CONTINUOUS
 62
     0
 10
169.79449688695831
 20
85.511726523312149
 30
0.0
  0
VERTEX
  5
2622
  8
0
  6
CONTINUOUS
 62
     0
 10
169.9216184422028
 20
85.553621523690467
 30
0.0
  0
SEQEND
  5
2623
  8
0
  6
CONTINUOUS
 62
     0
  0
POLYLINE
  5
1C1A
  8
0
  6
CONTINUOUS
 62
     0
 66
     1
 10
0.0
 20
0.0
 30
0.0
  0
VERTEX
  5
2624
  8
0
  6
CONTINUOUS
 62
     0
 10
169.9216184422028
 20
89.03524276658078
 30
0.0
  0
VERTEX
  5
2625
  8
0
  6
CONTINUOUS
 62
     0
 10
169.79449688695831
 20
89.077137766959126
 30
0.0
  0
VERTEX
  5
2626
  8
0
  6
CONTINUOUS
 62
     0
 10
169.5431358105545
 20
89.157096171851265
 30
0.0
  0
VERTEX
  5
2627
  8
0
  6
CONTINUOUS
 62
     0
 10
169.29533088297609
 20
89.232040783456796
 30
0.0
  0
VERTEX
  5
2628
  8
0
  6
CONTINUOUS
 62
     0
 10
169.1726568556206
 20
89.267665338937235
 30
0.0
  0
VERTEX
  5
2629
  8
0
  6
CONTINUOUS
 62
     0
 10
169.05074683797079
 20
89.302073686153506
 30
0.0
  0
VERTEX
  5
262A
  8
0
  6
CONTINUOUS
 62
     0
 10
168.80905689192821
 20
89.367283755415457
 30
0.0
  0
VERTEX
  5
262B
  8
0
  6
CONTINUOUS
 62
     0
 10
168.56994128638991
 20
89.427747032801022
 30
0.0
  0
VERTEX
  5
262C
  8
0
  6
CONTINUOUS
 62
     0
 10
168.3330858727623
 20
89.483527015340186
 30
0.0
  0
VERTEX
  5
262D
  8
0
  6
CONTINUOUS
 62
     0
 10
168.09818072602289
 20
89.534674861565861
 30
0.0
  0
VERTEX
  5
262E
  8
0
  6
CONTINUOUS
 62
     0
 10
167.86491877446429
 20
89.581229515393716
 30
0.0
  0
VERTEX
  5
262F
  8
0
  6
CONTINUOUS
 62
     0
 10
167.7488084808769
 20
89.602793237200814
 30
0.0
  0
VERTEX
  5
2630
  8
0
  6
CONTINUOUS
 62
     0
 10
167.63299443256719
 20
89.623217748020807
 30
0.0
  0
VERTEX
  5
2631
  8
0
  6
CONTINUOUS
 62
     0
 10
167.40210222392389
 20
89.660654116968445
 30
0.0
  0
VERTEX
  5
2632
  8
0
  6
CONTINUOUS
 62
     0
 10
167.17193538075361
 20
89.693540840311016
 30
0.0
  0
VERTEX
  5
2633
  8
0
  6
CONTINUOUS
 62
     0
 10
166.94218440592519
 20
89.721867582991777
 30
0.0
  0
VERTEX
  5
2634
  8
0
  6
CONTINUOUS
 62
     0
 10
166.71253558253991
 20
89.745611150902377
 30
0.0
  0
VERTEX
  5
2635
  8
0
  6
CONTINUOUS
 62
     0
 10
166.48266941496669
 20
89.764735087062007
 30
0.0
  0
VERTEX
  5
2636
  8
0
  6
CONTINUOUS
 62
     0
 10
166.36755300183211
 20
89.772549550923912
 30
0.0
  0
VERTEX
  5
2637
  8
0
  6
CONTINUOUS
 62
     0
 10
166.2522589837661
 20
89.779189162750768
 30
0.0
  0
VERTEX
  5
2638
  8
0
  6
CONTINUOUS
 62
     0
 10
166.02096819510581
 20
89.788908754782057
 30
0.0
  0
VERTEX
  5
2639
  8
0
  6
CONTINUOUS
 62
     0
 10
165.7884499030335
 20
89.793814098203043
 30
0.0
  0
VERTEX
  5
263A
  8
0
  6
CONTINUOUS
 62
     0
 10
165.6716184422028
 20
89.794432145135644
 30
0.0
  0
SEQEND
  5
263B
  8
0
  6
CONTINUOUS
 62
     0
  0
POLYLINE
  5
1C1B
  8
0
  6
CONTINUOUS
 62
     0
 66
     1
 10
0.0
 20
0.0
 30
0.0
  0
VERTEX
  5
263C
  8
0
  6
CONTINUOUS
 62
     0
 10
165.6716184422028
 20
89.794432145135644
 30
0.0
  0
VERTEX
  5
263D
  8
0
  6
CONTINUOUS
 62
     0
 10
165.55478698137199
 20
89.793814098203043
 30
0.0
  0
VERTEX
  5
263E
  8
0
  6
CONTINUOUS
 62
     0
 10
165.3222686892997
 20
89.788908754782057
 30
0.0
  0
VERTEX
  5
263F
  8
0
  6
CONTINUOUS
 62
     0
 10
165.09097790063939
 20
89.779189162750768
 30
0.0
  0
VERTEX
  5
2640
  8
0
  6
CONTINUOUS
 62
     0
 10
164.97568388257349
 20
89.772549550923912
 30
0.0
  0
VERTEX
  5
2641
  8
0
  6
CONTINUOUS
 62
     0
 10
164.86056746943879
 20
89.764735087062007
 30
0.0
  0
VERTEX
  5
2642
  8
0
  6
CONTINUOUS
 62
     0
 10
164.6307013018656
 20
89.745611150902377
 30
0.0
  0
VERTEX
  5
2643
  8
0
  6
CONTINUOUS
 62
     0
 10
164.4010524784803
 20
89.721867582991777
 30
0.0
  0
VERTEX
  5
2644
  8
0
  6
CONTINUOUS
 62
     0
 10
164.17130150365199
 20
89.693540840311016
 30
0.0
  0
VERTEX
  5
2645
  8
0
  6
CONTINUOUS
 62
     0
 10
163.94113466048159
 20
89.660654116968445
 30
0.0
  0
VERTEX
  5
2646
  8
0
  6
CONTINUOUS
 62
     0
 10
163.7102424518383
 20
89.623217748020807
 30
0.0
  0
VERTEX
  5
2647
  8
0
  6
CONTINUOUS
 62
     0
 10
163.5944284035287
 20
89.602793237200814
 30
0.0
  0
VERTEX
  5
2648
  8
0
  6
CONTINUOUS
 62
     0
 10
163.4783181099412
 20
89.581229515393716
 30
0.0
  0
VERTEX
  5
2649
  8
0
  6
CONTINUOUS
 62
     0
 10
163.24505615838271
 20
89.534674861565861
 30
0.0
  0
VERTEX
  5
264A
  8
0
  6
CONTINUOUS
 62
     0
 10
163.0101510116433
 20
89.483527015340186
 30
0.0
  0
VERTEX
  5
264B
  8
0
  6
CONTINUOUS
 62
     0
 10
162.77329559801569
 20
89.427747032801022
 30
0.0
  0
VERTEX
  5
264C
  8
0
  6
CONTINUOUS
 62
     0
 10
162.53417999247739
 20
89.367283755415457
 30
0.0
  0
VERTEX
  5
264D
  8
0
  6
CONTINUOUS
 62
     0
 10
162.29249004643469
 20
89.302073686153506
 30
0.0
  0
VERTEX
  5
264E
  8
0
  6
CONTINUOUS
 62
     0
 10
162.17058002878491
 20
89.267665338937235
 30
0.0
  0
VERTEX
  5
264F
  8
0
  6
CONTINUOUS
 62
     0
 10
162.0479060014294
 20
89.232040783456796
 30
0.0
  0
VERTEX
  5
2650
  8
0
  6
CONTINUOUS
 62
     0
 10
161.8001010738511
 20
89.157096171851265
 30
0.0
  0
VERTEX
  5
2651
  8
0
  6
CONTINUOUS
 62
     0
 10
161.5487399974472
 20
89.077137766959126
 30
0.0
  0
VERTEX
  5
2652
  8
0
  6
CONTINUOUS
 62
     0
 10
161.4216184422028
 20
89.03524276658078
 30
0.0
  0
SEQEND
  5
2653
  8
0
  6
CONTINUOUS
 62
     0
  0
POLYLINE
  5
1C1C
  8
0
  6
CONTINUOUS
 62
     0
 66
     1
 10
0.0
 20
0.0
 30
0.0
  0
VERTEX
  5
2654
  8
0
  6
CONTINUOUS
 62
     0
 10
169.9216184422028
 20
85.553621523690467
 30
0.0
  0
VERTEX
  5
2655
  8
0
  6
CONTINUOUS
 62
     0
 10
170.0487399974472
 20
85.511726523312149
 30
0.0
  0
VERTEX
  5
2656
  8
0
  6
CONTINUOUS
 62
     0
 10
170.3001010738511
 20
85.431768118419996
 30
0.0
  0
VERTEX
  5
2657
  8
0
  6
CONTINUOUS
 62
     0
 10
170.5479060014294
 20
85.356823506814465
 30
0.0
  0
VERTEX
  5
2658
  8
0
  6
CONTINUOUS
 62
     0
 10
170.67058002878491
 20
85.321198951334026
 30
0.0
  0
VERTEX
  5
2659
  8
0
  6
CONTINUOUS
 62
     0
 10
170.79249004643469
 20
85.286790604117755
 30
0.0
  0
VERTEX
  5
265A
  8
0
  6
CONTINUOUS
 62
     0
 10
171.03417999247739
 20
85.221580534855804
 30
0.0
  0
VERTEX
  5
265B
  8
0
  6
CONTINUOUS
 62
     0
 10
171.27329559801569
 20
85.161117257470224
 30
0.0
  0
VERTEX
  5
265C
  8
0
  6
CONTINUOUS
 62
     0
 10
171.5101510116433
 20
85.105337274931088
 30
0.0
  0
VERTEX
  5
265D
  8
0
  6
CONTINUOUS
 62
     0
 10
171.74505615838271
 20
85.054189428705385
 30
0.0
  0
VERTEX
  5
265E
  8
0
  6
CONTINUOUS
 62
     0
 10
171.9783181099412
 20
85.007634774877545
 30
0.0
  0
VERTEX
  5
265F
  8
0
  6
CONTINUOUS
 62
     0
 10
172.0944284035287
 20
84.986071053070447
 30
0.0
  0
VERTEX
  5
2660
  8
0
  6
CONTINUOUS
 62
     0
 10
172.2102424518383
 20
84.965646542250454
 30
0.0
  0
VERTEX
  5
2661
  8
0
  6
CONTINUOUS
 62
     0
 10
172.44113466048159
 20
84.928210173302801
 30
0.0
  0
VERTEX
  5
2662
  8
0
  6
CONTINUOUS
 62
     0
 10
172.67130150365199
 20
84.895323449960244
 30
0.0
  0
VERTEX
  5
2663
  8
0
  6
CONTINUOUS
 62
     0
 10
172.9010524784803
 20
84.866996707279469
 30
0.0
  0
VERTEX
  5
2664
  8
0
  6
CONTINUOUS
 62
     0
 10
173.1307013018656
 20
84.843253139368898
 30
0.0
  0
VERTEX
  5
2665
  8
0
  6
CONTINUOUS
 62
     0
 10
173.36056746943879
 20
84.824129203209253
 30
0.0
  0
VERTEX
  5
2666
  8
0
  6
CONTINUOUS
 62
     0
 10
173.47568388257349
 20
84.816314739347348
 30
0.0
  0
VERTEX
  5
2667
  8
0
  6
CONTINUOUS
 62
     0
 10
173.59097790063939
 20
84.809675127520478
 30
0.0
  0
VERTEX
  5
2668
  8
0
  6
CONTINUOUS
 62
     0
 10
173.8222686892997
 20
84.799955535489204
 30
0.0
  0
VERTEX
  5
2669
  8
0
  6
CONTINUOUS
 62
     0
 10
174.0547869813721
 20
84.795050192068203
 30
0.0
  0
VERTEX
  5
266A
  8
0
  6
CONTINUOUS
 62
     0
 10
174.1716184422028
 20
84.794432145135644
 30
0.0
  0
SEQEND
  5
266B
  8
0
  6
CONTINUOUS
 62
     0
  0
POLYLINE
  5
1C1D
  8
0
  6
CONTINUOUS
 62
     0
 66
     1
 10
0.0
 20
0.0
 30
0.0
  0
VERTEX
  5
266C
  8
0
  6
CONTINUOUS
 62
     0
 10
174.1716184422028
 20
84.794432145135644
 30
0.0
  0
VERTEX
  5
266D
  8
0
  6
CONTINUOUS
 62
     0
 10
174.2884499030335
 20
84.795050192068203
 30
0.0
  0
VERTEX
  5
266E
  8
0
  6
CONTINUOUS
 62
     0
 10
174.52096819510581
 20
84.799955535489204
 30
0.0
  0
VERTEX
  5
266F
  8
0
  6
CONTINUOUS
 62
     0
 10
174.7522589837661
 20
84.809675127520478
 30
0.0
  0
VERTEX
  5
2670
  8
0
  6
CONTINUOUS
 62
     0
 10
174.86755300183211
 20
84.816314739347348
 30
0.0
  0
VERTEX
  5
2671
  8
0
  6
CONTINUOUS
 62
     0
 10
174.98266941496669
 20
84.824129203209253
 30
0.0
  0
VERTEX
  5
2672
  8
0
  6
CONTINUOUS
 62
     0
 10
175.21253558253991
 20
84.843253139368898
 30
0.0
  0
VERTEX
  5
2673
  8
0
  6
CONTINUOUS
 62
     0
 10
175.44218440592519
 20
84.866996707279469
 30
0.0
  0
VERTEX
  5
2674
  8
0
  6
CONTINUOUS
 62
     0
 10
175.67193538075361
 20
84.895323449960244
 30
0.0
  0
VERTEX
  5
2675
  8
0
  6
CONTINUOUS
 62
     0
 10
175.90210222392389
 20
84.928210173302801
 30
0.0
  0
VERTEX
  5
2676
  8
0
  6
CONTINUOUS
 62
     0
 10
176.13299443256719
 20
84.965646542250454
 30
0.0
  0
VERTEX
  5
2677
  8
0
  6
CONTINUOUS
 62
     0
 10
176.24880848087679
 20
84.986071053070447
 30
0.0
  0
VERTEX
  5
2678
  8
0
  6
CONTINUOUS
 62
     0
 10
176.3649187744644
 20
85.007634774877545
 30
0.0
  0
VERTEX
  5
2679
  8
0
  6
CONTINUOUS
 62
     0
 10
176.59818072602289
 20
85.054189428705385
 30
0.0
  0
VERTEX
  5
267A
  8
0
  6
CONTINUOUS
 62
     0
 10
176.83308587276221
 20
85.105337274931088
 30
0.0
  0
VERTEX
  5
267B
  8
0
  6
CONTINUOUS
 62
     0
 10
177.06994128638991
 20
85.161117257470224
 30
0.0
  0
VERTEX
  5
267C
  8
0
  6
CONTINUOUS
 62
     0
 10
177.30905689192821
 20
85.221580534855804
 30
0.0
  0
VERTEX
  5
267D
  8
0
  6
CONTINUOUS
 62
     0
 10
177.55074683797079
 20
85.286790604117755
 30
0.0
  0
VERTEX
  5
267E
  8
0
  6
CONTINUOUS
 62
     0
 10
177.6726568556206
 20
85.321198951334026
 30
0.0
  0
VERTEX
  5
267F
  8
0
  6
CONTINUOUS
 62
     0
 10
177.7953308829762
 20
85.356823506814465
 30
0.0
  0
VERTEX
  5
2680
  8
0
  6
CONTINUOUS
 62
     0
 10
178.0431358105545
 20
85.431768118419996
 30
0.0
  0
VERTEX
  5
2681
  8
0
  6
CONTINUOUS
 62
     0
 10
178.29449688695831
 20
85.511726523312149
 30
0.0
  0
VERTEX
  5
2682
  8
0
  6
CONTINUOUS
 62
     0
 10
178.4216184422028
 20
85.553621523690467
 30
0.0
  0
SEQEND
  5
2683
  8
0
  6
CONTINUOUS
 62
     0
  0
POLYLINE
  5
1C1E
  8
0
  6
CONTINUOUS
 62
     0
 66
     1
 10
0.0
 20
0.0
 30
0.0
  0
VERTEX
  5
2684
  8
0
  6
CONTINUOUS
 62
     0
 10
178.4216184422028
 20
89.03524276658078
 30
0.0
  0
VERTEX
  5
2685
  8
0
  6
CONTINUOUS
 62
     0
 10
178.29449688695831
 20
89.077137766959126
 30
0.0
  0
VERTEX
  5
2686
  8
0
  6
CONTINUOUS
 62
     0
 10
178.04313581055439
 20
89.157096171851265
 30
0.0
  0
VERTEX
  5
2687
  8
0
  6
CONTINUOUS
 62
     0
 10
177.7953308829762
 20
89.232040783456796
 30
0.0
  0
VERTEX
  5
2688
  8
0
  6
CONTINUOUS
 62
     0
 10
177.6726568556206
 20
89.267665338937235
 30
0.0
  0
VERTEX
  5
2689
  8
0
  6
CONTINUOUS
 62
     0
 10
177.55074683797079
 20
89.302073686153506
 30
0.0
  0
VERTEX
  5
268A
  8
0
  6
CONTINUOUS
 62
     0
 10
177.30905689192821
 20
89.367283755415457
 30
0.0
  0
VERTEX
  5
268B
  8
0
  6
CONTINUOUS
 62
     0
 10
177.06994128638979
 20
89.427747032801022
 30
0.0
  0
VERTEX
  5
268C
  8
0
  6
CONTINUOUS
 62
     0
 10
176.83308587276221
 20
89.483527015340186
 30
0.0
  0
VERTEX
  5
268D
  8
0
  6
CONTINUOUS
 62
     0
 10
176.59818072602289
 20
89.534674861565861
 30
0.0
  0
VERTEX
  5
268E
  8
0
  6
CONTINUOUS
 62
     0
 10
176.3649187744644
 20
89.581229515393716
 30
0.0
  0
VERTEX
  5
268F
  8
0
  6
CONTINUOUS
 62
     0
 10
176.24880848087679
 20
89.602793237200814
 30
0.0
  0
VERTEX
  5
2690
  8
0
  6
CONTINUOUS
 62
     0
 10
176.1329944325671
 20
89.623217748020807
 30
0.0
  0
VERTEX
  5
2691
  8
0
  6
CONTINUOUS
 62
     0
 10
175.90210222392389
 20
89.660654116968445
 30
0.0
  0
VERTEX
  5
2692
  8
0
  6
CONTINUOUS
 62
     0
 10
175.67193538075361
 20
89.693540840311016
 30
0.0
  0
VERTEX
  5
2693
  8
0
  6
CONTINUOUS
 62
     0
 10
175.44218440592519
 20
89.721867582991777
 30
0.0
  0
VERTEX
  5
2694
  8
0
  6
CONTINUOUS
 62
     0
 10
175.21253558253991
 20
89.745611150902377
 30
0.0
  0
VERTEX
  5
2695
  8
0
  6
CONTINUOUS
 62
     0
 10
174.98266941496669
 20
89.764735087062007
 30
0.0
  0
VERTEX
  5
2696
  8
0
  6
CONTINUOUS
 62
     0
 10
174.86755300183211
 20
89.772549550923912
 30
0.0
  0
VERTEX
  5
2697
  8
0
  6
CONTINUOUS
 62
     0
 10
174.7522589837661
 20
89.779189162750768
 30
0.0
  0
VERTEX
  5
2698
  8
0
  6
CONTINUOUS
 62
     0
 10
174.52096819510581
 20
89.788908754782057
 30
0.0
  0
VERTEX
  5
2699
  8
0
  6
CONTINUOUS
 62
     0
 10
174.2884499030335
 20
89.793814098203043
 30
0.0
  0
VERTEX
  5
269A
  8
0
  6
CONTINUOUS
 62
     0
 10
174.1716184422028
 20
89.794432145135644
 30
0.0
  0
SEQEND
  5
269B
  8
0
  6
CONTINUOUS
 62
     0
  0
POLYLINE
  5
1C1F
  8
0
  6
CONTINUOUS
 62
     0
 66
     1
 10
0.0
 20
0.0
 30
0.0
  0
VERTEX
  5
269C
  8
0
  6
CONTINUOUS
 62
     0
 10
174.1716184422028
 20
89.794432145135644
 30
0.0
  0
VERTEX
  5
269D
  8
0
  6
CONTINUOUS
 62
     0
 10
174.0547869813721
 20
89.793814098203043
 30
0.0
  0
VERTEX
  5
269E
  8
0
  6
CONTINUOUS
 62
     0
 10
173.8222686892997
 20
89.788908754782057
 30
0.0
  0
VERTEX
  5
269F
  8
0
  6
CONTINUOUS
 62
     0
 10
173.59097790063939
 20
89.779189162750768
 30
0.0
  0
VERTEX
  5
26A0
  8
0
  6
CONTINUOUS
 62
     0
 10
173.47568388257349
 20
89.772549550923912
 30
0.0
  0
VERTEX
  5
26A1
  8
0
  6
CONTINUOUS
 62
     0
 10
173.36056746943879
 20
89.764735087062007
 30
0.0
  0
VERTEX
  5
26A2
  8
0
  6
CONTINUOUS
 62
     0
 10
173.1307013018656
 20
89.745611150902377
 30
0.0
  0
VERTEX
  5
26A3
  8
0
  6
CONTINUOUS
 62
     0
 10
172.9010524784803
 20
89.721867582991777
 30
0.0
  0
VERTEX
  5
26A4
  8
0
  6
CONTINUOUS
 62
     0
 10
172.67130150365199
 20
89.693540840311016
 30
0.0
  0
VERTEX
  5
26A5
  8
0
  6
CONTINUOUS
 62
     0
 10
172.44113466048159
 20
89.660654116968445
 30
0.0
  0
VERTEX
  5
26A6
  8
0
  6
CONTINUOUS
 62
     0
 10
172.2102424518383
 20
89.623217748020807
 30
0.0
  0
VERTEX
  5
26A7
  8
0
  6
CONTINUOUS
 62
     0
 10
172.0944284035287
 20
89.602793237200814
 30
0.0
  0
VERTEX
  5
26A8
  8
0
  6
CONTINUOUS
 62
     0
 10
171.9783181099412
 20
89.581229515393716
 30
0.0
  0
VERTEX
  5
26A9
  8
0
  6
CONTINUOUS
 62
     0
 10
171.74505615838271
 20
89.534674861565861
 30
0.0
  0
VERTEX
  5
26AA
  8
0
  6
CONTINUOUS
 62
     0
 10
171.5101510116433
 20
89.483527015340186
 30
0.0
  0
VERTEX
  5
26AB
  8
0
  6
CONTINUOUS
 62
     0
 10
171.27329559801569
 20
89.427747032801022
 30
0.0
  0
VERTEX
  5
26AC
  8
0
  6
CONTINUOUS
 62
     0
 10
171.03417999247739
 20
89.367283755415457
 30
0.0
  0
VERTEX
  5
26AD
  8
0
  6
CONTINUOUS
 62
     0
 10
170.79249004643469
 20
89.302073686153506
 30
0.0
  0
VERTEX
  5
26AE
  8
0
  6
CONTINUOUS
 62
     0
 10
170.67058002878491
 20
89.267665338937235
 30
0.0
  0
VERTEX
  5
26AF
  8
0
  6
CONTINUOUS
 62
     0
 10
170.5479060014294
 20
89.232040783456796
 30
0.0
  0
VERTEX
  5
26B0
  8
0
  6
CONTINUOUS
 62
     0
 10
170.3001010738511
 20
89.157096171851265
 30
0.0
  0
VERTEX
  5
26B1
  8
0
  6
CONTINUOUS
 62
     0
 10
170.0487399974472
 20
89.077137766959126
 30
0.0
  0
VERTEX
  5
26B2
  8
0
  6
CONTINUOUS
 62
     0
 10
169.9216184422028
 20
89.03524276658078
 30
0.0
  0
SEQEND
  5
26B3
  8
0
  6
CONTINUOUS
 62
     0
  0
POLYLINE
  5
1C20
  8
0
  6
CONTINUOUS
 62
     0
 66
     1
 10
0.0
 20
0.0
 30
0.0
  0
VERTEX
  5
26B4
  8
0
  6
CONTINUOUS
 62
     0
 10
178.4216184422028
 20
84.794432145135644
 30
0.0
  0
VERTEX
  5
26B5
  8
0
  6
CONTINUOUS
 62
     0
 10
178.4216184422028
 20
84.795050192068203
 30
0.0
  0
VERTEX
  5
26B6
  8
0
  6
CONTINUOUS
 62
     0
 10
178.4216184422028
 20
84.799955535489204
 30
0.0
  0
VERTEX
  5
26B7
  8
0
  6
CONTINUOUS
 62
     0
 10
178.4216184422028
 20
84.809675127520478
 30
0.0
  0
VERTEX
  5
26B8
  8
0
  6
CONTINUOUS
 62
     0
 10
178.4216184422028
 20
84.816314739347348
 30
0.0
  0
VERTEX
  5
26B9
  8
0
  6
CONTINUOUS
 62
     0
 10
178.4216184422028
 20
84.824129203209253
 30
0.0
  0
VERTEX
  5
26BA
  8
0
  6
CONTINUOUS
 62
     0
 10
178.4216184422028
 20
84.843253139368898
 30
0.0
  0
VERTEX
  5
26BB
  8
0
  6
CONTINUOUS
 62
     0
 10
178.4216184422028
 20
84.866996707279469
 30
0.0
  0
VERTEX
  5
26BC
  8
0
  6
CONTINUOUS
 62
     0
 10
178.4216184422028
 20
84.895323449960244
 30
0.0
  0
VERTEX
  5
26BD
  8
0
  6
CONTINUOUS
 62
     0
 10
178.4216184422028
 20
84.928210173302801
 30
0.0
  0
VERTEX
  5
26BE
  8
0
  6
CONTINUOUS
 62
     0
 10
178.4216184422028
 20
84.965646542250454
 30
0.0
  0
VERTEX
  5
26BF
  8
0
  6
CONTINUOUS
 62
     0
 10
178.4216184422028
 20
84.986071053070447
 30
0.0
  0
VERTEX
  5
26C0
  8
0
  6
CONTINUOUS
 62
     0
 10
178.4216184422028
 20
85.007634774877545
 30
0.0
  0
VERTEX
  5
26C1
  8
0
  6
CONTINUOUS
 62
     0
 10
178.4216184422028
 20
85.054189428705385
 30
0.0
  0
VERTEX
  5
26C2
  8
0
  6
CONTINUOUS
 62
     0
 10
178.4216184422028
 20
85.105337274931088
 30
0.0
  0
VERTEX
  5
26C3
  8
0
  6
CONTINUOUS
 62
     0
 10
178.4216184422028
 20
85.161117257470224
 30
0.0
  0
VERTEX
  5
26C4
  8
0
  6
CONTINUOUS
 62
     0
 10
178.4216184422028
 20
85.221580534855804
 30
0.0
  0
VERTEX
  5
26C5
  8
0
  6
CONTINUOUS
 62
     0
 10
178.4216184422028
 20
85.286790604117755
 30
0.0
  0
VERTEX
  5
26C6
  8
0
  6
CONTINUOUS
 62
     0
 10
178.4216184422028
 20
85.321198951334026
 30
0.0
  0
VERTEX
  5
26C7
  8
0
  6
CONTINUOUS
 62
     0
 10
178.4216184422028
 20
85.356823506814465
 30
0.0
  0
VERTEX
  5
26C8
  8
0
  6
CONTINUOUS
 62
     0
 10
178.4216184422028
 20
85.431768118419996
 30
0.0
  0
VERTEX
  5
26C9
  8
0
  6
CONTINUOUS
 62
     0
 10
178.4216184422028
 20
85.511726523312149
 30
0.0
  0
VERTEX
  5
26CA
  8
0
  6
CONTINUOUS
 62
     0
 10
178.4216184422028
 20
85.553621523690467
 30
0.0
  0
SEQEND
  5
26CB
  8
0
  6
CONTINUOUS
 62
     0
  0
POLYLINE
  5
1C21
  8
0
  6
CONTINUOUS
 62
     0
 66
     1
 10
0.0
 20
0.0
 30
0.0
  0
VERTEX
  5
26CC
  8
0
  6
CONTINUOUS
 62
     0
 10
178.4216184422028
 20
89.03524276658078
 30
0.0
  0
VERTEX
  5
26CD
  8
0
  6
CONTINUOUS
 62
     0
 10
178.4216184422028
 20
89.077137766959126
 30
0.0
  0
VERTEX
  5
26CE
  8
0
  6
CONTINUOUS
 62
     0
 10
178.4216184422028
 20
89.157096171851265
 30
0.0
  0
VERTEX
  5
26CF
  8
0
  6
CONTINUOUS
 62
     0
 10
178.4216184422028
 20
89.232040783456796
 30
0.0
  0
VERTEX
  5
26D0
  8
0
  6
CONTINUOUS
 62
     0
 10
178.4216184422028
 20
89.267665338937235
 30
0.0
  0
VERTEX
  5
26D1
  8
0
  6
CONTINUOUS
 62
     0
 10
178.4216184422028
 20
89.302073686153506
 30
0.0
  0
VERTEX
  5
26D2
  8
0
  6
CONTINUOUS
 62
     0
 10
178.4216184422028
 20
89.367283755415457
 30
0.0
  0
VERTEX
  5
26D3
  8
0
  6
CONTINUOUS
 62
     0
 10
178.4216184422028
 20
89.427747032801022
 30
0.0
  0
VERTEX
  5
26D4
  8
0
  6
CONTINUOUS
 62
     0
 10
178.4216184422028
 20
89.483527015340186
 30
0.0
  0
VERTEX
  5
26D5
  8
0
  6
CONTINUOUS
 62
     0
 10
178.4216184422028
 20
89.534674861565861
 30
0.0
  0
VERTEX
  5
26D6
  8
0
  6
CONTINUOUS
 62
     0
 10
178.4216184422028
 20
89.581229515393716
 30
0.0
  0
VERTEX
  5
26D7
  8
0
  6
CONTINUOUS
 62
     0
 10
178.4216184422028
 20
89.602793237200814
 30
0.0
  0
VERTEX
  5
26D8
  8
0
  6
CONTINUOUS
 62
     0
 10
178.4216184422028
 20
89.623217748020807
 30
0.0
  0
VERTEX
  5
26D9
  8
0
  6
CONTINUOUS
 62
     0
 10
178.4216184422028
 20
89.660654116968445
 30
0.0
  0
VERTEX
  5
26DA
  8
0
  6
CONTINUOUS
 62
     0
 10
178.4216184422028
 20
89.693540840311016
 30
0.0
  0
VERTEX
  5
26DB
  8
0
  6
CONTINUOUS
 62
     0
 10
178.4216184422028
 20
89.721867582991777
 30
0.0
  0
VERTEX
  5
26DC
  8
0
  6
CONTINUOUS
 62
     0
 10
178.4216184422028
 20
89.745611150902377
 30
0.0
  0
VERTEX
  5
26DD
  8
0
  6
CONTINUOUS
 62
     0
 10
178.4216184422028
 20
89.764735087062007
 30
0.0
  0
VERTEX
  5
26DE
  8
0
  6
CONTINUOUS
 62
     0
 10
178.4216184422028
 20
89.772549550923912
 30
0.0
  0
VERTEX
  5
26DF
  8
0
  6
CONTINUOUS
 62
     0
 10
178.4216184422028
 20
89.779189162750768
 30
0.0
  0
VERTEX
  5
26E0
  8
0
  6
CONTINUOUS
 62
     0
 10
178.4216184422028
 20
89.788908754782057
 30
0.0
  0
VERTEX
  5
26E1
  8
0
  6
CONTINUOUS
 62
     0
 10
178.4216184422028
 20
89.793814098203043
 30
0.0
  0
VERTEX
  5
26E2
  8
0
  6
CONTINUOUS
 62
     0
 10
178.4216184422028
 20
89.794432145135644
 30
0.0
  0
SEQEND
  5
26E3
  8
0
  6
CONTINUOUS
 62
     0
  0
POLYLINE
  5
1C22
  8
0
  6
CONTINUOUS
 62
     0
 66
     1
 10
0.0
 20
0.0
 30
0.0
  0
VERTEX
  5
26E4
  8
0
  6
CONTINUOUS
 62
     0
 10
165.6716184422028
 20
89.794432145135644
 30
0.0
  0
VERTEX
  5
26E5
  8
0
  6
CONTINUOUS
 62
     0
 10
165.7884499030335
 20
89.793814098203043
 30
0.0
  0
VERTEX
  5
26E6
  8
0
  6
CONTINUOUS
 62
     0
 10
166.02096819510581
 20
89.788908754782057
 30
0.0
  0
VERTEX
  5
26E7
  8
0
  6
CONTINUOUS
 62
     0
 10
166.2522589837661
 20
89.779189162750768
 30
0.0
  0
VERTEX
  5
26E8
  8
0
  6
CONTINUOUS
 62
     0
 10
166.36755300183211
 20
89.772549550923912
 30
0.0
  0
VERTEX
  5
26E9
  8
0
  6
CONTINUOUS
 62
     0
 10
166.48266941496669
 20
89.764735087062007
 30
0.0
  0
VERTEX
  5
26EA
  8
0
  6
CONTINUOUS
 62
     0
 10
166.71253558253991
 20
89.745611150902377
 30
0.0
  0
VERTEX
  5
26EB
  8
0
  6
CONTINUOUS
 62
     0
 10
166.94218440592519
 20
89.721867582991777
 30
0.0
  0
VERTEX
  5
26EC
  8
0
  6
CONTINUOUS
 62
     0
 10
167.17193538075361
 20
89.693540840311016
 30
0.0
  0
VERTEX
  5
26ED
  8
0
  6
CONTINUOUS
 62
     0
 10
167.40210222392389
 20
89.660654116968445
 30
0.0
  0
VERTEX
  5
26EE
  8
0
  6
CONTINUOUS
 62
     0
 10
167.63299443256719
 20
89.623217748020807
 30
0.0
  0
VERTEX
  5
26EF
  8
0
  6
CONTINUOUS
 62
     0
 10
167.7488084808769
 20
89.602793237200814
 30
0.0
  0
VERTEX
  5
26F0
  8
0
  6
CONTINUOUS
 62
     0
 10
167.86491877446429
 20
89.581229515393716
 30
0.0
  0
VERTEX
  5
26F1
  8
0
  6
CONTINUOUS
 62
     0
 10
168.09818072602289
 20
89.534674861565861
 30
0.0
  0
VERTEX
  5
26F2
  8
0
  6
CONTINUOUS
 62
     0
 10
168.3330858727623
 20
89.483527015340186
 30
0.0
  0
VERTEX
  5
26F3
  8
0
  6
CONTINUOUS
 62
     0
 10
168.56994128638991
 20
89.427747032801022
 30
0.0
  0
VERTEX
  5
26F4
  8
0
  6
CONTINUOUS
 62
     0
 10
168.80905689192821
 20
89.367283755415457
 30
0.0
  0
VERTEX
  5
26F5
  8
0
  6
CONTINUOUS
 62
     0
 10
169.05074683797079
 20
89.302073686153506
 30
0.0
  0
VERTEX
  5
26F6
  8
0
  6
CONTINUOUS
 62
     0
 10
169.1726568556206
 20
89.267665338937235
 30
0.0
  0
VERTEX
  5
26F7
  8
0
  6
CONTINUOUS
 62
     0
 10
169.29533088297609
 20
89.232040783456796
 30
0.0
  0
VERTEX
  5
26F8
  8
0
  6
CONTINUOUS
 62
     0
 10
169.5431358105545
 20
89.157096171851265
 30
0.0
  0
VERTEX
  5
26F9
  8
0
  6
CONTINUOUS
 62
     0
 10
169.79449688695831
 20
89.077137766959126
 30
0.0
  0
VERTEX
  5
26FA
  8
0
  6
CONTINUOUS
 62
     0
 10
169.9216184422028
 20
89.03524276658078
 30
0.0
  0
SEQEND
  5
26FB
  8
0
  6
CONTINUOUS
 62
     0
  0
POLYLINE
  5
1C23
  8
0
  6
CONTINUOUS
 62
     0
 66
     1
 10
0.0
 20
0.0
 30
0.0
  0
VERTEX
  5
26FC
  8
0
  6
CONTINUOUS
 62
     0
 10
169.9216184422028
 20
85.553621523690467
 30
0.0
  0
VERTEX
  5
26FD
  8
0
  6
CONTINUOUS
 62
     0
 10
169.79449688695831
 20
85.511726523312149
 30
0.0
  0
VERTEX
  5
26FE
  8
0
  6
CONTINUOUS
 62
     0
 10
169.5431358105545
 20
85.431768118419996
 30
0.0
  0
VERTEX
  5
26FF
  8
0
  6
CONTINUOUS
 62
     0
 10
169.29533088297609
 20
85.356823506814465
 30
0.0
  0
VERTEX
  5
2700
  8
0
  6
CONTINUOUS
 62
     0
 10
169.1726568556206
 20
85.321198951334026
 30
0.0
  0
VERTEX
  5
2701
  8
0
  6
CONTINUOUS
 62
     0
 10
169.05074683797079
 20
85.286790604117755
 30
0.0
  0
VERTEX
  5
2702
  8
0
  6
CONTINUOUS
 62
     0
 10
168.80905689192821
 20
85.221580534855804
 30
0.0
  0
VERTEX
  5
2703
  8
0
  6
CONTINUOUS
 62
     0
 10
168.56994128638991
 20
85.161117257470224
 30
0.0
  0
VERTEX
  5
2704
  8
0
  6
CONTINUOUS
 62
     0
 10
168.3330858727623
 20
85.105337274931088
 30
0.0
  0
VERTEX
  5
2705
  8
0
  6
CONTINUOUS
 62
     0
 10
168.09818072602289
 20
85.054189428705385
 30
0.0
  0
VERTEX
  5
2706
  8
0
  6
CONTINUOUS
 62
     0
 10
167.86491877446429
 20
85.007634774877545
 30
0.0
  0
VERTEX
  5
2707
  8
0
  6
CONTINUOUS
 62
     0
 10
167.7488084808769
 20
84.986071053070447
 30
0.0
  0
VERTEX
  5
2708
  8
0
  6
CONTINUOUS
 62
     0
 10
167.63299443256719
 20
84.965646542250454
 30
0.0
  0
VERTEX
  5
2709
  8
0
  6
CONTINUOUS
 62
     0
 10
167.40210222392389
 20
84.928210173302801
 30
0.0
  0
VERTEX
  5
270A
  8
0
  6
CONTINUOUS
 62
     0
 10
167.17193538075361
 20
84.895323449960244
 30
0.0
  0
VERTEX
  5
270B
  8
0
  6
CONTINUOUS
 62
     0
 10
166.94218440592519
 20
84.866996707279469
 30
0.0
  0
VERTEX
  5
270C
  8
0
  6
CONTINUOUS
 62
     0
 10
166.71253558253991
 20
84.843253139368898
 30
0.0
  0
VERTEX
  5
270D
  8
0
  6
CONTINUOUS
 62
     0
 10
166.48266941496669
 20
84.824129203209253
 30
0.0
  0
VERTEX
  5
270E
  8
0
  6
CONTINUOUS
 62
     0
 10
166.36755300183211
 20
84.816314739347348
 30
0.0
  0
VERTEX
  5
270F
  8
0
  6
CONTINUOUS
 62
     0
 10
166.2522589837661
 20
84.809675127520478
 30
0.0
  0
VERTEX
  5
2710
  8
0
  6
CONTINUOUS
 62
     0
 10
166.02096819510581
 20
84.799955535489204
 30
0.0
  0
VERTEX
  5
2711
  8
0
  6
CONTINUOUS
 62
     0
 10
165.7884499030335
 20
84.795050192068203
 30
0.0
  0
VERTEX
  5
2712
  8
0
  6
CONTINUOUS
 62
     0
 10
165.6716184422028
 20
84.794432145135644
 30
0.0
  0
SEQEND
  5
2713
  8
0
  6
CONTINUOUS
 62
     0
  0
POLYLINE
  5
1C24
  8
0
  6
CONTINUOUS
 62
     0
 66
     1
 10
0.0
 20
0.0
 30
0.0
  0
VERTEX
  5
2714
  8
0
  6
CONTINUOUS
 62
     0
 10
165.6716184422028
 20
84.794432145135644
 30
0.0
  0
VERTEX
  5
2715
  8
0
  6
CONTINUOUS
 62
     0
 10
165.55478698137199
 20
84.795050192068203
 30
0.0
  0
VERTEX
  5
2716
  8
0
  6
CONTINUOUS
 62
     0
 10
165.3222686892997
 20
84.799955535489204
 30
0.0
  0
VERTEX
  5
2717
  8
0
  6
CONTINUOUS
 62
     0
 10
165.09097790063939
 20
84.809675127520478
 30
0.0
  0
VERTEX
  5
2718
  8
0
  6
CONTINUOUS
 62
     0
 10
164.97568388257349
 20
84.816314739347348
 30
0.0
  0
VERTEX
  5
2719
  8
0
  6
CONTINUOUS
 62
     0
 10
164.86056746943879
 20
84.824129203209253
 30
0.0
  0
VERTEX
  5
271A
  8
0
  6
CONTINUOUS
 62
     0
 10
164.6307013018656
 20
84.843253139368898
 30
0.0
  0
VERTEX
  5
271B
  8
0
  6
CONTINUOUS
 62
     0
 10
164.4010524784803
 20
84.866996707279469
 30
0.0
  0
VERTEX
  5
271C
  8
0
  6
CONTINUOUS
 62
     0
 10
164.17130150365199
 20
84.895323449960244
 30
0.0
  0
VERTEX
  5
271D
  8
0
  6
CONTINUOUS
 62
     0
 10
163.94113466048159
 20
84.928210173302801
 30
0.0
  0
VERTEX
  5
271E
  8
0
  6
CONTINUOUS
 62
     0
 10
163.7102424518383
 20
84.965646542250454
 30
0.0
  0
VERTEX
  5
271F
  8
0
  6
CONTINUOUS
 62
     0
 10
163.5944284035287
 20
84.986071053070447
 30
0.0
  0
VERTEX
  5
2720
  8
0
  6
CONTINUOUS
 62
     0
 10
163.4783181099412
 20
85.007634774877545
 30
0.0
  0
VERTEX
  5
2721
  8
0
  6
CONTINUOUS
 62
     0
 10
163.24505615838271
 20
85.054189428705385
 30
0.0
  0
VERTEX
  5
2722
  8
0
  6
CONTINUOUS
 62
     0
 10
163.0101510116433
 20
85.105337274931088
 30
0.0
  0
VERTEX
  5
2723
  8
0
  6
CONTINUOUS
 62
     0
 10
162.77329559801569
 20
85.161117257470224
 30
0.0
  0
VERTEX
  5
2724
  8
0
  6
CONTINUOUS
 62
     0
 10
162.53417999247739
 20
85.221580534855804
 30
0.0
  0
VERTEX
  5
2725
  8
0
  6
CONTINUOUS
 62
     0
 10
162.29249004643469
 20
85.286790604117755
 30
0.0
  0
VERTEX
  5
2726
  8
0
  6
CONTINUOUS
 62
     0
 10
162.17058002878491
 20
85.321198951334026
 30
0.0
  0
VERTEX
  5
2727
  8
0
  6
CONTINUOUS
 62
     0
 10
162.0479060014294
 20
85.356823506814465
 30
0.0
  0
VERTEX
  5
2728
  8
0
  6
CONTINUOUS
 62
     0
 10
161.8001010738511
 20
85.431768118419996
 30
0.0
  0
VERTEX
  5
2729
  8
0
  6
CONTINUOUS
 62
     0
 10
161.5487399974472
 20
85.511726523312149
 30
0.0
  0
VERTEX
  5
272A
  8
0
  6
CONTINUOUS
 62
     0
 10
161.4216184422028
 20
85.553621523690467
 30
0.0
  0
SEQEND
  5
272B
  8
0
  6
CONTINUOUS
 62
     0
  0
POLYLINE
  5
1C25
  8
0
  6
CONTINUOUS
 62
     0
 66
     1
 10
0.0
 20
0.0
 30
0.0
  0
VERTEX
  5
272C
  8
0
  6
CONTINUOUS
 62
     0
 10
161.4216184422028
 20
89.03524276658078
 30
0.0
  0
VERTEX
  5
272D
  8
0
  6
CONTINUOUS
 62
     0
 10
161.5487399974472
 20
89.077137766959126
 30
0.0
  0
VERTEX
  5
272E
  8
0
  6
CONTINUOUS
 62
     0
 10
161.8001010738511
 20
89.157096171851265
 30
0.0
  0
VERTEX
  5
272F
  8
0
  6
CONTINUOUS
 62
     0
 10
162.0479060014294
 20
89.232040783456796
 30
0.0
  0
VERTEX
  5
2730
  8
0
  6
CONTINUOUS
 62
     0
 10
162.17058002878491
 20
89.267665338937235
 30
0.0
  0
VERTEX
  5
2731
  8
0
  6
CONTINUOUS
 62
     0
 10
162.29249004643469
 20
89.302073686153506
 30
0.0
  0
VERTEX
  5
2732
  8
0
  6
CONTINUOUS
 62
     0
 10
162.53417999247739
 20
89.367283755415457
 30
0.0
  0
VERTEX
  5
2733
  8
0
  6
CONTINUOUS
 62
     0
 10
162.77329559801581
 20
89.427747032801022
 30
0.0
  0
VERTEX
  5
2734
  8
0
  6
CONTINUOUS
 62
     0
 10
163.0101510116433
 20
89.483527015340186
 30
0.0
  0
VERTEX
  5
2735
  8
0
  6
CONTINUOUS
 62
     0
 10
163.24505615838271
 20
89.534674861565861
 30
0.0
  0
VERTEX
  5
2736
  8
0
  6
CONTINUOUS
 62
     0
 10
163.4783181099412
 20
89.581229515393716
 30
0.0
  0
VERTEX
  5
2737
  8
0
  6
CONTINUOUS
 62
     0
 10
163.5944284035287
 20
89.602793237200814
 30
0.0
  0
VERTEX
  5
2738
  8
0
  6
CONTINUOUS
 62
     0
 10
163.71024245183841
 20
89.623217748020807
 30
0.0
  0
VERTEX
  5
2739
  8
0
  6
CONTINUOUS
 62
     0
 10
163.94113466048159
 20
89.660654116968445
 30
0.0
  0
VERTEX
  5
273A
  8
0
  6
CONTINUOUS
 62
     0
 10
164.17130150365199
 20
89.693540840311016
 30
0.0
  0
VERTEX
  5
273B
  8
0
  6
CONTINUOUS
 62
     0
 10
164.4010524784803
 20
89.721867582991777
 30
0.0
  0
VERTEX
  5
273C
  8
0
  6
CONTINUOUS
 62
     0
 10
164.63070130186571
 20
89.745611150902377
 30
0.0
  0
VERTEX
  5
273D
  8
0
  6
CONTINUOUS
 62
     0
 10
164.86056746943879
 20
89.764735087062007
 30
0.0
  0
VERTEX
  5
273E
  8
0
  6
CONTINUOUS
 62
     0
 10
164.97568388257349
 20
89.772549550923912
 30
0.0
  0
VERTEX
  5
273F
  8
0
  6
CONTINUOUS
 62
     0
 10
165.09097790063939
 20
89.779189162750768
 30
0.0
  0
VERTEX
  5
2740
  8
0
  6
CONTINUOUS
 62
     0
 10
165.3222686892997
 20
89.788908754782057
 30
0.0
  0
VERTEX
  5
2741
  8
0
  6
CONTINUOUS
 62
     0
 10
165.55478698137199
 20
89.793814098203043
 30
0.0
  0
VERTEX
  5
2742
  8
0
  6
CONTINUOUS
 62
     0
 10
165.6716184422028
 20
89.794432145135644
 30
0.0
  0
SEQEND
  5
2743
  8
0
  6
CONTINUOUS
 62
     0
  0
POLYLINE
  5
1C26
  8
0
  6
CONTINUOUS
 62
     0
 66
     1
 10
0.0
 20
0.0
 30
0.0
  0
VERTEX
  5
2744
  8
0
  6
CONTINUOUS
 62
     0
 10
174.1716184422028
 20
89.794432145135644
 30
0.0
  0
VERTEX
  5
2745
  8
0
  6
CONTINUOUS
 62
     0
 10
174.2884499030335
 20
89.793814098203043
 30
0.0
  0
VERTEX
  5
2746
  8
0
  6
CONTINUOUS
 62
     0
 10
174.52096819510581
 20
89.788908754782057
 30
0.0
  0
VERTEX
  5
2747
  8
0
  6
CONTINUOUS
 62
     0
 10
174.7522589837661
 20
89.779189162750768
 30
0.0
  0
VERTEX
  5
2748
  8
0
  6
CONTINUOUS
 62
     0
 10
174.86755300183211
 20
89.772549550923912
 30
0.0
  0
VERTEX
  5
2749
  8
0
  6
CONTINUOUS
 62
     0
 10
174.98266941496669
 20
89.764735087062007
 30
0.0
  0
VERTEX
  5
274A
  8
0
  6
CONTINUOUS
 62
     0
 10
175.21253558253991
 20
89.745611150902377
 30
0.0
  0
VERTEX
  5
274B
  8
0
  6
CONTINUOUS
 62
     0
 10
175.44218440592519
 20
89.721867582991777
 30
0.0
  0
VERTEX
  5
274C
  8
0
  6
CONTINUOUS
 62
     0
 10
175.67193538075361
 20
89.693540840311016
 30
0.0
  0
VERTEX
  5
274D
  8
0
  6
CONTINUOUS
 62
     0
 10
175.90210222392389
 20
89.660654116968445
 30
0.0
  0
VERTEX
  5
274E
  8
0
  6
CONTINUOUS
 62
     0
 10
176.13299443256719
 20
89.623217748020807
 30
0.0
  0
VERTEX
  5
274F
  8
0
  6
CONTINUOUS
 62
     0
 10
176.24880848087679
 20
89.602793237200814
 30
0.0
  0
VERTEX
  5
2750
  8
0
  6
CONTINUOUS
 62
     0
 10
176.3649187744644
 20
89.581229515393716
 30
0.0
  0
VERTEX
  5
2751
  8
0
  6
CONTINUOUS
 62
     0
 10
176.59818072602289
 20
89.534674861565861
 30
0.0
  0
VERTEX
  5
2752
  8
0
  6
CONTINUOUS
 62
     0
 10
176.83308587276221
 20
89.483527015340186
 30
0.0
  0
VERTEX
  5
2753
  8
0
  6
CONTINUOUS
 62
     0
 10
177.06994128638991
 20
89.427747032801022
 30
0.0
  0
VERTEX
  5
2754
  8
0
  6
CONTINUOUS
 62
     0
 10
177.30905689192821
 20
89.367283755415457
 30
0.0
  0
VERTEX
  5
2755
  8
0
  6
CONTINUOUS
 62
     0
 10
177.55074683797079
 20
89.302073686153506
 30
0.0
  0
VERTEX
  5
2756
  8
0
  6
CONTINUOUS
 62
     0
 10
177.6726568556206
 20
89.267665338937235
 30
0.0
  0
VERTEX
  5
2757
  8
0
  6
CONTINUOUS
 62
     0
 10
177.7953308829762
 20
89.232040783456796
 30
0.0
  0
VERTEX
  5
2758
  8
0
  6
CONTINUOUS
 62
     0
 10
178.0431358105545
 20
89.157096171851265
 30
0.0
  0
VERTEX
  5
2759
  8
0
  6
CONTINUOUS
 62
     0
 10
178.29449688695831
 20
89.077137766959126
 30
0.0
  0
VERTEX
  5
275A
  8
0
  6
CONTINUOUS
 62
     0
 10
178.4216184422028
 20
89.03524276658078
 30
0.0
  0
SEQEND
  5
275B
  8
0
  6
CONTINUOUS
 62
     0
  0
LINE
  5
1C27
  8
0
  6
CONTINUOUS
 62
     0
 10
178.4216184422028
 20
85.553621523690467
 30
0.0
 11
178.4216184422028
 21
89.03524276658078
 31
0.0
  0
POLYLINE
  5
1C28
  8
0
  6
CONTINUOUS
 62
     0
 66
     1
 10
0.0
 20
0.0
 30
0.0
  0
VERTEX
  5
275C
  8
0
  6
CONTINUOUS
 62
     0
 10
178.4216184422028
 20
85.553621523690467
 30
0.0
  0
VERTEX
  5
275D
  8
0
  6
CONTINUOUS
 62
     0
 10
178.29449688695831
 20
85.511726523312149
 30
0.0
  0
VERTEX
  5
275E
  8
0
  6
CONTINUOUS
 62
     0
 10
178.0431358105545
 20
85.431768118419996
 30
0.0
  0
VERTEX
  5
275F
  8
0
  6
CONTINUOUS
 62
     0
 10
177.7953308829762
 20
85.356823506814465
 30
0.0
  0
VERTEX
  5
2760
  8
0
  6
CONTINUOUS
 62
     0
 10
177.6726568556206
 20
85.321198951334026
 30
0.0
  0
VERTEX
  5
2761
  8
0
  6
CONTINUOUS
 62
     0
 10
177.55074683797079
 20
85.286790604117755
 30
0.0
  0
VERTEX
  5
2762
  8
0
  6
CONTINUOUS
 62
     0
 10
177.30905689192821
 20
85.221580534855804
 30
0.0
  0
VERTEX
  5
2763
  8
0
  6
CONTINUOUS
 62
     0
 10
177.06994128638979
 20
85.161117257470224
 30
0.0
  0
VERTEX
  5
2764
  8
0
  6
CONTINUOUS
 62
     0
 10
176.83308587276221
 20
85.105337274931088
 30
0.0
  0
VERTEX
  5
2765
  8
0
  6
CONTINUOUS
 62
     0
 10
176.59818072602289
 20
85.054189428705385
 30
0.0
  0
VERTEX
  5
2766
  8
0
  6
CONTINUOUS
 62
     0
 10
176.3649187744644
 20
85.007634774877545
 30
0.0
  0
VERTEX
  5
2767
  8
0
  6
CONTINUOUS
 62
     0
 10
176.24880848087679
 20
84.986071053070447
 30
0.0
  0
VERTEX
  5
2768
  8
0
  6
CONTINUOUS
 62
     0
 10
176.13299443256719
 20
84.965646542250454
 30
0.0
  0
VERTEX
  5
2769
  8
0
  6
CONTINUOUS
 62
     0
 10
175.90210222392389
 20
84.928210173302801
 30
0.0
  0
VERTEX
  5
276A
  8
0
  6
CONTINUOUS
 62
     0
 10
175.67193538075361
 20
84.895323449960244
 30
0.0
  0
VERTEX
  5
276B
  8
0
  6
CONTINUOUS
 62
     0
 10
175.44218440592519
 20
84.866996707279469
 30
0.0
  0
VERTEX
  5
276C
  8
0
  6
CONTINUOUS
 62
     0
 10
175.21253558253991
 20
84.843253139368898
 30
0.0
  0
VERTEX
  5
276D
  8
0
  6
CONTINUOUS
 62
     0
 10
174.98266941496669
 20
84.824129203209253
 30
0.0
  0
VERTEX
  5
276E
  8
0
  6
CONTINUOUS
 62
     0
 10
174.86755300183211
 20
84.816314739347348
 30
0.0
  0
VERTEX
  5
276F
  8
0
  6
CONTINUOUS
 62
     0
 10
174.7522589837661
 20
84.809675127520478
 30
0.0
  0
VERTEX
  5
2770
  8
0
  6
CONTINUOUS
 62
     0
 10
174.52096819510581
 20
84.799955535489204
 30
0.0
  0
VERTEX
  5
2771
  8
0
  6
CONTINUOUS
 62
     0
 10
174.2884499030335
 20
84.795050192068203
 30
0.0
  0
VERTEX
  5
2772
  8
0
  6
CONTINUOUS
 62
     0
 10
174.1716184422028
 20
84.794432145135644
 30
0.0
  0
SEQEND
  5
2773
  8
0
  6
CONTINUOUS
 62
     0
  0
POLYLINE
  5
1C29
  8
0
  6
CONTINUOUS
 62
     0
 66
     1
 10
0.0
 20
0.0
 30
0.0
  0
VERTEX
  5
2774
  8
0
  6
CONTINUOUS
 62
     0
 10
174.1716184422028
 20
84.794432145135644
 30
0.0
  0
VERTEX
  5
2775
  8
0
  6
CONTINUOUS
 62
     0
 10
174.0547869813721
 20
84.795050192068203
 30
0.0
  0
VERTEX
  5
2776
  8
0
  6
CONTINUOUS
 62
     0
 10
173.8222686892997
 20
84.799955535489204
 30
0.0
  0
VERTEX
  5
2777
  8
0
  6
CONTINUOUS
 62
     0
 10
173.59097790063939
 20
84.809675127520478
 30
0.0
  0
VERTEX
  5
2778
  8
0
  6
CONTINUOUS
 62
     0
 10
173.47568388257349
 20
84.816314739347348
 30
0.0
  0
VERTEX
  5
2779
  8
0
  6
CONTINUOUS
 62
     0
 10
173.36056746943879
 20
84.824129203209253
 30
0.0
  0
VERTEX
  5
277A
  8
0
  6
CONTINUOUS
 62
     0
 10
173.1307013018656
 20
84.843253139368898
 30
0.0
  0
VERTEX
  5
277B
  8
0
  6
CONTINUOUS
 62
     0
 10
172.9010524784803
 20
84.866996707279469
 30
0.0
  0
VERTEX
  5
277C
  8
0
  6
CONTINUOUS
 62
     0
 10
172.67130150365199
 20
84.895323449960244
 30
0.0
  0
VERTEX
  5
277D
  8
0
  6
CONTINUOUS
 62
     0
 10
172.44113466048159
 20
84.928210173302801
 30
0.0
  0
VERTEX
  5
277E
  8
0
  6
CONTINUOUS
 62
     0
 10
172.2102424518383
 20
84.965646542250454
 30
0.0
  0
VERTEX
  5
277F
  8
0
  6
CONTINUOUS
 62
     0
 10
172.0944284035287
 20
84.986071053070447
 30
0.0
  0
VERTEX
  5
2780
  8
0
  6
CONTINUOUS
 62
     0
 10
171.9783181099412
 20
85.007634774877545
 30
0.0
  0
VERTEX
  5
2781
  8
0
  6
CONTINUOUS
 62
     0
 10
171.74505615838271
 20
85.054189428705385
 30
0.0
  0
VERTEX
  5
2782
  8
0
  6
CONTINUOUS
 62
     0
 10
171.5101510116433
 20
85.105337274931088
 30
0.0
  0
VERTEX
  5
2783
  8
0
  6
CONTINUOUS
 62
     0
 10
171.27329559801569
 20
85.161117257470224
 30
0.0
  0
VERTEX
  5
2784
  8
0
  6
CONTINUOUS
 62
     0
 10
171.03417999247739
 20
85.221580534855804
 30
0.0
  0
VERTEX
  5
2785
  8
0
  6
CONTINUOUS
 62
     0
 10
170.79249004643469
 20
85.286790604117755
 30
0.0
  0
VERTEX
  5
2786
  8
0
  6
CONTINUOUS
 62
     0
 10
170.67058002878491
 20
85.321198951334026
 30
0.0
  0
VERTEX
  5
2787
  8
0
  6
CONTINUOUS
 62
     0
 10
170.5479060014294
 20
85.356823506814465
 30
0.0
  0
VERTEX
  5
2788
  8
0
  6
CONTINUOUS
 62
     0
 10
170.3001010738511
 20
85.431768118419996
 30
0.0
  0
VERTEX
  5
2789
  8
0
  6
CONTINUOUS
 62
     0
 10
170.0487399974472
 20
85.511726523312149
 30
0.0
  0
VERTEX
  5
278A
  8
0
  6
CONTINUOUS
 62
     0
 10
169.9216184422028
 20
85.553621523690467
 30
0.0
  0
SEQEND
  5
278B
  8
0
  6
CONTINUOUS
 62
     0
  0
LINE
  5
1C2A
  8
0
  6
CONTINUOUS
 62
     0
 10
169.9216184422028
 20
85.553621523690467
 30
0.0
 11
169.9216184422028
 21
89.03524276658078
 31
0.0
  0
POLYLINE
  5
1C2B
  8
0
  6
CONTINUOUS
 62
     0
 66
     1
 10
0.0
 20
0.0
 30
0.0
  0
VERTEX
  5
278C
  8
0
  6
CONTINUOUS
 62
     0
 10
169.9216184422028
 20
89.03524276658078
 30
0.0
  0
VERTEX
  5
278D
  8
0
  6
CONTINUOUS
 62
     0
 10
170.0487399974472
 20
89.077137766959126
 30
0.0
  0
VERTEX
  5
278E
  8
0
  6
CONTINUOUS
 62
     0
 10
170.3001010738511
 20
89.157096171851265
 30
0.0
  0
VERTEX
  5
278F
  8
0
  6
CONTINUOUS
 62
     0
 10
170.5479060014294
 20
89.232040783456796
 30
0.0
  0
VERTEX
  5
2790
  8
0
  6
CONTINUOUS
 62
     0
 10
170.67058002878491
 20
89.267665338937235
 30
0.0
  0
VERTEX
  5
2791
  8
0
  6
CONTINUOUS
 62
     0
 10
170.79249004643469
 20
89.302073686153506
 30
0.0
  0
VERTEX
  5
2792
  8
0
  6
CONTINUOUS
 62
     0
 10
171.03417999247739
 20
89.367283755415457
 30
0.0
  0
VERTEX
  5
2793
  8
0
  6
CONTINUOUS
 62
     0
 10
171.27329559801569
 20
89.427747032801022
 30
0.0
  0
VERTEX
  5
2794
  8
0
  6
CONTINUOUS
 62
     0
 10
171.5101510116433
 20
89.483527015340186
 30
0.0
  0
VERTEX
  5
2795
  8
0
  6
CONTINUOUS
 62
     0
 10
171.74505615838271
 20
89.534674861565861
 30
0.0
  0
VERTEX
  5
2796
  8
0
  6
CONTINUOUS
 62
     0
 10
171.9783181099412
 20
89.581229515393716
 30
0.0
  0
VERTEX
  5
2797
  8
0
  6
CONTINUOUS
 62
     0
 10
172.0944284035287
 20
89.602793237200814
 30
0.0
  0
VERTEX
  5
2798
  8
0
  6
CONTINUOUS
 62
     0
 10
172.2102424518383
 20
89.623217748020807
 30
0.0
  0
VERTEX
  5
2799
  8
0
  6
CONTINUOUS
 62
     0
 10
172.44113466048159
 20
89.660654116968445
 30
0.0
  0
VERTEX
  5
279A
  8
0
  6
CONTINUOUS
 62
     0
 10
172.67130150365199
 20
89.693540840311016
 30
0.0
  0
VERTEX
  5
279B
  8
0
  6
CONTINUOUS
 62
     0
 10
172.9010524784803
 20
89.721867582991777
 30
0.0
  0
VERTEX
  5
279C
  8
0
  6
CONTINUOUS
 62
     0
 10
173.1307013018656
 20
89.745611150902377
 30
0.0
  0
VERTEX
  5
279D
  8
0
  6
CONTINUOUS
 62
     0
 10
173.36056746943879
 20
89.764735087062007
 30
0.0
  0
VERTEX
  5
279E
  8
0
  6
CONTINUOUS
 62
     0
 10
173.47568388257349
 20
89.772549550923912
 30
0.0
  0
VERTEX
  5
279F
  8
0
  6
CONTINUOUS
 62
     0
 10
173.59097790063939
 20
89.779189162750768
 30
0.0
  0
VERTEX
  5
27A0
  8
0
  6
CONTINUOUS
 62
     0
 10
173.8222686892997
 20
89.788908754782057
 30
0.0
  0
VERTEX
  5
27A1
  8
0
  6
CONTINUOUS
 62
     0
 10
174.0547869813721
 20
89.793814098203043
 30
0.0
  0
VERTEX
  5
27A2
  8
0
  6
CONTINUOUS
 62
     0
 10
174.1716184422028
 20
89.794432145135644
 30
0.0
  0
SEQEND
  5
27A3
  8
0
  6
CONTINUOUS
 62
     0
  0
POLYLINE
  5
1C2C
  8
0
  6
CONTINUOUS
 62
     0
 66
     1
 10
0.0
 20
0.0
 30
0.0
  0
VERTEX
  5
27A4
  8
0
  6
CONTINUOUS
 62
     0
 10
161.4216184422028
 20
89.794432145135644
 30
0.0
  0
VERTEX
  5
27A5
  8
0
  6
CONTINUOUS
 62
     0
 10
161.4216184422028
 20
89.793814098203043
 30
0.0
  0
VERTEX
  5
27A6
  8
0
  6
CONTINUOUS
 62
     0
 10
161.4216184422028
 20
89.788908754782057
 30
0.0
  0
VERTEX
  5
27A7
  8
0
  6
CONTINUOUS
 62
     0
 10
161.4216184422028
 20
89.779189162750768
 30
0.0
  0
VERTEX
  5
27A8
  8
0
  6
CONTINUOUS
 62
     0
 10
161.4216184422028
 20
89.772549550923912
 30
0.0
  0
VERTEX
  5
27A9
  8
0
  6
CONTINUOUS
 62
     0
 10
161.4216184422028
 20
89.764735087062007
 30
0.0
  0
VERTEX
  5
27AA
  8
0
  6
CONTINUOUS
 62
     0
 10
161.4216184422028
 20
89.745611150902377
 30
0.0
  0
VERTEX
  5
27AB
  8
0
  6
CONTINUOUS
 62
     0
 10
161.4216184422028
 20
89.721867582991777
 30
0.0
  0
VERTEX
  5
27AC
  8
0
  6
CONTINUOUS
 62
     0
 10
161.4216184422028
 20
89.693540840311016
 30
0.0
  0
VERTEX
  5
27AD
  8
0
  6
CONTINUOUS
 62
     0
 10
161.4216184422028
 20
89.660654116968445
 30
0.0
  0
VERTEX
  5
27AE
  8
0
  6
CONTINUOUS
 62
     0
 10
161.4216184422028
 20
89.623217748020807
 30
0.0
  0
VERTEX
  5
27AF
  8
0
  6
CONTINUOUS
 62
     0
 10
161.4216184422028
 20
89.602793237200814
 30
0.0
  0
VERTEX
  5
27B0
  8
0
  6
CONTINUOUS
 62
     0
 10
161.4216184422028
 20
89.581229515393716
 30
0.0
  0
VERTEX
  5
27B1
  8
0
  6
CONTINUOUS
 62
     0
 10
161.4216184422028
 20
89.534674861565861
 30
0.0
  0
VERTEX
  5
27B2
  8
0
  6
CONTINUOUS
 62
     0
 10
161.4216184422028
 20
89.483527015340186
 30
0.0
  0
VERTEX
  5
27B3
  8
0
  6
CONTINUOUS
 62
     0
 10
161.4216184422028
 20
89.427747032801022
 30
0.0
  0
VERTEX
  5
27B4
  8
0
  6
CONTINUOUS
 62
     0
 10
161.4216184422028
 20
89.367283755415457
 30
0.0
  0
VERTEX
  5
27B5
  8
0
  6
CONTINUOUS
 62
     0
 10
161.4216184422028
 20
89.302073686153506
 30
0.0
  0
VERTEX
  5
27B6
  8
0
  6
CONTINUOUS
 62
     0
 10
161.4216184422028
 20
89.267665338937235
 30
0.0
  0
VERTEX
  5
27B7
  8
0
  6
CONTINUOUS
 62
     0
 10
161.4216184422028
 20
89.232040783456796
 30
0.0
  0
VERTEX
  5
27B8
  8
0
  6
CONTINUOUS
 62
     0
 10
161.4216184422028
 20
89.157096171851265
 30
0.0
  0
VERTEX
  5
27B9
  8
0
  6
CONTINUOUS
 62
     0
 10
161.4216184422028
 20
89.077137766959126
 30
0.0
  0
VERTEX
  5
27BA
  8
0
  6
CONTINUOUS
 62
     0
 10
161.4216184422028
 20
89.03524276658078
 30
0.0
  0
SEQEND
  5
27BB
  8
0
  6
CONTINUOUS
 62
     0
  0
LINE
  5
1C2D
  8
0
  6
CONTINUOUS
 62
     0
 10
161.4216184422028
 20
85.553621523690467
 30
0.0
 11
161.4216184422028
 21
89.03524276658078
 31
0.0
  0
POLYLINE
  5
1C2E
  8
0
  6
CONTINUOUS
 62
     0
 66
     1
 10
0.0
 20
0.0
 30
0.0
  0
VERTEX
  5
27BC
  8
0
  6
CONTINUOUS
 62
     0
 10
161.4216184422028
 20
85.553621523690467
 30
0.0
  0
VERTEX
  5
27BD
  8
0
  6
CONTINUOUS
 62
     0
 10
161.4216184422028
 20
85.511726523312149
 30
0.0
  0
VERTEX
  5
27BE
  8
0
  6
CONTINUOUS
 62
     0
 10
161.4216184422028
 20
85.431768118419996
 30
0.0
  0
VERTEX
  5
27BF
  8
0
  6
CONTINUOUS
 62
     0
 10
161.4216184422028
 20
85.356823506814465
 30
0.0
  0
VERTEX
  5
27C0
  8
0
  6
CONTINUOUS
 62
     0
 10
161.4216184422028
 20
85.321198951334026
 30
0.0
  0
VERTEX
  5
27C1
  8
0
  6
CONTINUOUS
 62
     0
 10
161.4216184422028
 20
85.286790604117755
 30
0.0
  0
VERTEX
  5
27C2
  8
0
  6
CONTINUOUS
 62
     0
 10
161.4216184422028
 20
85.221580534855804
 30
0.0
  0
VERTEX
  5
27C3
  8
0
  6
CONTINUOUS
 62
     0
 10
161.4216184422028
 20
85.161117257470224
 30
0.0
  0
VERTEX
  5
27C4
  8
0
  6
CONTINUOUS
 62
     0
 10
161.4216184422028
 20
85.105337274931088
 30
0.0
  0
VERTEX
  5
27C5
  8
0
  6
CONTINUOUS
 62
     0
 10
161.4216184422028
 20
85.054189428705385
 30
0.0
  0
VERTEX
  5
27C6
  8
0
  6
CONTINUOUS
 62
     0
 10
161.4216184422028
 20
85.007634774877545
 30
0.0
  0
VERTEX
  5
27C7
  8
0
  6
CONTINUOUS
 62
     0
 10
161.4216184422028
 20
84.986071053070447
 30
0.0
  0
VERTEX
  5
27C8
  8
0
  6
CONTINUOUS
 62
     0
 10
161.4216184422028
 20
84.965646542250454
 30
0.0
  0
VERTEX
  5
27C9
  8
0
  6
CONTINUOUS
 62
     0
 10
161.4216184422028
 20
84.928210173302801
 30
0.0
  0
VERTEX
  5
27CA
  8
0
  6
CONTINUOUS
 62
     0
 10
161.4216184422028
 20
84.895323449960244
 30
0.0
  0
VERTEX
  5
27CB
  8
0
  6
CONTINUOUS
 62
     0
 10
161.4216184422028
 20
84.866996707279469
 30
0.0
  0
VERTEX
  5
27CC
  8
0
  6
CONTINUOUS
 62
     0
 10
161.4216184422028
 20
84.843253139368898
 30
0.0
  0
VERTEX
  5
27CD
  8
0
  6
CONTINUOUS
 62
     0
 10
161.4216184422028
 20
84.824129203209253
 30
0.0
  0
VERTEX
  5
27CE
  8
0
  6
CONTINUOUS
 62
     0
 10
161.4216184422028
 20
84.816314739347348
 30
0.0
  0
VERTEX
  5
27CF
  8
0
  6
CONTINUOUS
 62
     0
 10
161.4216184422028
 20
84.809675127520478
 30
0.0
  0
VERTEX
  5
27D0
  8
0
  6
CONTINUOUS
 62
     0
 10
161.4216184422028
 20
84.799955535489204
 30
0.0
  0
VERTEX
  5
27D1
  8
0
  6
CONTINUOUS
 62
     0
 10
161.4216184422028
 20
84.795050192068203
 30
0.0
  0
VERTEX
  5
27D2
  8
0
  6
CONTINUOUS
 62
     0
 10
161.4216184422028
 20
84.794432145135644
 30
0.0
  0
SEQEND
  5
27D3
  8
0
  6
CONTINUOUS
 62
     0
  0
LINE
  5
1C31
  8
1
 10
169.9216184422028
 20
65.794432145135644
 30
0.0
 11
169.9216184422028
 21
109.7944321451356
 31
0.0
  0
ARC
  5
1C32
  8
0
  6
CONTINUOUS
 62
     0
 10
169.9216184422028
 20
99.294432145135616
 30
0.0
 40
7.5000000000000284
 50
60.073565133385252
 51
119.9264348666147
  0
LINE
  5
1C34
  8
0
  6
CONTINUOUS
 62
     0
 10
173.66327582897671
 20
100.86076765390391
 30
0.0
 11
173.66327582897671
 21
105.7944321451356
 31
0.0
  0
LINE
  5
1C35
  8
0
  6
CONTINUOUS
 62
     0
 10
166.17996105542881
 20
105.7944321451356
 30
0.0
 11
166.17996105542881
 21
100.86076765390381
 31
0.0
  0
LINE
  5
1C3B
  8
0
  6
CONTINUOUS
 62
     0
 10
171.9216184422028
 20
69.79443214513563
 30
0.0
 11
171.9216184422028
 21
74.79443214513563
 31
0.0
  0
LINE
  5
1C3C
  8
0
  6
CONTINUOUS
 62
     0
 10
167.9216184422028
 20
74.79443214513563
 30
0.0
 11
167.9216184422028
 21
69.79443214513563
 31
0.0
  0
LINE
  5
1C3D
  8
0
  6
CONTINUOUS
 62
     0
 10
171.34426817301309
 20
68.79443214513563
 30
0.0
 11
171.9216184422028
 21
69.79443214513563
 31
0.0
  0
LINE
  5
1C3E
  8
0
  6
CONTINUOUS
 62
     0
 10
167.9216184422028
 20
69.79443214513563
 30
0.0
 11
168.49896871139239
 21
68.79443214513563
 31
0.0
  0
LINE
  5
1C42
  8
0
  6
CONTINUOUS
 62
     0
 10
167.9216184422028
 20
69.79443214513563
 30
0.0
 11
171.9216184422028
 21
69.79443214513563
 31
0.0
  0
LINE
  5
1C43
  8
0
  6
CONTINUOUS
 62
     0
 10
168.49896871139239
 20
68.79443214513563
 30
0.0
 11
171.34426817301309
 21
68.79443214513563
 31
0.0
  0
LINE
  5
1C45
  8
0
  6
CONTINUOUS
 62
     0
 10
171.4216184422028
 20
97.79443214513563
 30
0.0
 11
171.4216184422028
 21
104.7944321451356
 31
0.0
  0
LINE
  5
1C47
  8
0
  6
CONTINUOUS
 62
     0
 10
168.4216184422028
 20
97.79443214513563
 30
0.0
 11
168.4216184422028
 21
104.7944321451356
 31
0.0
  0
LINE
  5
1C4C
  8
0
  6
CONTINUOUS
 62
     0
 10
174.00161844220281
 20
74.79443214513563
 30
0.0
 11
174.9216184422028
 21
75.714432145135646
 31
0.0
  0
LINE
  5
1C4D
  8
0
  6
CONTINUOUS
 62
     0
 10
164.9216184422028
 20
75.714432145135646
 30
0.0
 11
165.84161844220279
 21
74.79443214513563
 31
0.0
  0
LINE
  5
1C4E
  8
0
  6
CONTINUOUS
 62
     0
 10
174.9216184422028
 20
75.714432145135646
 30
0.0
 11
174.9216184422028
 21
84.794432145135644
 31
0.0
  0
LINE
  5
1C4F
  8
0
  6
CONTINUOUS
 62
     0
 10
174.9216184422028
 20
84.794432145135644
 30
0.0
 11
174.9216184422028
 21
84.819984871333332
 31
0.0
  0
LINE
  5
1C50
  8
0
  6
CONTINUOUS
 62
     0
 10
174.9216184422028
 20
89.794432145135644
 30
0.0
 11
174.9216184422028
 21
101.8882620331142
 31
0.0
  0
LINE
  5
1C51
  8
0
  6
CONTINUOUS
 62
     0
 10
164.9216184422028
 20
101.8882620331142
 30
0.0
 11
164.9216184422028
 21
89.794432145135644
 31
0.0
  0
LINE
  5
1C53
  8
0
  6
CONTINUOUS
 62
     0
 10
164.9216184422028
 20
84.794432145135644
 30
0.0
 11
164.9216184422028
 21
75.714432145135646
 31
0.0
  0
LINE
  5
1C58
  8
0
  6
CONTINUOUS
 62
     0
 10
165.84161844220279
 20
74.79443214513563
 30
0.0
 11
174.00161844220281
 21
74.79443214513563
 31
0.0
  0
LINE
  5
1C59
  8
0
  6
CONTINUOUS
 62
     0
 10
164.9216184422028
 20
75.714432145135646
 30
0.0
 11
174.9216184422028
 21
75.714432145135646
 31
0.0
  0
LINE
  5
1C5A
  8
0
  6
CONTINUOUS
 62
     0
 10
164.9216184422028
 20
94.794432145135644
 30
0.0
 11
174.9216184422028
 21
94.794432145135644
 31
0.0
  0
POLYLINE
  5
1C5D
  8
0
  6
CONTINUOUS
 62
     0
 66
     1
 10
0.0
 20
0.0
 30
0.0
  0
VERTEX
  5
27D4
  8
0
  6
CONTINUOUS
 62
     0
 10
173.66348972389389
 20
104.29775566227551
 30
0.0
  0
VERTEX
  5
27D5
  8
0
  6
CONTINUOUS
 62
     0
 10
173.7295316961374
 20
104.24250610109431
 30
0.0
  0
VERTEX
  5
27D6
  8
0
  6
CONTINUOUS
 62
     0
 10
173.85695403237631
 20
104.1291639239723
 30
0.0
  0
VERTEX
  5
27D7
  8
0
  6
CONTINUOUS
 62
     0
 10
173.9779896157896
 20
104.0121849321098
 30
0.0
  0
VERTEX
  5
27D8
  8
0
  6
CONTINUOUS
 62
     0
 10
174.0360505765789
 20
103.95239073597971
 30
0.0
  0
VERTEX
  5
27D9
  8
0
  6
CONTINUOUS
 62
     0
 10
174.09244201475479
 20
103.8917589735868
 30
0.0
  0
VERTEX
  5
27DA
  8
0
  6
CONTINUOUS
 62
     0
 10
174.2001254816613
 20
103.7680814906506
 30
0.0
  0
VERTEX
  5
27DB
  8
0
  6
CONTINUOUS
 62
     0
 10
174.30086525436491
 20
103.641353202527
 30
0.0
  0
VERTEX
  5
27DC
  8
0
  6
CONTINUOUS
 62
     0
 10
174.39449783981311
 20
103.5117797796688
 30
0.0
  0
VERTEX
  5
27DD
  8
0
  6
CONTINUOUS
 62
     0
 10
174.48087127938231
 20
103.3795715099677
 30
0.0
  0
VERTEX
  5
27DE
  8
0
  6
CONTINUOUS
 62
     0
 10
174.5598453954951
 20
103.2449429574732
 30
0.0
  0
VERTEX
  5
27DF
  8
0
  6
CONTINUOUS
 62
     0
 10
174.59651717952619
 20
103.17678921014389
 30
0.0
  0
VERTEX
  5
27E0
  8
0
  6
CONTINUOUS
 62
     0
 10
174.63129201911801
 20
103.10811261417111
 30
0.0
  0
VERTEX
  5
27E1
  8
0
  6
CONTINUOUS
 62
     0
 10
174.69509519777
 20
102.96930254538761
 30
0.0
  0
VERTEX
  5
27E2
  8
0
  6
CONTINUOUS
 62
     0
 10
174.75115138370461
 20
102.8287380293942
 30
0.0
  0
VERTEX
  5
27E3
  8
0
  6
CONTINUOUS
 62
     0
 10
174.79936960196039
 20
102.6866471917976
 30
0.0
  0
VERTEX
  5
27E4
  8
0
  6
CONTINUOUS
 62
     0
 10
174.8396715980063
 20
102.54326063530959
 30
0.0
  0
VERTEX
  5
27E5
  8
0
  6
CONTINUOUS
 62
     0
 10
174.87199196474231
 20
102.39881106549601
 30
0.0
  0
VERTEX
  5
27E6
  8
0
  6
CONTINUOUS
 62
     0
 10
174.88514213692369
 20
102.3262608531999
 30
0.0
  0
VERTEX
  5
27E7
  8
0
  6
CONTINUOUS
 62
     0
 10
174.8962782486515
 20
102.25353291311281
 30
0.0
  0
VERTEX
  5
27E8
  8
0
  6
CONTINUOUS
 62
     0
 10
174.9124910349266
 20
102.1076619536432
 30
0.0
  0
VERTEX
  5
27E9
  8
0
  6
CONTINUOUS
 62
     0
 10
174.92060401143871
 20
101.9614349246517
 30
0.0
  0
VERTEX
  5
27EA
  8
0
  6
CONTINUOUS
 62
     0
 10
174.9216184422028
 20
101.8882620331142
 30
0.0
  0
SEQEND
  5
27EB
  8
0
  6
CONTINUOUS
 62
     0
  0
POLYLINE
  5
1C5E
  8
0
  6
CONTINUOUS
 62
     0
 66
     1
 10
0.0
 20
0.0
 30
0.0
  0
VERTEX
  5
27EC
  8
0
  6
CONTINUOUS
 62
     0
 10
174.9216184422028
 20
101.8882620331142
 30
0.0
  0
VERTEX
  5
27ED
  8
0
  6
CONTINUOUS
 62
     0
 10
174.91852685004091
 20
101.76053436130179
 30
0.0
  0
VERTEX
  5
27EE
  8
0
  6
CONTINUOUS
 62
     0
 10
174.89381704707901
 20
101.5057106333374
 30
0.0
  0
VERTEX
  5
27EF
  8
0
  6
CONTINUOUS
 62
     0
 10
174.8445196315804
 20
101.2527786290028
 30
0.0
  0
VERTEX
  5
27F0
  8
0
  6
CONTINUOUS
 62
     0
 10
174.81072202873631
 20
101.1274134186088
 30
0.0
  0
VERTEX
  5
27F1
  8
0
  6
CONTINUOUS
 62
     0
 10
174.77087838016141
 20
101.00298910165991
 30
0.0
  0
VERTEX
  5
27F2
  8
0
  6
CONTINUOUS
 62
     0
 10
174.67325745014949
 20
100.7575772650646
 30
0.0
  0
VERTEX
  5
27F3
  8
0
  6
CONTINUOUS
 62
     0
 10
174.55213957881929
 20
100.5177566852125
 30
0.0
  0
VERTEX
  5
27F4
  8
0
  6
CONTINUOUS
 62
     0
 10
174.4081236962474
 20
100.2847132792329
 30
0.0
  0
VERTEX
  5
27F5
  8
0
  6
CONTINUOUS
 62
     0
 10
174.24192196359249
 20
100.059599451007
 30
0.0
  0
VERTEX
  5
27F6
  8
0
  6
CONTINUOUS
 62
     0
 10
174.05435625144551
 20
99.843528392509825
 30
0.0
  0
VERTEX
  5
27F7
  8
0
  6
CONTINUOUS
 62
     0
 10
173.9528477469392
 20
99.739219693292043
 30
0.0
  0
VERTEX
  5
27F8
  8
0
  6
CONTINUOUS
 62
     0
 10
173.84635407566449
 20
99.637568579055582
 30
0.0
  0
VERTEX
  5
27F9
  8
0
  6
CONTINUOUS
 62
     0
 10
173.61894401079189
 20
99.442738485667832
 30
0.0
  0
VERTEX
  5
27FA
  8
0
  6
CONTINUOUS
 62
     0
 10
173.3732506037347
 20
99.260001550702015
 30
0.0
  0
VERTEX
  5
27FB
  8
0
  6
CONTINUOUS
 62
     0
 10
173.22196567832549
 20
99.159351650847071
 30
0.0
  0
VERTEX
  5
27FC
  8
0
  6
CONTINUOUS
 62
     0
 10
173.17770974617099
 20
99.131430955310094
 30
0.0
  0
VERTEX
  5
27FD
  8
0
  6
CONTINUOUS
 62
     0
 10
173.1330063727444
 20
99.103889094360085
 30
0.0
  0
VERTEX
  5
27FE
  8
0
  6
CONTINUOUS
 62
     0
 10
173.11048881285959
 20
99.090261411625264
 30
0.0
  0
VERTEX
  5
27FF
  8
0
  6
CONTINUOUS
 62
     0
 10
173.08786170103519
 20
99.076729852708283
 30
0.0
  0
VERTEX
  5
2800
  8
0
  6
CONTINUOUS
 62
     0
 10
173.04228193467441
 20
99.049956962487585
 30
0.0
  0
VERTEX
  5
2801
  8
0
  6
CONTINUOUS
 62
     0
 10
172.9962733370825
 20
99.023574102739843
 30
0.0
  0
VERTEX
  5
2802
  8
0
  6
CONTINUOUS
 62
     0
 10
172.94984223060831
 20
98.997584898910205
 30
0.0
  0
VERTEX
  5
2803
  8
0
  6
CONTINUOUS
 62
     0
 10
172.90299499566049
 20
98.971992922348818
 30
0.0
  0
VERTEX
  5
2804
  8
0
  6
CONTINUOUS
 62
     0
 10
172.85573806983109
 20
98.946801689820319
 30
0.0
  0
VERTEX
  5
2805
  8
0
  6
CONTINUOUS
 62
     0
 10
172.83195800000149
 20
98.934357436512514
 30
0.0
  0
VERTEX
  5
2806
  8
0
  6
CONTINUOUS
 62
     0
 10
172.80807794700991
 20
98.922014663020349
 30
0.0
  0
VERTEX
  5
2807
  8
0
  6
CONTINUOUS
 62
     0
 10
172.76002117649301
 20
98.897635248099959
 30
0.0
  0
VERTEX
  5
2808
  8
0
  6
CONTINUOUS
 62
     0
 10
172.71157436208259
 20
98.873666795197522
 30
0.0
  0
VERTEX
  5
2809
  8
0
  6
CONTINUOUS
 62
     0
 10
172.66274416117929
 20
98.850112597978352
 30
0.0
  0
VERTEX
  5
280A
  8
0
  6
CONTINUOUS
 62
     0
 10
172.6135372838672
 20
98.826975893182151
 30
0.0
  0
VERTEX
  5
280B
  8
0
  6
CONTINUOUS
 62
     0
 10
172.56396049199259
 20
98.804259860178206
 30
0.0
  0
VERTEX
  5
280C
  8
0
  6
CONTINUOUS
 62
     0
 10
172.53903550509611
 20
98.793060573356314
 30
0.0
  0
VERTEX
  5
280D
  8
0
  6
CONTINUOUS
 62
     0
 10
172.5140205982336
 20
98.781967620528434
 30
0.0
  0
VERTEX
  5
280E
  8
0
  6
CONTINUOUS
 62
     0
 10
172.463724465165
 20
98.760102237558527
 30
0.0
  0
VERTEX
  5
280F
  8
0
  6
CONTINUOUS
 62
     0
 10
172.41307900431451
 20
98.738666715936915
 30
0.0
  0
VERTEX
  5
2810
  8
0
  6
CONTINUOUS
 62
     0
 10
172.38762744897559
 20
98.728111075949727
 30
0.0
  0
VERTEX
  5
2811
  8
0
  6
CONTINUOUS
 62
     0
 10
172.36209117521349
 20
98.717664001261895
 30
0.0
  0
VERTEX
  5
2812
  8
0
  6
CONTINUOUS
 62
     0
 10
172.31076798444059
 20
98.697096979656919
 30
0.0
  0
VERTEX
  5
2813
  8
0
  6
CONTINUOUS
 62
     0
 10
172.25911648465831
 20
98.676968477373904
 30
0.0
  0
VERTEX
  5
2814
  8
0
  6
CONTINUOUS
 62
     0
 10
172.23316983520851
 20
98.667069537714966
 30
0.0
  0
VERTEX
  5
2815
  8
0
  6
CONTINUOUS
 62
     0
 10
172.2071437736445
 20
98.657281260404872
 30
0.0
  0
VERTEX
  5
2816
  8
0
  6
CONTINUOUS
 62
     0
 10
172.15485699331691
 20
98.638038034101925
 30
0.0
  0
VERTEX
  5
2817
  8
0
  6
CONTINUOUS
 62
     0
 10
172.10226332875141
 20
98.619241442805432
 30
0.0
  0
VERTEX
  5
2818
  8
0
  6
CONTINUOUS
 62
     0
 10
172.04937000719519
 20
98.600894069480631
 30
0.0
  0
VERTEX
  5
2819
  8
0
  6
CONTINUOUS
 62
     0
 10
171.99618429707311
 20
98.582998435362796
 30
0.0
  0
VERTEX
  5
281A
  8
0
  6
CONTINUOUS
 62
     0
 10
171.94271350698901
 20
98.565556999610564
 30
0.0
  0
VERTEX
  5
281B
  8
0
  6
CONTINUOUS
 62
     0
 10
171.91587350163931
 20
98.557007357551285
 30
0.0
  0
VERTEX
  5
281C
  8
0
  6
CONTINUOUS
 62
     0
 10
171.88896498472161
 20
98.548572158968256
 30
0.0
  0
VERTEX
  5
281D
  8
0
  6
CONTINUOUS
 62
     0
 10
171.83494611621481
 20
98.532046247436341
 30
0.0
  0
VERTEX
  5
281E
  8
0
  6
CONTINUOUS
 62
     0
 10
171.7806643245622
 20
98.5159815359508
 30
0.0
  0
VERTEX
  5
281F
  8
0
  6
CONTINUOUS
 62
     0
 10
171.72612706898781
 20
98.500380232071052
 30
0.0
  0
VERTEX
  5
2820
  8
0
  6
CONTINUOUS
 62
     0
 10
171.67134184382039
 20
98.48524447967651
 30
0.0
  0
VERTEX
  5
2821
  8
0
  6
CONTINUOUS
 62
     0
 10
171.61631617746411
 20
98.470576358672105
 30
0.0
  0
VERTEX
  5
2822
  8
0
  6
CONTINUOUS
 62
     0
 10
171.58871554052919
 20
98.463418292347967
 30
0.0
  0
VERTEX
  5
2823
  8
0
  6
CONTINUOUS
 62
     0
 10
171.56105763136341
 20
98.456377884702448
 30
0.0
  0
VERTEX
  5
2824
  8
0
  6
CONTINUOUS
 62
     0
 10
171.5055737989646
 20
98.442651008874677
 30
0.0
  0
VERTEX
  5
2825
  8
0
  6
CONTINUOUS
 62
     0
 10
171.44987230467191
 20
98.429397617490594
 30
0.0
  0
VERTEX
  5
2826
  8
0
  6
CONTINUOUS
 62
     0
 10
171.4219423251491
 20
98.422949050150024
 30
0.0
  0
SEQEND
  5
2827
  8
0
  6
CONTINUOUS
 62
     0
  0
POLYLINE
  5
1C62
  8
0
  6
CONTINUOUS
 62
     0
 66
     1
 10
0.0
 20
0.0
 30
0.0
  0
VERTEX
  5
2828
  8
0
  6
CONTINUOUS
 62
     0
 10
168.42129455925641
 20
98.422949050150024
 30
0.0
  0
VERTEX
  5
2829
  8
0
  6
CONTINUOUS
 62
     0
 10
168.3933645797336
 20
98.429397617490594
 30
0.0
  0
VERTEX
  5
282A
  8
0
  6
CONTINUOUS
 62
     0
 10
168.33766308544099
 20
98.442651008874677
 30
0.0
  0
VERTEX
  5
282B
  8
0
  6
CONTINUOUS
 62
     0
 10
168.28217925304219
 20
98.456377884702448
 30
0.0
  0
VERTEX
  5
282C
  8
0
  6
CONTINUOUS
 62
     0
 10
168.25452134387629
 20
98.463418292347967
 30
0.0
  0
VERTEX
  5
282D
  8
0
  6
CONTINUOUS
 62
     0
 10
168.2269207069414
 20
98.470576358672133
 30
0.0
  0
VERTEX
  5
282E
  8
0
  6
CONTINUOUS
 62
     0
 10
168.1718950405851
 20
98.48524447967651
 30
0.0
  0
VERTEX
  5
282F
  8
0
  6
CONTINUOUS
 62
     0
 10
168.11710981541771
 20
98.500380232071052
 30
0.0
  0
VERTEX
  5
2830
  8
0
  6
CONTINUOUS
 62
     0
 10
168.06257255984329
 20
98.5159815359508
 30
0.0
  0
VERTEX
  5
2831
  8
0
  6
CONTINUOUS
 62
     0
 10
168.00829076819079
 20
98.532046247436341
 30
0.0
  0
VERTEX
  5
2832
  8
0
  6
CONTINUOUS
 62
     0
 10
167.9542718996839
 20
98.548572158968256
 30
0.0
  0
VERTEX
  5
2833
  8
0
  6
CONTINUOUS
 62
     0
 10
167.9273633827662
 20
98.557007357551285
 30
0.0
  0
VERTEX
  5
2834
  8
0
  6
CONTINUOUS
 62
     0
 10
167.90052337741659
 20
98.565556999610564
 30
0.0
  0
VERTEX
  5
2835
  8
0
  6
CONTINUOUS
 62
     0
 10
167.84705258733251
 20
98.582998435362796
 30
0.0
  0
VERTEX
  5
2836
  8
0
  6
CONTINUOUS
 62
     0
 10
167.79386687721041
 20
98.600894069480631
 30
0.0
  0
VERTEX
  5
2837
  8
0
  6
CONTINUOUS
 62
     0
 10
167.74097355565411
 20
98.619241442805432
 30
0.0
  0
VERTEX
  5
2838
  8
0
  6
CONTINUOUS
 62
     0
 10
167.68837989108869
 20
98.638038034101925
 30
0.0
  0
VERTEX
  5
2839
  8
0
  6
CONTINUOUS
 62
     0
 10
167.6360931107611
 20
98.657281260404872
 30
0.0
  0
VERTEX
  5
283A
  8
0
  6
CONTINUOUS
 62
     0
 10
167.610067049197
 20
98.667069537714966
 30
0.0
  0
VERTEX
  5
283B
  8
0
  6
CONTINUOUS
 62
     0
 10
167.58412039974729
 20
98.676968477373904
 30
0.0
  0
VERTEX
  5
283C
  8
0
  6
CONTINUOUS
 62
     0
 10
167.53246889996501
 20
98.697096979656919
 30
0.0
  0
VERTEX
  5
283D
  8
0
  6
CONTINUOUS
 62
     0
 10
167.48114570919199
 20
98.717664001261895
 30
0.0
  0
VERTEX
  5
283E
  8
0
  6
CONTINUOUS
 62
     0
 10
167.45560943543001
 20
98.728111075949727
 30
0.0
  0
VERTEX
  5
283F
  8
0
  6
CONTINUOUS
 62
     0
 10
167.430157880091
 20
98.738666715936915
 30
0.0
  0
VERTEX
  5
2840
  8
0
  6
CONTINUOUS
 62
     0
 10
167.3795124192406
 20
98.760102237558527
 30
0.0
  0
VERTEX
  5
2841
  8
0
  6
CONTINUOUS
 62
     0
 10
167.32921628617191
 20
98.781967620528434
 30
0.0
  0
VERTEX
  5
2842
  8
0
  6
CONTINUOUS
 62
     0
 10
167.3042013793094
 20
98.793060573356314
 30
0.0
  0
VERTEX
  5
2843
  8
0
  6
CONTINUOUS
 62
     0
 10
167.27927639241301
 20
98.804259860178206
 30
0.0
  0
VERTEX
  5
2844
  8
0
  6
CONTINUOUS
 62
     0
 10
167.22969960053831
 20
98.826975893182151
 30
0.0
  0
VERTEX
  5
2845
  8
0
  6
CONTINUOUS
 62
     0
 10
167.18049272322631
 20
98.850112597978352
 30
0.0
  0
VERTEX
  5
2846
  8
0
  6
CONTINUOUS
 62
     0
 10
167.1316625223229
 20
98.873666795197522
 30
0.0
  0
VERTEX
  5
2847
  8
0
  6
CONTINUOUS
 62
     0
 10
167.0832157079125
 20
98.897635248099959
 30
0.0
  0
VERTEX
  5
2848
  8
0
  6
CONTINUOUS
 62
     0
 10
167.03515893739561
 20
98.922014663020349
 30
0.0
  0
VERTEX
  5
2849
  8
0
  6
CONTINUOUS
 62
     0
 10
167.01127888440399
 20
98.934357436512514
 30
0.0
  0
VERTEX
  5
284A
  8
0
  6
CONTINUOUS
 62
     0
 10
166.98749881457451
 20
98.946801689820319
 30
0.0
  0
VERTEX
  5
284B
  8
0
  6
CONTINUOUS
 62
     0
 10
166.94024188874499
 20
98.971992922348818
 30
0.0
  0
VERTEX
  5
284C
  8
0
  6
CONTINUOUS
 62
     0
 10
166.89339465379729
 20
98.997584898910205
 30
0.0
  0
VERTEX
  5
284D
  8
0
  6
CONTINUOUS
 62
     0
 10
166.8469635473231
 20
99.023574102739843
 30
0.0
  0
VERTEX
  5
284E
  8
0
  6
CONTINUOUS
 62
     0
 10
166.80095494973111
 20
99.049956962487585
 30
0.0
  0
VERTEX
  5
284F
  8
0
  6
CONTINUOUS
 62
     0
 10
166.7553751833704
 20
99.076729852708283
 30
0.0
  0
VERTEX
  5
2850
  8
0
  6
CONTINUOUS
 62
     0
 10
166.73274807154601
 20
99.090261411625264
 30
0.0
  0
VERTEX
  5
2851
  8
0
  6
CONTINUOUS
 62
     0
 10
166.71023051166111
 20
99.103889094360085
 30
0.0
  0
VERTEX
  5
2852
  8
0
  6
CONTINUOUS
 62
     0
 10
166.66552713823461
 20
99.131430955310094
 30
0.0
  0
VERTEX
  5
2853
  8
0
  6
CONTINUOUS
 62
     0
 10
166.62127120608011
 20
99.159351650847071
 30
0.0
  0
VERTEX
  5
2854
  8
0
  6
CONTINUOUS
 62
     0
 10
166.46998628067089
 20
99.260001550702015
 30
0.0
  0
VERTEX
  5
2855
  8
0
  6
CONTINUOUS
 62
     0
 10
166.22429287361371
 20
99.442738485667832
 30
0.0
  0
VERTEX
  5
2856
  8
0
  6
CONTINUOUS
 62
     0
 10
165.99688280874111
 20
99.637568579055582
 30
0.0
  0
VERTEX
  5
2857
  8
0
  6
CONTINUOUS
 62
     0
 10
165.89038913746629
 20
99.739219693292043
 30
0.0
  0
VERTEX
  5
2858
  8
0
  6
CONTINUOUS
 62
     0
 10
165.78888063296009
 20
99.843528392509825
 30
0.0
  0
VERTEX
  5
2859
  8
0
  6
CONTINUOUS
 62
     0
 10
165.60131492081311
 20
100.059599451007
 30
0.0
  0
VERTEX
  5
285A
  8
0
  6
CONTINUOUS
 62
     0
 10
165.4351131881582
 20
100.2847132792329
 30
0.0
  0
VERTEX
  5
285B
  8
0
  6
CONTINUOUS
 62
     0
 10
165.29109730558631
 20
100.5177566852125
 30
0.0
  0
VERTEX
  5
285C
  8
0
  6
CONTINUOUS
 62
     0
 10
165.16997943425611
 20
100.7575772650646
 30
0.0
  0
VERTEX
  5
285D
  8
0
  6
CONTINUOUS
 62
     0
 10
165.07235850424419
 20
101.00298910165991
 30
0.0
  0
VERTEX
  5
285E
  8
0
  6
CONTINUOUS
 62
     0
 10
165.03251485566929
 20
101.1274134186088
 30
0.0
  0
VERTEX
  5
285F
  8
0
  6
CONTINUOUS
 62
     0
 10
164.99871725282509
 20
101.2527786290028
 30
0.0
  0
VERTEX
  5
2860
  8
0
  6
CONTINUOUS
 62
     0
 10
164.9494198373265
 20
101.5057106333374
 30
0.0
  0
VERTEX
  5
2861
  8
0
  6
CONTINUOUS
 62
     0
 10
164.92471003436461
 20
101.76053436130179
 30
0.0
  0
VERTEX
  5
2862
  8
0
  6
CONTINUOUS
 62
     0
 10
164.9216184422028
 20
101.8882620331142
 30
0.0
  0
SEQEND
  5
2863
  8
0
  6
CONTINUOUS
 62
     0
  0
POLYLINE
  5
1C63
  8
0
  6
CONTINUOUS
 62
     0
 66
     1
 10
0.0
 20
0.0
 30
0.0
  0
VERTEX
  5
2864
  8
0
  6
CONTINUOUS
 62
     0
 10
164.9216184422028
 20
101.8882620331142
 30
0.0
  0
VERTEX
  5
2865
  8
0
  6
CONTINUOUS
 62
     0
 10
164.92263287296689
 20
101.9614349246517
 30
0.0
  0
VERTEX
  5
2866
  8
0
  6
CONTINUOUS
 62
     0
 10
164.93074584947891
 20
102.1076619536432
 30
0.0
  0
VERTEX
  5
2867
  8
0
  6
CONTINUOUS
 62
     0
 10
164.9469586357541
 20
102.25353291311281
 30
0.0
  0
VERTEX
  5
2868
  8
0
  6
CONTINUOUS
 62
     0
 10
164.95809474748179
 20
102.3262608531999
 30
0.0
  0
VERTEX
  5
2869
  8
0
  6
CONTINUOUS
 62
     0
 10
164.97124491966321
 20
102.39881106549601
 30
0.0
  0
VERTEX
  5
286A
  8
0
  6
CONTINUOUS
 62
     0
 10
165.00356528639929
 20
102.54326063530959
 30
0.0
  0
VERTEX
  5
286B
  8
0
  6
CONTINUOUS
 62
     0
 10
165.04386728244509
 20
102.6866471917976
 30
0.0
  0
VERTEX
  5
286C
  8
0
  6
CONTINUOUS
 62
     0
 10
165.0920855007009
 20
102.8287380293942
 30
0.0
  0
VERTEX
  5
286D
  8
0
  6
CONTINUOUS
 62
     0
 10
165.1481416866356
 20
102.96930254538761
 30
0.0
  0
VERTEX
  5
286E
  8
0
  6
CONTINUOUS
 62
     0
 10
165.21194486528751
 20
103.10811261417111
 30
0.0
  0
VERTEX
  5
286F
  8
0
  6
CONTINUOUS
 62
     0
 10
165.24671970487941
 20
103.17678921014389
 30
0.0
  0
VERTEX
  5
2870
  8
0
  6
CONTINUOUS
 62
     0
 10
165.28339148891041
 20
103.2449429574732
 30
0.0
  0
VERTEX
  5
2871
  8
0
  6
CONTINUOUS
 62
     0
 10
165.3623656050232
 20
103.3795715099677
 30
0.0
  0
VERTEX
  5
2872
  8
0
  6
CONTINUOUS
 62
     0
 10
165.44873904459249
 20
103.5117797796688
 30
0.0
  0
VERTEX
  5
2873
  8
0
  6
CONTINUOUS
 62
     0
 10
165.54237163004061
 20
103.641353202527
 30
0.0
  0
VERTEX
  5
2874
  8
0
  6
CONTINUOUS
 62
     0
 10
165.6431114027443
 20
103.7680814906506
 30
0.0
  0
VERTEX
  5
2875
  8
0
  6
CONTINUOUS
 62
     0
 10
165.7507948696508
 20
103.8917589735868
 30
0.0
  0
VERTEX
  5
2876
  8
0
  6
CONTINUOUS
 62
     0
 10
165.80718630782661
 20
103.95239073597971
 30
0.0
  0
VERTEX
  5
2877
  8
0
  6
CONTINUOUS
 62
     0
 10
165.865247268616
 20
104.0121849321098
 30
0.0
  0
VERTEX
  5
2878
  8
0
  6
CONTINUOUS
 62
     0
 10
165.98628285202921
 20
104.1291639239723
 30
0.0
  0
VERTEX
  5
2879
  8
0
  6
CONTINUOUS
 62
     0
 10
166.1137051882682
 20
104.24250610109431
 30
0.0
  0
VERTEX
  5
287A
  8
0
  6
CONTINUOUS
 62
     0
 10
166.1797471605116
 20
104.29775566227551
 30
0.0
  0
SEQEND
  5
287B
  8
0
  6
CONTINUOUS
 62
     0
  0
POLYLINE
  5
1C65
  8
0
  6
CONTINUOUS
 62
     0
 66
     1
 10
0.0
 20
0.0
 30
0.0
  0
VERTEX
  5
287C
  8
0
  6
CONTINUOUS
 62
     0
 10
172.00011873127241
 20
99.405246574976815
 30
0.0
  0
VERTEX
  5
287D
  8
0
  6
CONTINUOUS
 62
     0
 10
171.98697964861009
 20
99.385786310630877
 30
0.0
  0
VERTEX
  5
287E
  8
0
  6
CONTINUOUS
 62
     0
 10
171.96015607720531
 20
99.347240274415611
 30
0.0
  0
VERTEX
  5
287F
  8
0
  6
CONTINUOUS
 62
     0
 10
171.93261321158261
 20
99.30920487716385
 30
0.0
  0
VERTEX
  5
2880
  8
0
  6
CONTINUOUS
 62
     0
 10
171.91857507063381
 20
99.290382869292159
 30
0.0
  0
VERTEX
  5
2881
  8
0
  6
CONTINUOUS
 62
     0
 10
171.90436077019089
 20
99.271693539594793
 30
0.0
  0
VERTEX
  5
2882
  8
0
  6
CONTINUOUS
 62
     0
 10
171.87540872185161
 20
99.234719497514277
 30
0.0
  0
VERTEX
  5
2883
  8
0
  6
CONTINUOUS
 62
     0
 10
171.84576728224121
 20
99.198295797144382
 30
0.0
  0
VERTEX
  5
2884
  8
0
  6
CONTINUOUS
 62
     0
 10
171.81544691028671
 20
99.162435290520051
 30
0.0
  0
VERTEX
  5
2885
  8
0
  6
CONTINUOUS
 62
     0
 10
171.7844583044749
 20
99.127150630954503
 30
0.0
  0
VERTEX
  5
2886
  8
0
  6
CONTINUOUS
 62
     0
 10
171.7528123990779
 20
99.092454268574315
 30
0.0
  0
VERTEX
  5
2887
  8
0
  6
CONTINUOUS
 62
     0
 10
171.73674643951961
 20
99.075330532851865
 30
0.0
  0
VERTEX
  5
2888
  8
0
  6
CONTINUOUS
 62
     0
 10
171.72052036029461
 20
99.058358445926515
 30
0.0
  0
VERTEX
  5
2889
  8
0
  6
CONTINUOUS
 62
     0
 10
171.68759358231091
 20
99.024875193658744
 30
0.0
  0
VERTEX
  5
288A
  8
0
  6
CONTINUOUS
 62
     0
 10
171.65404368327921
 20
98.99201632627441
 30
0.0
  0
VERTEX
  5
288B
  8
0
  6
CONTINUOUS
 62
     0
 10
171.61988250121919
 20
98.959793437963825
 30
0.0
  0
VERTEX
  5
288C
  8
0
  6
CONTINUOUS
 62
     0
 10
171.5851220898405
 20
98.928217898513324
 30
0.0
  0
VERTEX
  5
288D
  8
0
  6
CONTINUOUS
 62
     0
 10
171.5497747142895
 20
98.897300849293245
 30
0.0
  0
VERTEX
  5
288E
  8
0
  6
CONTINUOUS
 62
     0
 10
171.5318848045591
 20
98.88209267677135
 30
0.0
  0
VERTEX
  5
288F
  8
0
  6
CONTINUOUS
 62
     0
 10
171.51385284682229
 20
98.867053199327074
 30
0.0
  0
VERTEX
  5
2890
  8
0
  6
CONTINUOUS
 62
     0
 10
171.47736916240279
 20
98.837485621441886
 30
0.0
  0
VERTEX
  5
2891
  8
0
  6
CONTINUOUS
 62
     0
 10
171.44033653423151
 20
98.808608548502605
 30
0.0
  0
VERTEX
  5
2892
  8
0
  6
CONTINUOUS
 62
     0
 10
171.4216184422028
 20
98.794432145135644
 30
0.0
  0
SEQEND
  5
2893
  8
0
  6
CONTINUOUS
 62
     0
  0
POLYLINE
  5
1C69
  8
0
  6
CONTINUOUS
 62
     0
 66
     1
 10
0.0
 20
0.0
 30
0.0
  0
VERTEX
  5
2894
  8
0
  6
CONTINUOUS
 62
     0
 10
168.4216184422028
 20
98.794432145135644
 30
0.0
  0
VERTEX
  5
2895
  8
0
  6
CONTINUOUS
 62
     0
 10
168.40290035017401
 20
98.808608548502605
 30
0.0
  0
VERTEX
  5
2896
  8
0
  6
CONTINUOUS
 62
     0
 10
168.36586772200269
 20
98.837485621441886
 30
0.0
  0
VERTEX
  5
2897
  8
0
  6
CONTINUOUS
 62
     0
 10
168.32938403758331
 20
98.867053199327074
 30
0.0
  0
VERTEX
  5
2898
  8
0
  6
CONTINUOUS
 62
     0
 10
168.3113520798465
 20
98.88209267677135
 30
0.0
  0
VERTEX
  5
2899
  8
0
  6
CONTINUOUS
 62
     0
 10
168.29346217011599
 20
98.897300849293245
 30
0.0
  0
VERTEX
  5
289A
  8
0
  6
CONTINUOUS
 62
     0
 10
168.2581147945651
 20
98.928217898513324
 30
0.0
  0
VERTEX
  5
289B
  8
0
  6
CONTINUOUS
 62
     0
 10
168.2233543831864
 20
98.959793437963825
 30
0.0
  0
VERTEX
  5
289C
  8
0
  6
CONTINUOUS
 62
     0
 10
168.1891932011263
 20
98.99201632627441
 30
0.0
  0
VERTEX
  5
289D
  8
0
  6
CONTINUOUS
 62
     0
 10
168.15564330209469
 20
99.024875193658744
 30
0.0
  0
VERTEX
  5
289E
  8
0
  6
CONTINUOUS
 62
     0
 10
168.12271652411101
 20
99.058358445926515
 30
0.0
  0
VERTEX
  5
289F
  8
0
  6
CONTINUOUS
 62
     0
 10
168.10649044488591
 20
99.075330532851893
 30
0.0
  0
VERTEX
  5
28A0
  8
0
  6
CONTINUOUS
 62
     0
 10
168.0904244853277
 20
99.092454268574315
 30
0.0
  0
VERTEX
  5
28A1
  8
0
  6
CONTINUOUS
 62
     0
 10
168.0587785799307
 20
99.127150630954503
 30
0.0
  0
VERTEX
  5
28A2
  8
0
  6
CONTINUOUS
 62
     0
 10
168.02778997411889
 20
99.162435290520051
 30
0.0
  0
VERTEX
  5
28A3
  8
0
  6
CONTINUOUS
 62
     0
 10
167.99746960216439
 20
99.198295797144382
 30
0.0
  0
VERTEX
  5
28A4
  8
0
  6
CONTINUOUS
 62
     0
 10
167.96782816255401
 20
99.234719497514277
 30
0.0
  0
VERTEX
  5
28A5
  8
0
  6
CONTINUOUS
 62
     0
 10
167.93887611421471
 20
99.271693539594793
 30
0.0
  0
VERTEX
  5
28A6
  8
0
  6
CONTINUOUS
 62
     0
 10
167.92466181377171
 20
99.290382869292159
 30
0.0
  0
VERTEX
  5
28A7
  8
0
  6
CONTINUOUS
 62
     0
 10
167.91062367282291
 20
99.30920487716385
 30
0.0
  0
VERTEX
  5
28A8
  8
0
  6
CONTINUOUS
 62
     0
 10
167.8830808072002
 20
99.347240274415611
 30
0.0
  0
VERTEX
  5
28A9
  8
0
  6
CONTINUOUS
 62
     0
 10
167.85625723579551
 20
99.385786310630891
 30
0.0
  0
VERTEX
  5
28AA
  8
0
  6
CONTINUOUS
 62
     0
 10
167.84311815313319
 20
99.405246574976815
 30
0.0
  0
SEQEND
  5
28AB
  8
0
  6
CONTINUOUS
 62
     0
  0
POLYLINE
  5
1C6D
  8
0
  6
CONTINUOUS
 62
     0
 66
     1
 10
0.0
 20
0.0
 30
0.0
  0
VERTEX
  5
28AC
  8
0
  6
CONTINUOUS
 62
     0
 10
173.6635564878583
 20
102.9152086711336
 30
0.0
  0
VERTEX
  5
28AD
  8
0
  6
CONTINUOUS
 62
     0
 10
173.67754852931199
 20
102.8878824241085
 30
0.0
  0
VERTEX
  5
28AE
  8
0
  6
CONTINUOUS
 62
     0
 10
173.7043971451898
 20
102.83293085685651
 30
0.0
  0
VERTEX
  5
28AF
  8
0
  6
CONTINUOUS
 62
     0
 10
173.72972286114609
 20
102.7775989776195
 30
0.0
  0
VERTEX
  5
28B0
  8
0
  6
CONTINUOUS
 62
     0
 10
173.7418114213967
 20
102.7497973764989
 30
0.0
  0
VERTEX
  5
28B1
  8
0
  6
CONTINUOUS
 62
     0
 10
173.75351548136089
 20
102.7219090623278
 30
0.0
  0
VERTEX
  5
28B2
  8
0
  6
CONTINUOUS
 62
     0
 10
173.77576542721951
 20
102.6658835310523
 30
0.0
  0
VERTEX
  5
28B3
  8
0
  6
CONTINUOUS
 62
     0
 10
173.79646374116911
 20
102.6095449389793
 30
0.0
  0
VERTEX
  5
28B4
  8
0
  6
CONTINUOUS
 62
     0
 10
173.81560209032421
 20
102.5529159673289
 30
0.0
  0
VERTEX
  5
28B5
  8
0
  6
CONTINUOUS
 62
     0
 10
173.83317276982231
 20
102.4960194142249
 30
0.0
  0
VERTEX
  5
28B6
  8
0
  6
CONTINUOUS
 62
     0
 10
173.84916870592511
 20
102.4388781855158
 30
0.0
  0
VERTEX
  5
28B7
  8
0
  6
CONTINUOUS
 62
     0
 10
173.8565741079392
 20
102.41022300307451
 30
0.0
  0
VERTEX
  5
28B8
  8
0
  6
CONTINUOUS
 62
     0
 10
173.86358345886649
 20
102.3815152855536
 30
0.0
  0
VERTEX
  5
28B9
  8
0
  6
CONTINUOUS
 62
     0
 10
173.87641122544539
 20
102.3239538079324
 30
0.0
  0
VERTEX
  5
28BA
  8
0
  6
CONTINUOUS
 62
     0
 10
173.88764684136149
 20
102.26621692619121
 30
0.0
  0
VERTEX
  5
28BB
  8
0
  6
CONTINUOUS
 62
     0
 10
173.89728578329479
 20
102.2083278844845
 30
0.0
  0
VERTEX
  5
28BC
  8
0
  6
CONTINUOUS
 62
     0
 10
173.90532417072649
 20
102.15030998822439
 30
0.0
  0
VERTEX
  5
28BD
  8
0
  6
CONTINUOUS
 62
     0
 10
173.91175876750131
 20
102.0921865946986
 30
0.0
  0
VERTEX
  5
28BE
  8
0
  6
CONTINUOUS
 62
     0
 10
173.91437380961281
 20
102.0630926474843
 30
0.0
  0
VERTEX
  5
28BF
  8
0
  6
CONTINUOUS
 62
     0
 10
173.91658698313
 20
102.03398110366641
 30
0.0
  0
VERTEX
  5
28C0
  8
0
  6
CONTINUOUS
 62
     0
 10
173.91980687383281
 20
101.97571694793859
 30
0.0
  0
VERTEX
  5
28C1
  8
0
  6
CONTINUOUS
 62
     0
 10
173.92141714332149
 20
101.9174175839437
 30
0.0
  0
VERTEX
  5
28C2
  8
0
  6
CONTINUOUS
 62
     0
 10
173.9216184422028
 20
101.8882620331142
 30
0.0
  0
SEQEND
  5
28C3
  8
0
  6
CONTINUOUS
 62
     0
  0
POLYLINE
  5
1C6E
  8
0
  6
CONTINUOUS
 62
     0
 66
     1
 10
0.0
 20
0.0
 30
0.0
  0
VERTEX
  5
28C4
  8
0
  6
CONTINUOUS
 62
     0
 10
173.9216184422028
 20
101.8882620331142
 30
0.0
  0
VERTEX
  5
28C5
  8
0
  6
CONTINUOUS
 62
     0
 10
173.91999916395639
 20
101.8055777780918
 30
0.0
  0
VERTEX
  5
28C6
  8
0
  6
CONTINUOUS
 62
     0
 10
173.9070528031101
 20
101.6404769914774
 30
0.0
  0
VERTEX
  5
28C7
  8
0
  6
CONTINUOUS
 62
     0
 10
173.88120200045199
 20
101.4761785082914
 30
0.0
  0
VERTEX
  5
28C8
  8
0
  6
CONTINUOUS
 62
     0
 10
173.8634619647533
 20
101.3944965235852
 30
0.0
  0
VERTEX
  5
28C9
  8
0
  6
CONTINUOUS
 62
     0
 10
173.84253045832119
 20
101.3132143107531
 30
0.0
  0
VERTEX
  5
28CA
  8
0
  6
CONTINUOUS
 62
     0
 10
173.79116339134191
 20
101.15211206079709
 30
0.0
  0
VERTEX
  5
28CB
  8
0
  6
CONTINUOUS
 62
     0
 10
173.72726712099029
 20
100.9933933915557
 30
0.0
  0
VERTEX
  5
28CC
  8
0
  6
CONTINUOUS
 62
     0
 10
173.65104853706271
 20
100.83757221836341
 30
0.0
  0
VERTEX
  5
28CD
  8
0
  6
CONTINUOUS
 62
     0
 10
173.5627544277865
 20
100.685153074749
 30
0.0
  0
VERTEX
  5
28CE
  8
0
  6
CONTINUOUS
 62
     0
 10
173.46267068074431
 20
100.5366294788066
 30
0.0
  0
VERTEX
  5
28CF
  8
0
  6
CONTINUOUS
 62
     0
 10
173.40830749890679
 20
100.4639793295199
 30
0.0
  0
VERTEX
  5
28D0
  8
0
  6
CONTINUOUS
 62
     0
 10
173.35112135719851
 20
100.3924823352326
 30
0.0
  0
VERTEX
  5
28D1
  8
0
  6
CONTINUOUS
 62
     0
 10
173.228467642813
 20
100.2531783782041
 30
0.0
  0
VERTEX
  5
28D2
  8
0
  6
CONTINUOUS
 62
     0
 10
173.0951066781692
 20
100.11916866013971
 30
0.0
  0
VERTEX
  5
28D3
  8
0
  6
CONTINUOUS
 62
     0
 10
172.9514702728649
 20
99.990887091236431
 30
0.0
  0
VERTEX
  5
28D4
  8
0
  6
CONTINUOUS
 62
     0
 10
172.79802350735741
 20
99.868749034511637
 30
0.0
  0
VERTEX
  5
28D5
  8
0
  6
CONTINUOUS
 62
     0
 10
172.6352632270785
 20
99.753149960898526
 30
0.0
  0
VERTEX
  5
28D6
  8
0
  6
CONTINUOUS
 62
     0
 10
172.55055407495891
 20
99.697920371673405
 30
0.0
  0
VERTEX
  5
28D7
  8
0
  6
CONTINUOUS
 62
     0
 10
172.46371643369881
 20
99.644464168750545
 30
0.0
  0
VERTEX
  5
28D8
  8
0
  6
CONTINUOUS
 62
     0
 10
172.28393857874821
 20
99.543043571900256
 30
0.0
  0
VERTEX
  5
28D9
  8
0
  6
CONTINUOUS
 62
     0
 10
172.096511765119
 20
99.449216560197328
 30
0.0
  0
VERTEX
  5
28DA
  8
0
  6
CONTINUOUS
 62
     0
 10
172.00011873127241
 20
99.405246574976815
 30
0.0
  0
SEQEND
  5
28DB
  8
0
  6
CONTINUOUS
 62
     0
  0
POLYLINE
  5
1C6F
  8
0
  6
CONTINUOUS
 62
     0
 66
     1
 10
0.0
 20
0.0
 30
0.0
  0
VERTEX
  5
28DC
  8
0
  6
CONTINUOUS
 62
     0
 10
167.84311815313319
 20
99.405246574976815
 30
0.0
  0
VERTEX
  5
28DD
  8
0
  6
CONTINUOUS
 62
     0
 10
167.74672511928651
 20
99.449216560197328
 30
0.0
  0
VERTEX
  5
28DE
  8
0
  6
CONTINUOUS
 62
     0
 10
167.55929830565731
 20
99.543043571900256
 30
0.0
  0
VERTEX
  5
28DF
  8
0
  6
CONTINUOUS
 62
     0
 10
167.37952045070679
 20
99.644464168750545
 30
0.0
  0
VERTEX
  5
28E0
  8
0
  6
CONTINUOUS
 62
     0
 10
167.2926828094466
 20
99.697920371673405
 30
0.0
  0
VERTEX
  5
28E1
  8
0
  6
CONTINUOUS
 62
     0
 10
167.20797365732699
 20
99.753149960898526
 30
0.0
  0
VERTEX
  5
28E2
  8
0
  6
CONTINUOUS
 62
     0
 10
167.0452133770481
 20
99.868749034511637
 30
0.0
  0
VERTEX
  5
28E3
  8
0
  6
CONTINUOUS
 62
     0
 10
166.89176661154059
 20
99.990887091236431
 30
0.0
  0
VERTEX
  5
28E4
  8
0
  6
CONTINUOUS
 62
     0
 10
166.7481302062364
 20
100.11916866013971
 30
0.0
  0
VERTEX
  5
28E5
  8
0
  6
CONTINUOUS
 62
     0
 10
166.6147692415926
 20
100.2531783782041
 30
0.0
  0
VERTEX
  5
28E6
  8
0
  6
CONTINUOUS
 62
     0
 10
166.49211552720701
 20
100.3924823352326
 30
0.0
  0
VERTEX
  5
28E7
  8
0
  6
CONTINUOUS
 62
     0
 10
166.4349293854988
 20
100.4639793295199
 30
0.0
  0
VERTEX
  5
28E8
  8
0
  6
CONTINUOUS
 62
     0
 10
166.38056620366129
 20
100.5366294788066
 30
0.0
  0
VERTEX
  5
28E9
  8
0
  6
CONTINUOUS
 62
     0
 10
166.2804824566191
 20
100.685153074749
 30
0.0
  0
VERTEX
  5
28EA
  8
0
  6
CONTINUOUS
 62
     0
 10
166.19218834734289
 20
100.83757221836341
 30
0.0
  0
VERTEX
  5
28EB
  8
0
  6
CONTINUOUS
 62
     0
 10
166.11596976341519
 20
100.9933933915557
 30
0.0
  0
VERTEX
  5
28EC
  8
0
  6
CONTINUOUS
 62
     0
 10
166.05207349306369
 20
101.15211206079709
 30
0.0
  0
VERTEX
  5
28ED
  8
0
  6
CONTINUOUS
 62
     0
 10
166.00070642608429
 20
101.3132143107531
 30
0.0
  0
VERTEX
  5
28EE
  8
0
  6
CONTINUOUS
 62
     0
 10
165.97977491965219
 20
101.3944965235852
 30
0.0
  0
VERTEX
  5
28EF
  8
0
  6
CONTINUOUS
 62
     0
 10
165.96203488395361
 20
101.4761785082914
 30
0.0
  0
VERTEX
  5
28F0
  8
0
  6
CONTINUOUS
 62
     0
 10
165.93618408129541
 20
101.6404769914774
 30
0.0
  0
VERTEX
  5
28F1
  8
0
  6
CONTINUOUS
 62
     0
 10
165.92323772044921
 20
101.8055777780918
 30
0.0
  0
VERTEX
  5
28F2
  8
0
  6
CONTINUOUS
 62
     0
 10
165.9216184422028
 20
101.8882620331142
 30
0.0
  0
SEQEND
  5
28F3
  8
0
  6
CONTINUOUS
 62
     0
  0
POLYLINE
  5
1C70
  8
0
  6
CONTINUOUS
 62
     0
 66
     1
 10
0.0
 20
0.0
 30
0.0
  0
VERTEX
  5
28F4
  8
0
  6
CONTINUOUS
 62
     0
 10
165.9216184422028
 20
101.8882620331142
 30
0.0
  0
VERTEX
  5
28F5
  8
0
  6
CONTINUOUS
 62
     0
 10
165.92181974108411
 20
101.9174175839437
 30
0.0
  0
VERTEX
  5
28F6
  8
0
  6
CONTINUOUS
 62
     0
 10
165.92343001057279
 20
101.97571694793859
 30
0.0
  0
VERTEX
  5
28F7
  8
0
  6
CONTINUOUS
 62
     0
 10
165.92664990127551
 20
102.03398110366641
 30
0.0
  0
VERTEX
  5
28F8
  8
0
  6
CONTINUOUS
 62
     0
 10
165.9288630747927
 20
102.0630926474843
 30
0.0
  0
VERTEX
  5
28F9
  8
0
  6
CONTINUOUS
 62
     0
 10
165.93147811690429
 20
102.0921865946986
 30
0.0
  0
VERTEX
  5
28FA
  8
0
  6
CONTINUOUS
 62
     0
 10
165.93791271367911
 20
102.15030998822439
 30
0.0
  0
VERTEX
  5
28FB
  8
0
  6
CONTINUOUS
 62
     0
 10
165.94595110111069
 20
102.2083278844845
 30
0.0
  0
VERTEX
  5
28FC
  8
0
  6
CONTINUOUS
 62
     0
 10
165.955590043044
 20
102.26621692619121
 30
0.0
  0
VERTEX
  5
28FD
  8
0
  6
CONTINUOUS
 62
     0
 10
165.96682565896009
 20
102.3239538079324
 30
0.0
  0
VERTEX
  5
28FE
  8
0
  6
CONTINUOUS
 62
     0
 10
165.979653425539
 20
102.3815152855536
 30
0.0
  0
VERTEX
  5
28FF
  8
0
  6
CONTINUOUS
 62
     0
 10
165.9866627764664
 20
102.41022300307451
 30
0.0
  0
VERTEX
  5
2900
  8
0
  6
CONTINUOUS
 62
     0
 10
165.99406817848049
 20
102.4388781855158
 30
0.0
  0
VERTEX
  5
2901
  8
0
  6
CONTINUOUS
 62
     0
 10
166.01006411458329
 20
102.4960194142249
 30
0.0
  0
VERTEX
  5
2902
  8
0
  6
CONTINUOUS
 62
     0
 10
166.02763479408131
 20
102.5529159673289
 30
0.0
  0
VERTEX
  5
2903
  8
0
  6
CONTINUOUS
 62
     0
 10
166.04677314323649
 20
102.6095449389792
 30
0.0
  0
VERTEX
  5
2904
  8
0
  6
CONTINUOUS
 62
     0
 10
166.06747145718589
 20
102.6658835310523
 30
0.0
  0
VERTEX
  5
2905
  8
0
  6
CONTINUOUS
 62
     0
 10
166.08972140304459
 20
102.7219090623277
 30
0.0
  0
VERTEX
  5
2906
  8
0
  6
CONTINUOUS
 62
     0
 10
166.10142546300881
 20
102.7497973764988
 30
0.0
  0
VERTEX
  5
2907
  8
0
  6
CONTINUOUS
 62
     0
 10
166.1135140232594
 20
102.7775989776195
 30
0.0
  0
VERTEX
  5
2908
  8
0
  6
CONTINUOUS
 62
     0
 10
166.1388397392158
 20
102.83293085685651
 30
0.0
  0
VERTEX
  5
2909
  8
0
  6
CONTINUOUS
 62
     0
 10
166.16568835509361
 20
102.8878824241084
 30
0.0
  0
VERTEX
  5
290A
  8
0
  6
CONTINUOUS
 62
     0
 10
166.17968039654721
 20
102.9152086711335
 30
0.0
  0
SEQEND
  5
290B
  8
0
  6
CONTINUOUS
 62
     0
  0
LINE
  5
1C77
  8
3
 10
174.00161844220281
 20
74.79443214513563
 30
0.0
 11
174.0016184422027
 21
84.794432145135644
 31
0.0
  0
LINE
  5
1C78
  8
3
 10
165.84161844220279
 20
74.79443214513563
 30
0.0
 11
165.84161844220279
 21
84.794432145135644
 31
0.0
  0
POINT
  5
1C7A
  8
0
 62
     0
 10
169.9216184422028
 20
74.79443214513563
 30
0.0
210
-1.0
220
0.0
230
0.0000000000000001
  0
POINT
  5
1C7B
  8
0
 62
     0
 10
169.9216184422028
 20
84.794432145135644
 30
0.0
210
-1.0
220
0.0
230
0.0000000000000001
  0
POINT
  5
1C7C
  8
0
 62
     0
 10
169.9216184422028
 20
74.79443214513563
 30
0.0
210
-1.0
220
0.0
230
0.0000000000000001
  0
POINT
  5
1C7D
  8
0
 62
     0
 10
169.9216184422028
 20
74.79443214513563
 30
0.0
210
-1.0
220
0.0
230
0.0000000000000001
  0
POINT
  5
1C7E
  8
0
 62
     0
 10
169.9216184422028
 20
84.794432145135644
 30
0.0
210
1.0
220
0.0
230
-0.0000000000000001
  0
ARC
  5
1C7F
  8
0
  6
CONTINUOUS
 62
     0
 10
87.784818859673464
 20
153.75556799402949
 30
0.0
 40
8.4999999999999911
 50
10.164248621723759
 51
349.8357513782762
  0
POLYLINE
  5
1C81
  8
0
  6
CONTINUOUS
 62
     0
 66
     1
 10
0.0
 20
0.0
 30
0.0
  0
VERTEX
  5
290C
  8
0
  6
CONTINUOUS
 62
     0
 10
77.969864283449851
 20
153.75556799402949
 30
0.0
  0
VERTEX
  5
290D
  8
0
  6
CONTINUOUS
 62
     0
 10
78.043257947590007
 20
153.62844643878509
 30
0.0
  0
VERTEX
  5
290E
  8
0
  6
CONTINUOUS
 62
     0
 10
78.188381332715608
 20
153.37708536238119
 30
0.0
  0
VERTEX
  5
290F
  8
0
  6
CONTINUOUS
 62
     0
 10
78.331451574359448
 20
153.12928043480289
 30
0.0
  0
VERTEX
  5
2910
  8
0
  6
CONTINUOUS
 62
     0
 10
78.402277457075741
 20
153.00660640744741
 30
0.0
  0
VERTEX
  5
2911
  8
0
  6
CONTINUOUS
 62
     0
 10
78.472662238582757
 20
152.8846963897976
 30
0.0
  0
VERTEX
  5
2912
  8
0
  6
CONTINUOUS
 62
     0
 10
78.612201993990936
 20
152.6430064437549
 30
0.0
  0
VERTEX
  5
2913
  8
0
  6
CONTINUOUS
 62
     0
 10
78.750255453215914
 20
152.4038908382166
 30
0.0
  0
VERTEX
  5
2914
  8
0
  6
CONTINUOUS
 62
     0
 10
78.887003990032781
 20
152.16703542458899
 30
0.0
  0
VERTEX
  5
2915
  8
0
  6
CONTINUOUS
 62
     0
 10
79.022626539736848
 20
151.93213027784961
 30
0.0
  0
VERTEX
  5
2916
  8
0
  6
CONTINUOUS
 62
     0
 10
79.157300390260843
 20
151.69886832629109
 30
0.0
  0
VERTEX
  5
2917
  8
0
  6
CONTINUOUS
 62
     0
 10
79.224336699519256
 20
151.58275803270359
 30
0.0
  0
VERTEX
  5
2918
  8
0
  6
CONTINUOUS
 62
     0
 10
79.291201971486771
 20
151.46694398439391
 30
0.0
  0
VERTEX
  5
2919
  8
0
  6
CONTINUOUS
 62
     0
 10
79.424507650300768
 20
151.2360517757507
 30
0.0
  0
VERTEX
  5
291A
  8
0
  6
CONTINUOUS
 62
     0
 10
79.557394539163681
 20
151.0058849325803
 30
0.0
  0
VERTEX
  5
291B
  8
0
  6
CONTINUOUS
 62
     0
 10
79.690041326327389
 20
150.77613395775199
 30
0.0
  0
VERTEX
  5
291C
  8
0
  6
CONTINUOUS
 62
     0
 10
79.822629136327976
 20
150.54648513436669
 30
0.0
  0
VERTEX
  5
291D
  8
0
  6
CONTINUOUS
 62
     0
 10
79.955342430053904
 20
150.3166189667935
 30
0.0
  0
VERTEX
  5
291E
  8
0
  6
CONTINUOUS
 62
     0
 10
80.021804922165416
 20
150.2015025536588
 30
0.0
  0
VERTEX
  5
291F
  8
0
  6
CONTINUOUS
 62
     0
 10
80.088369954531743
 20
150.0862085355929
 30
0.0
  0
VERTEX
  5
2920
  8
0
  6
CONTINUOUS
 62
     0
 10
80.221905753625833
 20
149.85491774693261
 30
0.0
  0
VERTEX
  5
2921
  8
0
  6
CONTINUOUS
 62
     0
 10
80.356150252145298
 20
149.62239945486019
 30
0.0
  0
VERTEX
  5
2922
  8
0
  6
CONTINUOUS
 62
     0
 10
80.423602927505726
 20
149.50556799402949
 30
0.0
  0
SEQEND
  5
2923
  8
0
  6
CONTINUOUS
 62
     0
  0
POLYLINE
  5
1C82
  8
0
  6
CONTINUOUS
 62
     0
 66
     1
 10
0.0
 20
0.0
 30
0.0
  0
VERTEX
  5
2924
  8
0
  6
CONTINUOUS
 62
     0
 10
80.423602927505726
 20
149.50556799402949
 30
0.0
  0
VERTEX
  5
2925
  8
0
  6
CONTINUOUS
 62
     0
 10
80.49105560286614
 20
149.3887365331988
 30
0.0
  0
VERTEX
  5
2926
  8
0
  6
CONTINUOUS
 62
     0
 10
80.625300101385619
 20
149.1562182411264
 30
0.0
  0
VERTEX
  5
2927
  8
0
  6
CONTINUOUS
 62
     0
 10
80.758835900479767
 20
148.92492745246619
 30
0.0
  0
VERTEX
  5
2928
  8
0
  6
CONTINUOUS
 62
     0
 10
80.825400932846037
 20
148.80963343440021
 30
0.0
  0
VERTEX
  5
2929
  8
0
  6
CONTINUOUS
 62
     0
 10
80.891863424957535
 20
148.69451702126551
 30
0.0
  0
VERTEX
  5
292A
  8
0
  6
CONTINUOUS
 62
     0
 10
81.024576718683477
 20
148.4646508536924
 30
0.0
  0
VERTEX
  5
292B
  8
0
  6
CONTINUOUS
 62
     0
 10
81.157164528684063
 20
148.2350020303071
 30
0.0
  0
VERTEX
  5
292C
  8
0
  6
CONTINUOUS
 62
     0
 10
81.289811315847786
 20
148.00525105547879
 30
0.0
  0
VERTEX
  5
292D
  8
0
  6
CONTINUOUS
 62
     0
 10
81.422698204710741
 20
147.7750842123084
 30
0.0
  0
VERTEX
  5
292E
  8
0
  6
CONTINUOUS
 62
     0
 10
81.556003883524681
 20
147.5441920036651
 30
0.0
  0
VERTEX
  5
292F
  8
0
  6
CONTINUOUS
 62
     0
 10
81.622869155492197
 20
147.4283779553555
 30
0.0
  0
VERTEX
  5
2930
  8
0
  6
CONTINUOUS
 62
     0
 10
81.689905464750666
 20
147.31226766176789
 30
0.0
  0
VERTEX
  5
2931
  8
0
  6
CONTINUOUS
 62
     0
 10
81.824579315274661
 20
147.0790057102094
 30
0.0
  0
VERTEX
  5
2932
  8
0
  6
CONTINUOUS
 62
     0
 10
81.960201864978657
 20
146.84410056347011
 30
0.0
  0
VERTEX
  5
2933
  8
0
  6
CONTINUOUS
 62
     0
 10
82.096950401795596
 20
146.6072451498425
 30
0.0
  0
VERTEX
  5
2934
  8
0
  6
CONTINUOUS
 62
     0
 10
82.235003861020573
 20
146.3681295443042
 30
0.0
  0
VERTEX
  5
2935
  8
0
  6
CONTINUOUS
 62
     0
 10
82.374543616428696
 20
146.1264395982615
 30
0.0
  0
VERTEX
  5
2936
  8
0
  6
CONTINUOUS
 62
     0
 10
82.444928397935769
 20
146.00452958061169
 30
0.0
  0
VERTEX
  5
2937
  8
0
  6
CONTINUOUS
 62
     0
 10
82.515754280652075
 20
145.88185555325609
 30
0.0
  0
VERTEX
  5
2938
  8
0
  6
CONTINUOUS
 62
     0
 10
82.658824522295902
 20
145.63405062567779
 30
0.0
  0
VERTEX
  5
2939
  8
0
  6
CONTINUOUS
 62
     0
 10
82.803947907421446
 20
145.38268954927389
 30
0.0
  0
VERTEX
  5
293A
  8
0
  6
CONTINUOUS
 62
     0
 10
82.877341571561644
 20
145.25556799402949
 30
0.0
  0
SEQEND
  5
293B
  8
0
  6
CONTINUOUS
 62
     0
  0
POLYLINE
  5
1C83
  8
0
  6
CONTINUOUS
 62
     0
 66
     1
 10
0.0
 20
0.0
 30
0.0
  0
VERTEX
  5
293C
  8
0
  6
CONTINUOUS
 62
     0
 10
82.877341571561644
 20
162.25556799402949
 30
0.0
  0
VERTEX
  5
293D
  8
0
  6
CONTINUOUS
 62
     0
 10
82.803947907421446
 20
162.12844643878509
 30
0.0
  0
VERTEX
  5
293E
  8
0
  6
CONTINUOUS
 62
     0
 10
82.658824522295902
 20
161.87708536238119
 30
0.0
  0
VERTEX
  5
293F
  8
0
  6
CONTINUOUS
 62
     0
 10
82.515754280652075
 20
161.62928043480289
 30
0.0
  0
VERTEX
  5
2940
  8
0
  6
CONTINUOUS
 62
     0
 10
82.444928397935769
 20
161.50660640744741
 30
0.0
  0
VERTEX
  5
2941
  8
0
  6
CONTINUOUS
 62
     0
 10
82.374543616428696
 20
161.3846963897976
 30
0.0
  0
VERTEX
  5
2942
  8
0
  6
CONTINUOUS
 62
     0
 10
82.235003861020573
 20
161.1430064437549
 30
0.0
  0
VERTEX
  5
2943
  8
0
  6
CONTINUOUS
 62
     0
 10
82.096950401795596
 20
160.9038908382166
 30
0.0
  0
VERTEX
  5
2944
  8
0
  6
CONTINUOUS
 62
     0
 10
81.960201864978657
 20
160.66703542458899
 30
0.0
  0
VERTEX
  5
2945
  8
0
  6
CONTINUOUS
 62
     0
 10
81.824579315274661
 20
160.43213027784961
 30
0.0
  0
VERTEX
  5
2946
  8
0
  6
CONTINUOUS
 62
     0
 10
81.689905464750666
 20
160.19886832629109
 30
0.0
  0
VERTEX
  5
2947
  8
0
  6
CONTINUOUS
 62
     0
 10
81.622869155492197
 20
160.08275803270359
 30
0.0
  0
VERTEX
  5
2948
  8
0
  6
CONTINUOUS
 62
     0
 10
81.556003883524681
 20
159.96694398439391
 30
0.0
  0
VERTEX
  5
2949
  8
0
  6
CONTINUOUS
 62
     0
 10
81.422698204710741
 20
159.7360517757507
 30
0.0
  0
VERTEX
  5
294A
  8
0
  6
CONTINUOUS
 62
     0
 10
81.289811315847786
 20
159.5058849325803
 30
0.0
  0
VERTEX
  5
294B
  8
0
  6
CONTINUOUS
 62
     0
 10
81.157164528684063
 20
159.27613395775199
 30
0.0
  0
VERTEX
  5
294C
  8
0
  6
CONTINUOUS
 62
     0
 10
81.024576718683477
 20
159.04648513436669
 30
0.0
  0
VERTEX
  5
294D
  8
0
  6
CONTINUOUS
 62
     0
 10
80.891863424957535
 20
158.8166189667935
 30
0.0
  0
VERTEX
  5
294E
  8
0
  6
CONTINUOUS
 62
     0
 10
80.825400932846037
 20
158.7015025536588
 30
0.0
  0
VERTEX
  5
294F
  8
0
  6
CONTINUOUS
 62
     0
 10
80.758835900479767
 20
158.5862085355929
 30
0.0
  0
VERTEX
  5
2950
  8
0
  6
CONTINUOUS
 62
     0
 10
80.625300101385619
 20
158.35491774693261
 30
0.0
  0
VERTEX
  5
2951
  8
0
  6
CONTINUOUS
 62
     0
 10
80.49105560286614
 20
158.1223994548603
 30
0.0
  0
VERTEX
  5
2952
  8
0
  6
CONTINUOUS
 62
     0
 10
80.423602927505726
 20
158.00556799402949
 30
0.0
  0
SEQEND
  5
2953
  8
0
  6
CONTINUOUS
 62
     0
  0
POLYLINE
  5
1C84
  8
0
  6
CONTINUOUS
 62
     0
 66
     1
 10
0.0
 20
0.0
 30
0.0
  0
VERTEX
  5
2954
  8
0
  6
CONTINUOUS
 62
     0
 10
80.423602927505726
 20
158.00556799402949
 30
0.0
  0
VERTEX
  5
2955
  8
0
  6
CONTINUOUS
 62
     0
 10
80.356150252145298
 20
157.8887365331988
 30
0.0
  0
VERTEX
  5
2956
  8
0
  6
CONTINUOUS
 62
     0
 10
80.221905753625833
 20
157.6562182411264
 30
0.0
  0
VERTEX
  5
2957
  8
0
  6
CONTINUOUS
 62
     0
 10
80.088369954531743
 20
157.42492745246619
 30
0.0
  0
VERTEX
  5
2958
  8
0
  6
CONTINUOUS
 62
     0
 10
80.021804922165416
 20
157.30963343440021
 30
0.0
  0
VERTEX
  5
2959
  8
0
  6
CONTINUOUS
 62
     0
 10
79.955342430053904
 20
157.19451702126551
 30
0.0
  0
VERTEX
  5
295A
  8
0
  6
CONTINUOUS
 62
     0
 10
79.822629136327976
 20
156.9646508536924
 30
0.0
  0
VERTEX
  5
295B
  8
0
  6
CONTINUOUS
 62
     0
 10
79.690041326327389
 20
156.7350020303071
 30
0.0
  0
VERTEX
  5
295C
  8
0
  6
CONTINUOUS
 62
     0
 10
79.557394539163681
 20
156.50525105547879
 30
0.0
  0
VERTEX
  5
295D
  8
0
  6
CONTINUOUS
 62
     0
 10
79.424507650300768
 20
156.2750842123084
 30
0.0
  0
VERTEX
  5
295E
  8
0
  6
CONTINUOUS
 62
     0
 10
79.291201971486771
 20
156.0441920036651
 30
0.0
  0
VERTEX
  5
295F
  8
0
  6
CONTINUOUS
 62
     0
 10
79.224336699519256
 20
155.9283779553555
 30
0.0
  0
VERTEX
  5
2960
  8
0
  6
CONTINUOUS
 62
     0
 10
79.157300390260843
 20
155.812267661768
 30
0.0
  0
VERTEX
  5
2961
  8
0
  6
CONTINUOUS
 62
     0
 10
79.022626539736848
 20
155.5790057102094
 30
0.0
  0
VERTEX
  5
2962
  8
0
  6
CONTINUOUS
 62
     0
 10
78.887003990032781
 20
155.34410056346999
 30
0.0
  0
VERTEX
  5
2963
  8
0
  6
CONTINUOUS
 62
     0
 10
78.750255453215914
 20
155.1072451498425
 30
0.0
  0
VERTEX
  5
2964
  8
0
  6
CONTINUOUS
 62
     0
 10
78.612201993990936
 20
154.8681295443042
 30
0.0
  0
VERTEX
  5
2965
  8
0
  6
CONTINUOUS
 62
     0
 10
78.472662238582757
 20
154.6264395982615
 30
0.0
  0
VERTEX
  5
2966
  8
0
  6
CONTINUOUS
 62
     0
 10
78.402277457075741
 20
154.50452958061169
 30
0.0
  0
VERTEX
  5
2967
  8
0
  6
CONTINUOUS
 62
     0
 10
78.331451574359448
 20
154.3818555532562
 30
0.0
  0
VERTEX
  5
2968
  8
0
  6
CONTINUOUS
 62
     0
 10
78.188381332715608
 20
154.13405062567779
 30
0.0
  0
VERTEX
  5
2969
  8
0
  6
CONTINUOUS
 62
     0
 10
78.043257947590007
 20
153.88268954927401
 30
0.0
  0
VERTEX
  5
296A
  8
0
  6
CONTINUOUS
 62
     0
 10
77.969864283449851
 20
153.75556799402949
 30
0.0
  0
SEQEND
  5
296B
  8
0
  6
CONTINUOUS
 62
     0
  0
POLYLINE
  5
1C85
  8
0
  6
CONTINUOUS
 62
     0
 66
     1
 10
0.0
 20
0.0
 30
0.0
  0
VERTEX
  5
296C
  8
0
  6
CONTINUOUS
 62
     0
 10
92.692296147785271
 20
162.25556799402949
 30
0.0
  0
VERTEX
  5
296D
  8
0
  6
CONTINUOUS
 62
     0
 10
92.545508819504903
 20
162.25556799402949
 30
0.0
  0
VERTEX
  5
296E
  8
0
  6
CONTINUOUS
 62
     0
 10
92.255262049253759
 20
162.25556799402949
 30
0.0
  0
VERTEX
  5
296F
  8
0
  6
CONTINUOUS
 62
     0
 10
91.969121565966077
 20
162.25556799402949
 30
0.0
  0
VERTEX
  5
2970
  8
0
  6
CONTINUOUS
 62
     0
 10
91.827469800533507
 20
162.25556799402949
 30
0.0
  0
VERTEX
  5
2971
  8
0
  6
CONTINUOUS
 62
     0
 10
91.686700237519403
 20
162.25556799402949
 30
0.0
  0
VERTEX
  5
2972
  8
0
  6
CONTINUOUS
 62
     0
 10
91.407620726703115
 20
162.25556799402949
 30
0.0
  0
VERTEX
  5
2973
  8
0
  6
CONTINUOUS
 62
     0
 10
91.131513808253146
 20
162.25556799402949
 30
0.0
  0
VERTEX
  5
2974
  8
0
  6
CONTINUOUS
 62
     0
 10
90.858016734619355
 20
162.25556799402949
 30
0.0
  0
VERTEX
  5
2975
  8
0
  6
CONTINUOUS
 62
     0
 10
90.586771635211278
 20
162.25556799402949
 30
0.0
  0
VERTEX
  5
2976
  8
0
  6
CONTINUOUS
 62
     0
 10
90.317423934163287
 20
162.25556799402949
 30
0.0
  0
VERTEX
  5
2977
  8
0
  6
CONTINUOUS
 62
     0
 10
90.183351315646405
 20
162.25556799402949
 30
0.0
  0
VERTEX
  5
2978
  8
0
  6
CONTINUOUS
 62
     0
 10
90.049620771711375
 20
162.25556799402949
 30
0.0
  0
VERTEX
  5
2979
  8
0
  6
CONTINUOUS
 62
     0
 10
89.783009414083438
 20
162.25556799402949
 30
0.0
  0
VERTEX
  5
297A
  8
0
  6
CONTINUOUS
 62
     0
 10
89.517235636357555
 20
162.25556799402949
 30
0.0
  0
VERTEX
  5
297B
  8
0
  6
CONTINUOUS
 62
     0
 10
89.251942062030139
 20
162.25556799402949
 30
0.0
  0
VERTEX
  5
297C
  8
0
  6
CONTINUOUS
 62
     0
 10
88.986766442028966
 20
162.25556799402949
 30
0.0
  0
VERTEX
  5
297D
  8
0
  6
CONTINUOUS
 62
     0
 10
88.721339854577025
 20
162.25556799402949
 30
0.0
  0
VERTEX
  5
297E
  8
0
  6
CONTINUOUS
 62
     0
 10
88.588414870354086
 20
162.25556799402949
 30
0.0
  0
VERTEX
  5
297F
  8
0
  6
CONTINUOUS
 62
     0
 10
88.455284805621488
 20
162.25556799402949
 30
0.0
  0
VERTEX
  5
2980
  8
0
  6
CONTINUOUS
 62
     0
 10
88.18821320743325
 20
162.25556799402949
 30
0.0
  0
VERTEX
  5
2981
  8
0
  6
CONTINUOUS
 62
     0
 10
87.919724210394349
 20
162.25556799402949
 30
0.0
  0
VERTEX
  5
2982
  8
0
  6
CONTINUOUS
 62
     0
 10
87.784818859673464
 20
162.25556799402949
 30
0.0
  0
SEQEND
  5
2983
  8
0
  6
CONTINUOUS
 62
     0
  0
POLYLINE
  5
1C86
  8
0
  6
CONTINUOUS
 62
     0
 66
     1
 10
0.0
 20
0.0
 30
0.0
  0
VERTEX
  5
2984
  8
0
  6
CONTINUOUS
 62
     0
 10
87.784818859673464
 20
162.25556799402949
 30
0.0
  0
VERTEX
  5
2985
  8
0
  6
CONTINUOUS
 62
     0
 10
87.649913508952565
 20
162.25556799402949
 30
0.0
  0
VERTEX
  5
2986
  8
0
  6
CONTINUOUS
 62
     0
 10
87.381424511913636
 20
162.25556799402949
 30
0.0
  0
VERTEX
  5
2987
  8
0
  6
CONTINUOUS
 62
     0
 10
87.114352913725426
 20
162.25556799402949
 30
0.0
  0
VERTEX
  5
2988
  8
0
  6
CONTINUOUS
 62
     0
 10
86.981222848992843
 20
162.25556799402949
 30
0.0
  0
VERTEX
  5
2989
  8
0
  6
CONTINUOUS
 62
     0
 10
86.848297864769904
 20
162.25556799402949
 30
0.0
  0
VERTEX
  5
298A
  8
0
  6
CONTINUOUS
 62
     0
 10
86.582871277317963
 20
162.25556799402949
 30
0.0
  0
VERTEX
  5
298B
  8
0
  6
CONTINUOUS
 62
     0
 10
86.317695657316776
 20
162.25556799402949
 30
0.0
  0
VERTEX
  5
298C
  8
0
  6
CONTINUOUS
 62
     0
 10
86.052402082989374
 20
162.25556799402949
 30
0.0
  0
VERTEX
  5
298D
  8
0
  6
CONTINUOUS
 62
     0
 10
85.786628305263491
 20
162.25556799402949
 30
0.0
  0
VERTEX
  5
298E
  8
0
  6
CONTINUOUS
 62
     0
 10
85.520016947635554
 20
162.25556799402949
 30
0.0
  0
VERTEX
  5
298F
  8
0
  6
CONTINUOUS
 62
     0
 10
85.386286403700524
 20
162.25556799402949
 30
0.0
  0
VERTEX
  5
2990
  8
0
  6
CONTINUOUS
 62
     0
 10
85.252213785183656
 20
162.25556799402949
 30
0.0
  0
VERTEX
  5
2991
  8
0
  6
CONTINUOUS
 62
     0
 10
84.982866084135651
 20
162.25556799402949
 30
0.0
  0
VERTEX
  5
2992
  8
0
  6
CONTINUOUS
 62
     0
 10
84.711620984727574
 20
162.25556799402949
 30
0.0
  0
VERTEX
  5
2993
  8
0
  6
CONTINUOUS
 62
     0
 10
84.438123911093783
 20
162.25556799402949
 30
0.0
  0
VERTEX
  5
2994
  8
0
  6
CONTINUOUS
 62
     0
 10
84.162016992643814
 20
162.25556799402949
 30
0.0
  0
VERTEX
  5
2995
  8
0
  6
CONTINUOUS
 62
     0
 10
83.882937481827526
 20
162.25556799402949
 30
0.0
  0
VERTEX
  5
2996
  8
0
  6
CONTINUOUS
 62
     0
 10
83.742167918813436
 20
162.25556799402949
 30
0.0
  0
VERTEX
  5
2997
  8
0
  6
CONTINUOUS
 62
     0
 10
83.600516153380838
 20
162.25556799402949
 30
0.0
  0
VERTEX
  5
2998
  8
0
  6
CONTINUOUS
 62
     0
 10
83.31437567009317
 20
162.25556799402949
 30
0.0
  0
VERTEX
  5
2999
  8
0
  6
CONTINUOUS
 62
     0
 10
83.024128899842026
 20
162.25556799402949
 30
0.0
  0
VERTEX
  5
299A
  8
0
  6
CONTINUOUS
 62
     0
 10
82.877341571561644
 20
162.25556799402949
 30
0.0
  0
SEQEND
  5
299B
  8
0
  6
CONTINUOUS
 62
     0
  0
POLYLINE
  5
1C87
  8
0
  6
CONTINUOUS
 62
     0
 66
     1
 10
0.0
 20
0.0
 30
0.0
  0
VERTEX
  5
299C
  8
0
  6
CONTINUOUS
 62
     0
 10
95.146034791841203
 20
149.50556799402949
 30
0.0
  0
VERTEX
  5
299D
  8
0
  6
CONTINUOUS
 62
     0
 10
95.190489201453147
 20
149.5825652900979
 30
0.0
  0
VERTEX
  5
299E
  8
0
  6
CONTINUOUS
 62
     0
 10
95.279095742034315
 20
149.7360363202674
 30
0.0
  0
VERTEX
  5
299F
  8
0
  6
CONTINUOUS
 62
     0
 10
95.367349253088818
 20
149.88889588536011
 30
0.0
  0
VERTEX
  5
29A0
  8
0
  6
CONTINUOUS
 62
     0
 10
95.411362015080954
 20
149.96512822531199
 30
0.0
  0
VERTEX
  5
29A1
  8
0
  6
CONTINUOUS
 62
     0
 10
95.455308411907296
 20
150.04124561742481
 30
0.0
  0
VERTEX
  5
29A2
  8
0
  6
CONTINUOUS
 62
     0
 10
95.543030509700813
 20
150.19318474774971
 30
0.0
  0
VERTEX
  5
29A3
  8
0
  6
CONTINUOUS
 62
     0
 10
95.630571596871562
 20
150.34481035847921
 30
0.0
  0
VERTEX
  5
29A4
  8
0
  6
CONTINUOUS
 62
     0
 10
95.936324819689673
 20
150.8743904749781
 30
0.0
  0
VERTEX
  5
29A5
  8
0
  6
CONTINUOUS
 62
     0
 10
96.463367956759669
 20
151.7872559661638
 30
0.0
  0
VERTEX
  5
29A6
  8
0
  6
CONTINUOUS
 62
     0
 10
96.731123209752468
 20
152.25102166834091
 30
0.0
  0
SEQEND
  5
29A7
  8
0
  6
CONTINUOUS
 62
     0
  0
POLYLINE
  5
1C88
  8
0
  6
CONTINUOUS
 62
     0
 66
     1
 10
0.0
 20
0.0
 30
0.0
  0
VERTEX
  5
29A8
  8
0
  6
CONTINUOUS
 62
     0
 10
96.731123209752468
 20
152.25102166834091
 30
0.0
  0
VERTEX
  5
29A9
  8
0
  6
CONTINUOUS
 62
     0
 10
96.733748032112672
 20
152.25556799402949
 30
0.0
  0
SEQEND
  5
29AA
  8
0
  6
CONTINUOUS
 62
     0
  0
POLYLINE
  5
1C89
  8
0
  6
CONTINUOUS
 62
     0
 66
     1
 10
0.0
 20
0.0
 30
0.0
  0
VERTEX
  5
29AB
  8
0
  6
CONTINUOUS
 62
     0
 10
92.692296147785271
 20
145.25556799402949
 30
0.0
  0
VERTEX
  5
29AC
  8
0
  6
CONTINUOUS
 62
     0
 10
92.765689811925483
 20
145.38268954927389
 30
0.0
  0
VERTEX
  5
29AD
  8
0
  6
CONTINUOUS
 62
     0
 10
92.910813197051027
 20
145.63405062567779
 30
0.0
  0
VERTEX
  5
29AE
  8
0
  6
CONTINUOUS
 62
     0
 10
93.053883438694854
 20
145.88185555325609
 30
0.0
  0
VERTEX
  5
29AF
  8
0
  6
CONTINUOUS
 62
     0
 10
93.124709321411146
 20
146.00452958061169
 30
0.0
  0
VERTEX
  5
29B0
  8
0
  6
CONTINUOUS
 62
     0
 10
93.195094102918233
 20
146.1264395982615
 30
0.0
  0
VERTEX
  5
29B1
  8
0
  6
CONTINUOUS
 62
     0
 10
93.334633858326356
 20
146.3681295443042
 30
0.0
  0
VERTEX
  5
29B2
  8
0
  6
CONTINUOUS
 62
     0
 10
93.47268731755139
 20
146.6072451498425
 30
0.0
  0
VERTEX
  5
29B3
  8
0
  6
CONTINUOUS
 62
     0
 10
93.609435854368257
 20
146.84410056347011
 30
0.0
  0
VERTEX
  5
29B4
  8
0
  6
CONTINUOUS
 62
     0
 10
93.745058404072267
 20
147.07900571020949
 30
0.0
  0
VERTEX
  5
29B5
  8
0
  6
CONTINUOUS
 62
     0
 10
93.879732254596263
 20
147.31226766176789
 30
0.0
  0
VERTEX
  5
29B6
  8
0
  6
CONTINUOUS
 62
     0
 10
93.946768563854732
 20
147.4283779553555
 30
0.0
  0
VERTEX
  5
29B7
  8
0
  6
CONTINUOUS
 62
     0
 10
94.013633835822247
 20
147.5441920036651
 30
0.0
  0
VERTEX
  5
29B8
  8
0
  6
CONTINUOUS
 62
     0
 10
94.146939514636173
 20
147.7750842123084
 30
0.0
  0
VERTEX
  5
29B9
  8
0
  6
CONTINUOUS
 62
     0
 10
94.279826403499143
 20
148.00525105547879
 30
0.0
  0
VERTEX
  5
29BA
  8
0
  6
CONTINUOUS
 62
     0
 10
94.412473190662865
 20
148.2350020303071
 30
0.0
  0
VERTEX
  5
29BB
  8
0
  6
CONTINUOUS
 62
     0
 10
94.545061000663438
 20
148.4646508536924
 30
0.0
  0
VERTEX
  5
29BC
  8
0
  6
CONTINUOUS
 62
     0
 10
94.677774294389394
 20
148.69451702126551
 30
0.0
  0
VERTEX
  5
29BD
  8
0
  6
CONTINUOUS
 62
     0
 10
94.744236786500878
 20
148.80963343440021
 30
0.0
  0
VERTEX
  5
29BE
  8
0
  6
CONTINUOUS
 62
     0
 10
94.810801818867148
 20
148.92492745246619
 30
0.0
  0
VERTEX
  5
29BF
  8
0
  6
CONTINUOUS
 62
     0
 10
94.944337617961295
 20
149.15621824112651
 30
0.0
  0
VERTEX
  5
29C0
  8
0
  6
CONTINUOUS
 62
     0
 10
95.078582116480788
 20
149.3887365331988
 30
0.0
  0
VERTEX
  5
29C1
  8
0
  6
CONTINUOUS
 62
     0
 10
95.146034791841203
 20
149.50556799402949
 30
0.0
  0
SEQEND
  5
29C2
  8
0
  6
CONTINUOUS
 62
     0
  0
POLYLINE
  5
1C8A
  8
0
  6
CONTINUOUS
 62
     0
 66
     1
 10
0.0
 20
0.0
 30
0.0
  0
VERTEX
  5
29C3
  8
0
  6
CONTINUOUS
 62
     0
 10
95.146034791841203
 20
158.00556799402949
 30
0.0
  0
VERTEX
  5
29C4
  8
0
  6
CONTINUOUS
 62
     0
 10
95.078582116480788
 20
158.1223994548603
 30
0.0
  0
VERTEX
  5
29C5
  8
0
  6
CONTINUOUS
 62
     0
 10
94.944337617961295
 20
158.35491774693261
 30
0.0
  0
VERTEX
  5
29C6
  8
0
  6
CONTINUOUS
 62
     0
 10
94.810801818867148
 20
158.5862085355929
 30
0.0
  0
VERTEX
  5
29C7
  8
0
  6
CONTINUOUS
 62
     0
 10
94.744236786500878
 20
158.7015025536588
 30
0.0
  0
VERTEX
  5
29C8
  8
0
  6
CONTINUOUS
 62
     0
 10
94.677774294389394
 20
158.8166189667935
 30
0.0
  0
VERTEX
  5
29C9
  8
0
  6
CONTINUOUS
 62
     0
 10
94.545061000663438
 20
159.04648513436669
 30
0.0
  0
VERTEX
  5
29CA
  8
0
  6
CONTINUOUS
 62
     0
 10
94.412473190662865
 20
159.27613395775199
 30
0.0
  0
VERTEX
  5
29CB
  8
0
  6
CONTINUOUS
 62
     0
 10
94.279826403499143
 20
159.5058849325803
 30
0.0
  0
VERTEX
  5
29CC
  8
0
  6
CONTINUOUS
 62
     0
 10
94.146939514636173
 20
159.7360517757507
 30
0.0
  0
VERTEX
  5
29CD
  8
0
  6
CONTINUOUS
 62
     0
 10
94.013633835822247
 20
159.96694398439391
 30
0.0
  0
VERTEX
  5
29CE
  8
0
  6
CONTINUOUS
 62
     0
 10
93.946768563854732
 20
160.08275803270359
 30
0.0
  0
VERTEX
  5
29CF
  8
0
  6
CONTINUOUS
 62
     0
 10
93.879732254596263
 20
160.19886832629109
 30
0.0
  0
VERTEX
  5
29D0
  8
0
  6
CONTINUOUS
 62
     0
 10
93.745058404072267
 20
160.43213027784961
 30
0.0
  0
VERTEX
  5
29D1
  8
0
  6
CONTINUOUS
 62
     0
 10
93.609435854368257
 20
160.66703542458899
 30
0.0
  0
VERTEX
  5
29D2
  8
0
  6
CONTINUOUS
 62
     0
 10
93.472687317551333
 20
160.9038908382166
 30
0.0
  0
VERTEX
  5
29D3
  8
0
  6
CONTINUOUS
 62
     0
 10
93.334633858326356
 20
161.1430064437549
 30
0.0
  0
VERTEX
  5
29D4
  8
0
  6
CONTINUOUS
 62
     0
 10
93.195094102918233
 20
161.3846963897976
 30
0.0
  0
VERTEX
  5
29D5
  8
0
  6
CONTINUOUS
 62
     0
 10
93.124709321411146
 20
161.50660640744741
 30
0.0
  0
VERTEX
  5
29D6
  8
0
  6
CONTINUOUS
 62
     0
 10
93.053883438694854
 20
161.62928043480289
 30
0.0
  0
VERTEX
  5
29D7
  8
0
  6
CONTINUOUS
 62
     0
 10
92.910813197051027
 20
161.87708536238119
 30
0.0
  0
VERTEX
  5
29D8
  8
0
  6
CONTINUOUS
 62
     0
 10
92.765689811925483
 20
162.12844643878509
 30
0.0
  0
VERTEX
  5
29D9
  8
0
  6
CONTINUOUS
 62
     0
 10
92.692296147785271
 20
162.25556799402949
 30
0.0
  0
SEQEND
  5
29DA
  8
0
  6
CONTINUOUS
 62
     0
  0
POLYLINE
  5
1C8B
  8
0
  6
CONTINUOUS
 62
     0
 66
     1
 10
0.0
 20
0.0
 30
0.0
  0
VERTEX
  5
29DB
  8
0
  6
CONTINUOUS
 62
     0
 10
96.733748032112672
 20
155.25556799402949
 30
0.0
  0
VERTEX
  5
29DC
  8
0
  6
CONTINUOUS
 62
     0
 10
96.731123209752468
 20
155.26011431971821
 30
0.0
  0
SEQEND
  5
29DD
  8
0
  6
CONTINUOUS
 62
     0
  0
POLYLINE
  5
1C8C
  8
0
  6
CONTINUOUS
 62
     0
 66
     1
 10
0.0
 20
0.0
 30
0.0
  0
VERTEX
  5
29DE
  8
0
  6
CONTINUOUS
 62
     0
 10
96.731123209752468
 20
155.26011431971821
 30
0.0
  0
VERTEX
  5
29DF
  8
0
  6
CONTINUOUS
 62
     0
 10
96.463367956759669
 20
155.7238800218953
 30
0.0
  0
VERTEX
  5
29E0
  8
0
  6
CONTINUOUS
 62
     0
 10
95.936324819689673
 20
156.63674551308091
 30
0.0
  0
VERTEX
  5
29E1
  8
0
  6
CONTINUOUS
 62
     0
 10
95.630571596871562
 20
157.16632562957989
 30
0.0
  0
VERTEX
  5
29E2
  8
0
  6
CONTINUOUS
 62
     0
 10
95.543030509700813
 20
157.31795124030941
 30
0.0
  0
VERTEX
  5
29E3
  8
0
  6
CONTINUOUS
 62
     0
 10
95.455308411907296
 20
157.4698903706342
 30
0.0
  0
VERTEX
  5
29E4
  8
0
  6
CONTINUOUS
 62
     0
 10
95.411362015080954
 20
157.546007762747
 30
0.0
  0
VERTEX
  5
29E5
  8
0
  6
CONTINUOUS
 62
     0
 10
95.367349253088818
 20
157.6222401026989
 30
0.0
  0
VERTEX
  5
29E6
  8
0
  6
CONTINUOUS
 62
     0
 10
95.279095742034315
 20
157.77509966779161
 30
0.0
  0
VERTEX
  5
29E7
  8
0
  6
CONTINUOUS
 62
     0
 10
95.190489201453147
 20
157.92857069796119
 30
0.0
  0
VERTEX
  5
29E8
  8
0
  6
CONTINUOUS
 62
     0
 10
95.146034791841203
 20
158.00556799402949
 30
0.0
  0
SEQEND
  5
29E9
  8
0
  6
CONTINUOUS
 62
     0
  0
POLYLINE
  5
1C8D
  8
0
  6
CONTINUOUS
 62
     0
 66
     1
 10
0.0
 20
0.0
 30
0.0
  0
VERTEX
  5
29EA
  8
0
  6
CONTINUOUS
 62
     0
 10
87.784818859673464
 20
145.25556799402949
 30
0.0
  0
VERTEX
  5
29EB
  8
0
  6
CONTINUOUS
 62
     0
 10
87.919724210394349
 20
145.25556799402949
 30
0.0
  0
VERTEX
  5
29EC
  8
0
  6
CONTINUOUS
 62
     0
 10
88.188213207433293
 20
145.25556799402949
 30
0.0
  0
VERTEX
  5
29ED
  8
0
  6
CONTINUOUS
 62
     0
 10
88.455284805621488
 20
145.25556799402949
 30
0.0
  0
VERTEX
  5
29EE
  8
0
  6
CONTINUOUS
 62
     0
 10
88.588414870354086
 20
145.25556799402949
 30
0.0
  0
VERTEX
  5
29EF
  8
0
  6
CONTINUOUS
 62
     0
 10
88.721339854577025
 20
145.25556799402949
 30
0.0
  0
VERTEX
  5
29F0
  8
0
  6
CONTINUOUS
 62
     0
 10
88.986766442028966
 20
145.25556799402949
 30
0.0
  0
VERTEX
  5
29F1
  8
0
  6
CONTINUOUS
 62
     0
 10
89.251942062030139
 20
145.25556799402949
 30
0.0
  0
VERTEX
  5
29F2
  8
0
  6
CONTINUOUS
 62
     0
 10
89.517235636357555
 20
145.25556799402949
 30
0.0
  0
VERTEX
  5
29F3
  8
0
  6
CONTINUOUS
 62
     0
 10
89.783009414083438
 20
145.25556799402949
 30
0.0
  0
VERTEX
  5
29F4
  8
0
  6
CONTINUOUS
 62
     0
 10
90.049620771711375
 20
145.25556799402949
 30
0.0
  0
VERTEX
  5
29F5
  8
0
  6
CONTINUOUS
 62
     0
 10
90.183351315646405
 20
145.25556799402949
 30
0.0
  0
VERTEX
  5
29F6
  8
0
  6
CONTINUOUS
 62
     0
 10
90.317423934163287
 20
145.25556799402949
 30
0.0
  0
VERTEX
  5
29F7
  8
0
  6
CONTINUOUS
 62
     0
 10
90.586771635211278
 20
145.25556799402949
 30
0.0
  0
VERTEX
  5
29F8
  8
0
  6
CONTINUOUS
 62
     0
 10
90.858016734619355
 20
145.25556799402949
 30
0.0
  0
VERTEX
  5
29F9
  8
0
  6
CONTINUOUS
 62
     0
 10
91.131513808253146
 20
145.25556799402949
 30
0.0
  0
VERTEX
  5
29FA
  8
0
  6
CONTINUOUS
 62
     0
 10
91.407620726703115
 20
145.25556799402949
 30
0.0
  0
VERTEX
  5
29FB
  8
0
  6
CONTINUOUS
 62
     0
 10
91.686700237519403
 20
145.25556799402949
 30
0.0
  0
VERTEX
  5
29FC
  8
0
  6
CONTINUOUS
 62
     0
 10
91.827469800533507
 20
145.25556799402949
 30
0.0
  0
VERTEX
  5
29FD
  8
0
  6
CONTINUOUS
 62
     0
 10
91.969121565966077
 20
145.25556799402949
 30
0.0
  0
VERTEX
  5
29FE
  8
0
  6
CONTINUOUS
 62
     0
 10
92.255262049253759
 20
145.25556799402949
 30
0.0
  0
VERTEX
  5
29FF
  8
0
  6
CONTINUOUS
 62
     0
 10
92.545508819504903
 20
145.25556799402949
 30
0.0
  0
VERTEX
  5
2A00
  8
0
  6
CONTINUOUS
 62
     0
 10
92.692296147785271
 20
145.25556799402949
 30
0.0
  0
SEQEND
  5
2A01
  8
0
  6
CONTINUOUS
 62
     0
  0
POLYLINE
  5
1C8E
  8
0
  6
CONTINUOUS
 62
     0
 66
     1
 10
0.0
 20
0.0
 30
0.0
  0
VERTEX
  5
2A02
  8
0
  6
CONTINUOUS
 62
     0
 10
82.877341571561644
 20
145.25556799402949
 30
0.0
  0
VERTEX
  5
2A03
  8
0
  6
CONTINUOUS
 62
     0
 10
83.024128899842026
 20
145.25556799402949
 30
0.0
  0
VERTEX
  5
2A04
  8
0
  6
CONTINUOUS
 62
     0
 10
83.31437567009317
 20
145.25556799402949
 30
0.0
  0
VERTEX
  5
2A05
  8
0
  6
CONTINUOUS
 62
     0
 10
83.600516153380838
 20
145.25556799402949
 30
0.0
  0
VERTEX
  5
2A06
  8
0
  6
CONTINUOUS
 62
     0
 10
83.742167918813436
 20
145.25556799402949
 30
0.0
  0
VERTEX
  5
2A07
  8
0
  6
CONTINUOUS
 62
     0
 10
83.882937481827526
 20
145.25556799402949
 30
0.0
  0
VERTEX
  5
2A08
  8
0
  6
CONTINUOUS
 62
     0
 10
84.162016992643814
 20
145.25556799402949
 30
0.0
  0
VERTEX
  5
2A09
  8
0
  6
CONTINUOUS
 62
     0
 10
84.438123911093783
 20
145.25556799402949
 30
0.0
  0
VERTEX
  5
2A0A
  8
0
  6
CONTINUOUS
 62
     0
 10
84.711620984727574
 20
145.25556799402949
 30
0.0
  0
VERTEX
  5
2A0B
  8
0
  6
CONTINUOUS
 62
     0
 10
84.982866084135651
 20
145.25556799402949
 30
0.0
  0
VERTEX
  5
2A0C
  8
0
  6
CONTINUOUS
 62
     0
 10
85.252213785183656
 20
145.25556799402949
 30
0.0
  0
VERTEX
  5
2A0D
  8
0
  6
CONTINUOUS
 62
     0
 10
85.386286403700524
 20
145.25556799402949
 30
0.0
  0
VERTEX
  5
2A0E
  8
0
  6
CONTINUOUS
 62
     0
 10
85.520016947635554
 20
145.25556799402949
 30
0.0
  0
VERTEX
  5
2A0F
  8
0
  6
CONTINUOUS
 62
     0
 10
85.786628305263491
 20
145.25556799402949
 30
0.0
  0
VERTEX
  5
2A10
  8
0
  6
CONTINUOUS
 62
     0
 10
86.052402082989374
 20
145.25556799402949
 30
0.0
  0
VERTEX
  5
2A11
  8
0
  6
CONTINUOUS
 62
     0
 10
86.317695657316776
 20
145.25556799402949
 30
0.0
  0
VERTEX
  5
2A12
  8
0
  6
CONTINUOUS
 62
     0
 10
86.582871277317963
 20
145.25556799402949
 30
0.0
  0
VERTEX
  5
2A13
  8
0
  6
CONTINUOUS
 62
     0
 10
86.848297864769904
 20
145.25556799402949
 30
0.0
  0
VERTEX
  5
2A14
  8
0
  6
CONTINUOUS
 62
     0
 10
86.981222848992843
 20
145.25556799402949
 30
0.0
  0
VERTEX
  5
2A15
  8
0
  6
CONTINUOUS
 62
     0
 10
87.114352913725426
 20
145.25556799402949
 30
0.0
  0
VERTEX
  5
2A16
  8
0
  6
CONTINUOUS
 62
     0
 10
87.381424511913679
 20
145.25556799402949
 30
0.0
  0
VERTEX
  5
2A17
  8
0
  6
CONTINUOUS
 62
     0
 10
87.649913508952565
 20
145.25556799402949
 30
0.0
  0
VERTEX
  5
2A18
  8
0
  6
CONTINUOUS
 62
     0
 10
87.784818859673464
 20
145.25556799402949
 30
0.0
  0
SEQEND
  5
2A19
  8
0
  6
CONTINUOUS
 62
     0
  0
LINE
  5
1C9A
  8
0
  6
CONTINUOUS
 62
     0
 10
111.78481885967339
 20
155.25556799402949
 30
0.0
 11
91.212646159873984
 21
155.25556799402949
 31
0.0
  0
LINE
  5
1C9E
  8
0
  6
CONTINUOUS
 62
     0
 10
111.78481885967339
 20
152.25556799402949
 30
0.0
 11
91.212646159873984
 21
152.25556799402949
 31
0.0
  0
LINE
  5
1CA5
  8
1
 10
74.505762668311888
 20
153.75556799402949
 30
0.0
 11
115.78481885967339
 21
153.75556799402949
 31
0.0
  0
LINE
  5
1CA6
  8
1
 10
87.784818859673464
 20
142.25556799402949
 30
0.0
 11
87.784818859673464
 21
165.25556799402949
 31
0.0
  0
ARC
  5
1CA7
  8
0
  6
CONTINUOUS
 62
     0
 10
87.784818859673464
 20
153.75556799402949
 30
0.0
 40
3.7416573867739391
 50
23.63394497869885
 51
336.36605502130118
  0
POINT
  5
1CBF
  8
1
 10
87.784818859673464
 20
153.75556799402949
 30
0.0
210
0.0
220
-1.0
230
0.0000000000000001
  0
POINT
  5
1CC0
  8
1
 10
87.784818859673464
 20
153.75556799402949
 30
10.0
210
0.0
220
-1.0
230
0.0000000000000001
  0
POINT
  5
1CC1
  8
1
 10
87.784818859673464
 20
153.75556799402949
 30
0.0
210
0.0
220
-1.0
230
0.0000000000000001
  0
POINT
  5
1CC2
  8
1
 10
87.784818859673464
 20
153.75556799402949
 30
0.0
210
0.0
220
-1.0
230
0.0000000000000001
  0
POINT
  5
1CC3
  8
1
 10
87.784818859673464
 20
153.75556799402949
 30
10.0
210
0.0
220
1.0
230
-0.0000000000000001
  0
LINE
  5
1CFF
  8
3
 10
165.84161844220279
 20
89.794432145135644
 30
0.0
 11
165.84161844220279
 21
94.794432145135644
 31
0.0
  0
LINE
  5
1D00
  8
3
 10
174.0016184422027
 20
89.794432145135644
 30
0.0
 11
174.00161844220281
 21
94.794432145135644
 31
0.0
  0
LINE
  5
1D01
  8
0
  6
CONTINUOUS
 62
     0
 10
174.9216184422028
 20
89.768879418937914
 30
0.0
 11
174.9216184422028
 21
89.794432145135644
 31
0.0
  0
LINE
  5
1D03
  8
3
 10
165.84161844220279
 20
94.794432145135644
 30
0.0
 11
164.9216184422028
 21
96.387918888099037
 31
0.0
  0
LINE
  5
1D04
  8
3
 10
174.00161844220281
 20
94.794432145135644
 30
0.0
 11
174.9216184422028
 21
96.387918888099122
 31
0.0
  0
LINE
  5
1D07
  8
0
 10
169.4216184422028
 20
105.7944321451356
 30
0.0
 11
170.4216184422028
 21
105.7944321451356
 31
0.0
  0
LINE
  5
1D08
  8
0
 10
169.4216184422028
 20
96.79443214513563
 30
0.0
 11
170.4216184422028
 21
96.79443214513563
 31
0.0
  0
ARC
  5
1D09
  8
0
 10
169.4216184422028
 20
104.7944321451356
 30
0.0
 40
1.0
 50
89.99999999999973
 51
180.0
  0
ARC
  5
1D0A
  8
0
 10
170.4216184422028
 20
104.7944321451356
 30
0.0
 40
1.0
 50
0.0
 51
90.0
  0
ARC
  5
1D0B
  8
0
 10
169.4216184422028
 20
97.79443214513563
 30
0.0
 40
1.0
 50
180.0
 51
270.0
  0
ARC
  5
1D0C
  8
0
 10
170.4216184422028
 20
97.79443214513563
 30
0.0
 40
1.0
 50
269.9999999999996
 51
0.0
  0
LINE
  5
1D3C
  8
3
 10
28.689300775963719
 20
89.794432145135644
 30
0.0
 11
28.689300775963719
 21
94.794432145135644
 31
0.0
  0
LINE
  5
1D3D
  8
3
 10
20.529300775963751
 20
89.794432145135644
 30
0.0
 11
20.529300775963751
 21
94.794432145135644
 31
0.0
  0
LINE
  5
1D3E
  8
0
  6
CONTINUOUS
 62
     0
 10
29.609300775963732
 20
89.768879418937956
 30
0.0
 11
29.609300775963732
 21
89.794432145135644
 31
0.0
  0
LINE
  5
1D3F
  8
3
 10
20.529300775963751
 20
94.794432145135644
 30
0.0
 11
19.609300775963671
 21
96.387918888099122
 31
0.0
  0
LINE
  5
1D40
  8
3
 10
28.681609251407231
 20
94.765726984703008
 30
0.0
 11
29.609300775963789
 21
96.372535838985954
 31
0.0
  0
LINE
  5
1D43
  8
3
 10
83.704818859673495
 20
94.794432145135644
 30
0.0
 11
82.784818859673507
 21
96.387918888099122
 31
0.0
  0
LINE
  5
1D44
  8
3
 10
91.864818859673477
 20
94.794432145135644
 30
0.0
 11
92.784818859673507
 21
96.387918888099051
 31
0.0
  0
LINE
  5
1D45
  8
3
 10
83.704818859673495
 20
89.794432145135644
 30
0.0
 11
83.704818859673495
 21
94.794432145135644
 31
0.0
  0
LINE
  5
1D46
  8
3
 10
91.864818859673477
 20
89.794432145135644
 30
0.0
 11
91.864818859673477
 21
94.794432145135644
 31
0.0
  0
LINE
  5
1D9A
  8
0
 10
112.78481885967339
 20
154.25556799402949
 30
0.0
 11
112.78481885967339
 21
153.25556799402949
 31
0.0
  0
ARC
  5
1D9B
  8
0
 10
111.78481885967339
 20
154.25556799402949
 30
0.0
 40
1.0
 50
359.99999999999892
 51
90.0
  0
ARC
  5
1D9C
  8
0
 10
111.78481885967339
 20
153.25556799402949
 30
0.0
 40
1.0
 50
270.0
 51
359.99999999999841
  0
LINE
  5
1DA4
  8
0
  6
CONTINUOUS
 62
     0
 10
83.014865063807349
 20
155.25556799402949
 30
0.0
 11
84.356991559472931
 21
155.25556799402949
 31
0.0
  0
LINE
  5
1DA5
  8
0
  6
CONTINUOUS
 62
     0
 10
84.356991559472931
 20
152.25556799402949
 30
0.0
 11
83.014865063807349
 21
152.25556799402949
 31
0.0
  0
LINE
  5
1DD0
  8
0
 10
112.78481885967339
 20
24.19777253682804
 30
0.0
 11
112.78481885967339
 21
23.19777253682804
 31
0.0
  0
ARC
  5
1DD1
  8
0
 10
111.78481885967339
 20
24.19777253682804
 30
0.0
 40
1.0
 50
0.0
 51
90.0
  0
ARC
  5
1DD2
  8
0
 10
111.78481885967339
 20
23.19777253682804
 30
0.0
 40
1.0
 50
270.0
 51
0.0
  0
CIRCLE
  5
1DDB
  8
0
 10
87.784818859673464
 20
23.69777253682804
 30
0.0
 40
5.0
  0
CIRCLE
  5
1DDD
  8
3
 10
87.784818859673464
 20
23.69777253682804
 30
0.0
 40
4.0799999999999841
  0
ARC
  5
1E05
  8
0
 10
87.784818859673464
 20
153.75556799402949
 30
0.0
 40
5.0
 50
17.45760312372213
 51
342.54239687627791
  0
TEXT
  5
1F4D
  8
0
 62
     3
 10
0.0
 20
0.0
 30
0.0
 40
5.0
  1
GDX10LW-4
  7
STANDARD1
  0
ENDSEC
  0
EOF
