  0
SECTION
  2
HEADER
  9
$ACADVER
  1
AC1009
  9
$INSBASE
 10
0.0
 20
0.0
 30
0.0
  9
$EXTMIN
 10
0.0
 20
-2.960436562073669
 30
0.0
  9
$EXTMAX
 10
246.40924944017851
 20
179.7195121624689
 30
0.0
  9
$LIMMIN
 10
0.0
 20
0.0
  9
$LIMMAX
 10
187.5
 20
135.0
  9
$ORTHOMODE
 70
     0
  9
$REGENMODE
 70
     1
  9
$FILLMODE
 70
     1
  9
$QTEXTMODE
 70
     0
  9
$MIRRTEXT
 70
     0
  9
$DRAGMODE
 70
     2
  9
$LTSCALE
 40
5.0
  9
$OSMODE
 70
    55
  9
$ATTMODE
 70
     1
  9
$TEXTSIZE
 40
5.0
  9
$TRACEWID
 40
0.05
  9
$TEXTSTYLE
  7
STANDARD
  9
$CLAYER
  8
0
  9
$CELTYPE
  6
BYLAYER
  9
$CECOLOR
 62
   256
  9
$DIMSCALE
 40
0.5
  9
$DIMASZ
 40
3.0
  9
$DIMEXO
 40
2.0
  9
$DIMDLI
 40
0.38
  9
$DIMRND
 40
0.0
  9
$DIMDLE
 40
0.0
  9
$DIMEXE
 40
2.0
  9
$DIMTP
 40
0.0
  9
$DIMTM
 40
0.0
  9
$DIMTXT
 40
3.2000000000000002
  9
$DIMCEN
 40
0.09
  9
$DIMTSZ
 40
0.0
  9
$DIMTOL
 70
     0
  9
$DIMLIM
 70
     0
  9
$DIMTIH
 70
     0
  9
$DIMTOH
 70
     0
  9
$DIMSE1
 70
     0
  9
$DIMSE2
 70
     0
  9
$DIMTAD
 70
     1
  9
$DIMZIN
 70
     0
  9
$DIMBLK
  1

  9
$DIMASO
 70
     1
  9
$DIMSHO
 70
     0
  9
$DIMPOST
  1

  9
$DIMAPOST
  1

  9
$DIMALT
 70
     0
  9
$DIMALTD
 70
     2
  9
$DIMALTF
 40
25.399999999999999
  9
$DIMLFAC
 40
1.0
  9
$DIMTOFL
 70
     0
  9
$DIMTVP
 40
1.6000000000000001
  9
$DIMTIX
 70
     1
  9
$DIMSOXD
 70
     0
  9
$DIMSAH
 70
     0
  9
$DIMBLK1
  1

  9
$DIMBLK2
  1

  9
$DIMSTYLE
  2
STANDARD
  9
$DIMCLRD
 70
     0
  9
$DIMCLRE
 70
     0
  9
$DIMCLRT
 70
     0
  9
$DIMTFAC
 40
1.0
  9
$DIMGAP
 40
0.09
  9
$LUNITS
 70
     2
  9
$LUPREC
 70
     4
  9
$SKETCHINC
 40
0.1
  9
$FILLETRAD
 40
0.3
  9
$AUNITS
 70
     0
  9
$AUPREC
 70
     0
  9
$MENU
  1
E:\r13\win\SUPPORT\ACAD
  9
$ELEVATION
 40
0.0
  9
$PELEVATION
 40
0.0
  9
$THICKNESS
 40
0.0
  9
$LIMCHECK
 70
     0
  9
$BLIPMODE
 70
     0
  9
$CHAMFERA
 40
0.0
  9
$CHAMFERB
 40
0.0
  9
$SKPOLY
 70
     0
  9
$TDCREATE
 40
2449839.7835069438
  9
$TDUPDATE
 40
2456598.6783761112
  9
$TDINDWG
 40
0.0101565856
  9
$TDUSRTIMER
 40
0.0101565856
  9
$USRTIMER
 70
     1
  9
$ANGBASE
 50
0.0
  9
$ANGDIR
 70
     0
  9
$PDMODE
 70
     0
  9
$PDSIZE
 40
0.0
  9
$PLINEWID
 40
0.0
  9
$COORDS
 70
     1
  9
$SPLFRAME
 70
     0
  9
$SPLINETYPE
 70
     6
  9
$SPLINESEGS
 70
     8
  9
$ATTDIA
 70
     0
  9
$ATTREQ
 70
     1
  9
$HANDLING
 70
     1
  9
$HANDSEED
  5
AEE
  9
$SURFTAB1
 70
     6
  9
$SURFTAB2
 70
     6
  9
$SURFTYPE
 70
     6
  9
$SURFU
 70
     6
  9
$SURFV
 70
     6
  9
$UCSNAME
  2

  9
$UCSORG
 10
0.0
 20
0.0
 30
0.0
  9
$UCSXDIR
 10
1.0
 20
0.0
 30
0.0
  9
$UCSYDIR
 10
0.0
 20
1.0
 30
0.0
  9
$PUCSNAME
  2

  9
$PUCSORG
 10
0.0
 20
0.0
 30
0.0
  9
$PUCSXDIR
 10
1.0
 20
0.0
 30
0.0
  9
$PUCSYDIR
 10
0.0
 20
1.0
 30
0.0
  9
$USERI1
 70
     0
  9
$USERI2
 70
     1
  9
$USERI3
 70
     1
  9
$USERI4
 70
     0
  9
$USERI5
 70
     0
  9
$USERR1
 40
0.0
  9
$USERR2
 40
0.0
  9
$USERR3
 40
0.0
  9
$USERR4
 40
0.0
  9
$USERR5
 40
0.0
  9
$WORLDVIEW
 70
     1
  9
$SHADEDGE
 70
     3
  9
$SHADEDIF
 70
    70
  9
$TILEMODE
 70
     1
  9
$MAXACTVP
 70
    16
  9
$PLIMCHECK
 70
     0
  9
$PEXTMIN
 10
1.0000000000000000E+020
 20
1.0000000000000000E+020
 30
1.0000000000000000E+020
  9
$PEXTMAX
 10
-1.0000000000000000E+020
 20
-1.0000000000000000E+020
 30
-1.0000000000000000E+020
  9
$PLIMMIN
 10
0.0
 20
0.0
  9
$PLIMMAX
 10
12.0
 20
9.0
  9
$UNITMODE
 70
     0
  9
$VISRETAIN
 70
     0
  9
$PLINEGEN
 70
     0
  9
$PSLTSCALE
 70
     0
  0
ENDSEC
  0
SECTION
  2
TABLES
  0
TABLE
  2
VPORT
 70
     1
  0
VPORT
  2
*ACTIVE
 70
     0
 10
0.0
 20
0.0
 11
1.0
 21
1.0
 12
123.20462529380551
 22
116.08917077342871
 13
0.0
 23
0.0
 14
5.0
 24
5.0
 15
5.0
 25
5.0
 16
0.0
 26
0.0
 36
1.0
 17
0.0
 27
0.0
 37
0.0
 40
240.21259249186389
 41
1.7807262569832401
 42
50.0
 43
0.0
 44
0.0
 50
0.0
 51
0.0
 71
     0
 72
   500
 73
     1
 74
     0
 75
     0
 76
     0
 77
     0
 78
     2
  0
ENDTAB
  0
TABLE
  2
LTYPE
 70
     4
  0
LTYPE
  2
CONTINUOUS
 70
     0
  3
Solid Line
 72
    65
 73
     0
 40
0.0
  0
LTYPE
  2
CENTER
 70
     0
  3
____ _ ____ _ ____ _ ____ _ ____ _ ____ _ ____
 72
    65
 73
     4
 40
2.0
 49
1.25
 49
-0.25
 49
0.25
 49
-0.25
  0
LTYPE
  2
HIDDEN
 70
     0
  3
_ _ _ _ _ _ _ _ _ _ _ _ _ _ _ _ _ _ _ _ _ _ _
 72
    65
 73
     2
 40
0.375
 49
0.25
 49
-0.125
  0
LTYPE
  2
PHANTOM2
 70
     0
  3
___ _ _ ___ _ _ ___ _ _ ___ _ _
 72
    65
 73
     6
 40
1.25
 49
0.625
 49
-0.125
 49
0.125
 49
-0.125
 49
0.125
 49
-0.125
  0
ENDTAB
  0
TABLE
  2
LAYER
 70
     4
  0
LAYER
  2
0
 70
     0
 62
     7
  6
CONTINUOUS
  0
LAYER
  2
1
 70
     0
 62
     1
  6
CENTER
  0
LAYER
  2
3
 70
     0
 62
     3
  6
CONTINUOUS
  0
LAYER
  2
2
 70
     0
 62
     2
  6
HIDDEN
  0
ENDTAB
  0
TABLE
  2
STYLE
 70
     2
  0
STYLE
  2
STANDARD
 70
     0
 40
0.0
 41
1.0
 50
0.0
 71
     0
 42
5.0
  3
TXT
  4
BIGFONT
  0
STYLE
  2
STANDARD1
 70
     0
 40
0.0
 41
1.0
 50
0.0
 71
     0
 42
3.0
  3
txt
  4

  0
ENDTAB
  0
TABLE
  2
VIEW
 70
     1
  0
VIEW
  2
ALL
 70
     0
 40
135.0
 10
110.4957983193277
 20
67.5
 41
0.0
 11
0.0
 21
0.0
 31
1.0
 12
0.0
 22
0.0
 32
0.0
 42
0.0
 43
0.0
 44
0.0
 50
0.0
 71
     0
  0
ENDTAB
  0
TABLE
  2
UCS
 70
     0
  0
ENDTAB
  0
TABLE
  2
APPID
 70
     3
  0
APPID
  2
ACAD
 70
     0
  0
APPID
  2
ACAD_MLEADERVER
 70
     0
  0
APPID
  2
ACAD_NAV_VCDISPLAY
 70
     0
  0
ENDTAB
  0
TABLE
  2
DIMSTYLE
 70
     1
  0
DIMSTYLE
  2
STANDARD
 70
     0
  3

  4

  5

  6

  7

 40
1.0
 41
0.18
 42
0.0625
 43
0.38
 44
0.18
 45
0.0
 46
0.0
 47
0.0
 48
0.0
140
0.18
141
0.09
142
0.0
143
25.399999999999999
144
1.0
145
0.0
146
1.0
147
0.09
 71
     0
 72
     0
 73
     1
 74
     1
 75
     0
 76
     0
 77
     0
 78
     0
170
     0
171
     2
172
     0
173
     0
174
     0
175
     0
176
     0
177
     0
178
     0
  0
ENDTAB
  0
ENDSEC
  0
SECTION
  2
BLOCKS
  0
BLOCK
  8
0
  2
$MODEL_SPACE
 70
     0
 10
0.0
 20
0.0
 30
0.0
  3
$MODEL_SPACE
  1

  0
ENDBLK
  5
4E5
  8
0
  0
BLOCK
 67
     1
  8
0
  2
$PAPER_SPACE
 70
     0
 10
0.0
 20
0.0
 30
0.0
  3
$PAPER_SPACE
  1

  0
ENDBLK
  5
4E3
 67
     1
  8
0
  0
ENDSEC
  0
SECTION
  2
ENTITIES
  0
LINE
  5
36
  8
1
 10
174.40924944017851
 20
108.7195121624689
 30
0.0
 11
102.4092494401784
 21
108.7195121624689
 31
0.0
  0
LINE
  5
37
  8
1
 10
72.409249440178456
 20
108.7195121624689
 30
0.0
 11
30.40924944017846
 21
108.7195121624689
 31
0.0
  0
LINE
  5
38
  8
1
 10
51.409249440178428
 20
87.719512162468874
 30
0.0
 11
51.409249440178478
 21
129.7195121624689
 31
0.0
  0
CIRCLE
  5
39
  8
0
 10
51.409249440178463
 20
108.7195121624689
 30
0.0
 40
16.0
  0
CIRCLE
  5
3A
  8
0
 10
51.409249440178463
 20
108.7195121624689
 30
0.0
 40
15.0
  0
CIRCLE
  5
3B
  8
0
 10
51.409249440178463
 20
108.7195121624689
 30
0.0
 40
13.5
  0
CIRCLE
  5
3C
  8
0
 10
51.409249440178463
 20
108.7195121624689
 30
0.0
 40
10.5
  0
ARC
  5
3D
  8
0
 10
51.409249440178428
 20
91.794512162467996
 30
0.0
 40
1.3
 50
46.928274776697869
 51
133.07172522330211
  0
ARC
  5
3E
  8
0
 10
56.639362069974709
 20
92.622880624172566
 30
0.0
 40
1.3
 50
64.928274776697975
 51
151.07172522330211
  0
ARC
  5
3F
  8
0
 10
61.35751483522909
 20
95.026899532672175
 30
0.0
 40
1.3
 50
82.928274776697876
 51
169.07172522330211
  0
ARC
  5
40
  8
0
 10
65.101862069975141
 20
98.771246767418248
 30
0.0
 40
1.3
 50
100.9282747766979
 51
187.07172522330211
  0
ARC
  5
41
  8
0
 10
67.505880978474778
 20
103.48939953267261
 30
0.0
 40
1.3
 50
118.9282747766979
 51
205.071725223302
  0
ARC
  5
42
  8
0
 10
68.334249440179335
 20
108.7195121624688
 30
0.0
 40
1.3
 50
136.928274776698
 51
223.07172522330211
  0
ARC
  5
43
  8
0
 10
67.50588097847475
 20
113.9496247922651
 30
0.0
 40
1.3
 50
154.92827477669789
 51
241.07172522330211
  0
ARC
  5
44
  8
0
 10
65.101862069975155
 20
118.6677775575195
 30
0.0
 40
1.3
 50
172.928274776698
 51
259.07172522330211
  0
ARC
  5
45
  8
0
 10
61.35751483522909
 20
122.4121247922656
 30
0.0
 40
1.3
 50
190.92827477669789
 51
277.07172522330211
  0
ARC
  5
46
  8
0
 10
56.63936206997473
 20
124.8161437007652
 30
0.0
 40
1.3
 50
208.928274776698
 51
295.07172522330211
  0
ARC
  5
47
  8
0
 10
51.409249440178463
 20
125.64451216246979
 30
0.0
 40
1.3
 50
226.92827477669789
 51
313.07172522330211
  0
ARC
  5
48
  8
0
 10
46.179136810382197
 20
124.8161437007652
 30
0.0
 40
1.3
 50
244.928274776698
 51
331.07172522330211
  0
ARC
  5
49
  8
0
 10
41.460984045127809
 20
122.4121247922656
 30
0.0
 40
1.3
 50
262.92827477669789
 51
349.07172522330211
  0
ARC
  5
4A
  8
0
 10
37.716636810381772
 20
118.6677775575195
 30
0.0
 40
1.3
 50
280.92827477669789
 51
7.0717252233020931
  0
ARC
  5
4B
  8
0
 10
35.312617901882163
 20
113.9496247922652
 30
0.0
 40
1.3
 50
298.928274776698
 51
25.071725223302089
  0
ARC
  5
4C
  8
0
 10
34.484249440177571
 20
108.7195121624689
 30
0.0
 40
1.3
 50
316.92827477669789
 51
43.071725223302089
  0
ARC
  5
4D
  8
0
 10
35.312617901882163
 20
103.48939953267261
 30
0.0
 40
1.3
 50
334.928274776698
 51
61.071725223302089
  0
ARC
  5
4E
  8
0
 10
37.716636810381722
 20
98.77124676741829
 30
0.0
 40
1.3
 50
352.92827477669789
 51
79.071725223302096
  0
ARC
  5
4F
  8
0
 10
41.460984045127809
 20
95.026899532672175
 30
0.0
 40
1.3
 50
10.928274776697981
 51
97.071725223302096
  0
ARC
  5
50
  8
0
 10
46.179136810382197
 20
92.622880624172566
 30
0.0
 40
1.3
 50
28.928274776697879
 51
115.0717252233021
  0
LINE
  5
51
  8
0
 10
120.4092494401785
 20
100.2195121624688
 30
0.0
 11
128.1092494401785
 21
100.2195121624688
 31
0.0
  0
LINE
  5
52
  8
0
 10
119.4092494401785
 20
92.719512162468902
 30
0.0
 11
120.4092494401785
 21
93.719512162468888
 31
0.0
  0
LINE
  5
53
  8
0
 10
128.1092494401785
 20
100.2195121624688
 30
0.0
 11
129.1092494401785
 21
101.2195121624689
 31
0.0
  0
LINE
  5
54
  8
0
 10
128.1092494401785
 20
117.2195121624689
 30
0.0
 11
129.1092494401785
 21
116.2195121624689
 31
0.0
  0
LINE
  5
55
  8
0
 10
119.4092494401785
 20
124.7195121624689
 30
0.0
 11
120.4092494401785
 21
123.7195121624689
 31
0.0
  0
LINE
  5
56
  8
0
 10
108.0342494401887
 20
124.34451216247911
 30
0.0
 11
107.4092494401785
 21
123.7195121624689
 31
0.0
  0
LINE
  5
57
  8
0
 10
129.1092494401785
 20
114.7195121624689
 30
0.0
 11
129.40924944017851
 21
114.7195121624689
 31
0.0
  0
LINE
  5
58
  8
0
 10
129.1092494401785
 20
116.2195121624689
 30
0.0
 11
129.1092494401785
 21
101.2195121624689
 31
0.0
  0
LINE
  5
59
  8
0
 10
120.4092494401785
 20
117.2195121624689
 30
0.0
 11
128.1092494401785
 21
117.2195121624689
 31
0.0
  0
LINE
  5
5A
  8
0
 10
120.4092494401785
 20
123.7195121624689
 30
0.0
 11
120.4092494401785
 21
93.719512162468888
 31
0.0
  0
LINE
  5
5B
  8
0
 10
118.5342494401784
 20
124.7195121624689
 30
0.0
 11
119.4092494401785
 21
124.7195121624689
 31
0.0
  0
LINE
  5
5C
  8
0
 10
128.1092494401785
 20
117.2195121624689
 30
0.0
 11
128.1092494401785
 21
100.2195121624689
 31
0.0
  0
LINE
  5
5D
  8
0
 10
119.4092494401785
 20
124.7195121624689
 30
0.0
 11
119.4092494401785
 21
92.719512162468902
 31
0.0
  0
LINE
  5
5F
  8
0
 10
129.40924944017851
 20
102.7195121624689
 30
0.0
 11
129.1092494401785
 21
102.7195121624689
 31
0.0
  0
LINE
  5
61
  8
2
 10
112.8092494401785
 20
119.2195121624688
 30
0.0
 11
112.8092494401785
 21
98.219512162468902
 31
0.0
  0
LINE
  5
62
  8
2
 10
112.8092494401785
 20
98.219512162468902
 30
0.0
 11
112.3092494401785
 21
98.219512162468902
 31
0.0
  0
LINE
  5
63
  8
2
 10
112.3092494401785
 20
98.219512162468902
 30
0.0
 11
112.3092494401785
 21
119.2195121624688
 31
0.0
  0
LINE
  5
64
  8
2
 10
107.4092494401785
 20
95.219512162468902
 30
0.0
 11
112.3092494401785
 21
98.219512162468902
 31
0.0
  0
LINE
  5
65
  8
0
 10
107.4092494401785
 20
93.719512162468874
 30
0.0
 11
107.4092494401785
 21
123.7195121624689
 31
0.0
  0
LINE
  5
66
  8
0
 10
129.40924944017851
 20
102.7195121624689
 30
0.0
 11
129.40924944017851
 21
114.7195121624689
 31
0.0
  0
LINE
  5
67
  8
0
 10
108.4092494401785
 20
109.607299535945
 30
0.0
 11
118.1592494401785
 21
109.6072995359449
 31
0.0
  0
LINE
  5
68
  8
0
 10
108.4092494401785
 20
112.81183108797541
 30
0.0
 11
118.1935437366345
 21
112.81183108797541
 31
0.0
  0
LINE
  5
69
  8
0
 10
108.4092494401785
 20
114.5005030212335
 30
0.0
 11
118.1592503938527
 21
114.5005030212335
 31
0.0
  0
LINE
  5
6A
  8
0
 10
108.4092494401785
 20
117.391352697667
 30
0.0
 11
118.19669072331121
 21
117.391352697667
 31
0.0
  0
LINE
  5
6B
  8
0
 10
108.4092494401785
 20
118.82782284273441
 30
0.0
 11
118.1592515726591
 21
118.82782284273441
 31
0.0
  0
LINE
  5
6C
  8
0
 10
108.4092494401785
 20
121.1220141355076
 30
0.0
 11
118.2097083129953
 21
121.1220141355076
 31
0.0
  0
LINE
  5
6D
  8
0
 10
108.4092494401785
 20
122.1656707861091
 30
0.0
 11
118.1592503938528
 21
122.1656707861091
 31
0.0
  0
LINE
  5
6E
  8
0
 10
108.4092494401785
 20
123.6386322669147
 30
0.0
 11
118.1592494401784
 21
123.6386322669147
 31
0.0
  0
LINE
  5
6F
  8
0
 10
108.4092494401785
 20
124.1873150385059
 30
0.0
 11
118.1592494401785
 21
124.1873150385059
 31
0.0
  0
LINE
  5
79
  8
2
 10
107.4092494401785
 20
122.2195121624688
 30
0.0
 11
112.3092494401785
 21
119.2195121624688
 31
0.0
  0
LINE
  5
7A
  8
2
 10
112.8092494401785
 20
119.2195121624688
 30
0.0
 11
112.3092494401785
 21
119.2195121624688
 31
0.0
  0
LINE
  5
82
  8
0
 10
108.4092494401785
 20
124.6948629748766
 30
0.0
 11
108.4092494401785
 21
124.1873150385059
 31
0.0
  0
LINE
  5
83
  8
0
 10
108.4092494401785
 20
124.6948629748766
 30
0.0
 11
118.1592494401784
 21
124.6948629748766
 31
0.0
  0
POLYLINE
  5
84
  8
0
 66
     1
 10
0.0
 20
0.0
 30
0.0
  0
VERTEX
  5
85
  8
0
 10
108.4092494401785
 20
118.82782284273441
 30
0.0
 42
0.2015894264067176
 50
90.0
  0
VERTEX
  5
86
  8
0
 10
108.288182419912
 20
118.7769435318512
 30
0.0
 42
0.0977170379735125
 50
90.0
  0
VERTEX
  5
87
  8
0
 10
108.1440843972336
 20
118.5571408551224
 30
0.0
 42
0.0547927573384048
 70
     2
 50
247.9141022391737
  0
VERTEX
  5
88
  8
0
 10
108.0656833633612
 20
118.28032427509579
 30
0.0
 42
0.0416539519670256
 50
247.9141022391737
  0
VERTEX
  5
89
  8
0
 10
108.0342494401786
 20
117.90365672953931
 30
0.0
 42
0.0416539519669881
 50
90.0
  0
SEQEND
  5
8A
  8
0
  0
POLYLINE
  5
8B
  8
0
 66
     1
 10
0.0
 20
0.0
 30
0.0
  0
VERTEX
  5
8C
  8
0
 10
108.0342494401786
 20
117.90365672953931
 30
0.0
 42
0.0737304435607645
 50
90.0
  0
VERTEX
  5
8D
  8
0
 10
108.0642577676153
 20
117.70126274289851
 30
0.0
 42
0.0845717212532976
 50
90.0
  0
VERTEX
  5
8E
  8
0
 10
108.1440843972336
 20
117.5414030745732
 30
0.0
 42
0.1063921108588694
 70
     2
 50
306.20365064702992
  0
VERTEX
  5
8F
  8
0
 10
108.2813614958051
 20
117.4193066445883
 30
0.0
 42
0.1510088585334486
 50
306.20365064702992
  0
VERTEX
  5
90
  8
0
 10
108.4092494401785
 20
117.39135269766381
 30
0.0
 42
0.1294534172461018
 50
90.0
  0
SEQEND
  5
91
  8
0
  0
POLYLINE
  5
92
  8
0
 66
     1
 10
0.0
 20
0.0
 30
0.0
  0
VERTEX
  5
93
  8
0
 10
108.0342494401786
 20
113.5479026995777
 30
0.0
 42
0.0520405140106174
 50
90.0
  0
VERTEX
  5
94
  8
0
 10
108.0652912851335
 20
113.2504635067653
 30
0.0
 42
0.0658985238271168
 50
90.0
  0
VERTEX
  5
95
  8
0
 10
108.1440843972336
 20
113.0274214715748
 30
0.0
 42
0.1046205348859841
 70
     2
 50
296.99708196701908
  0
VERTEX
  5
96
  8
0
 10
108.2896215464564
 20
112.84732725185231
 30
0.0
 42
0.1996909920929194
 50
296.99708196701908
  0
VERTEX
  5
97
  8
0
 10
108.4092494401785
 20
112.81183108797541
 30
0.0
 42
0.172337143622725
 50
90.0
  0
SEQEND
  5
98
  8
0
  0
POLYLINE
  5
99
  8
0
 66
     1
 10
0.0
 20
0.0
 30
0.0
  0
VERTEX
  5
9A
  8
0
 10
108.4092494401785
 20
114.5005030212335
 30
0.0
 42
0.2055316714992537
 50
90.0
  0
VERTEX
  5
9B
  8
0
 10
108.2890524546677
 20
114.44891520876401
 30
0.0
 42
0.0965313913509376
 50
90.0
  0
VERTEX
  5
9C
  8
0
 10
108.1440843972334
 20
114.221492846781
 30
0.0
 42
0.0533986296957384
 70
     2
 50
248.5124580243924
  0
VERTEX
  5
9D
  8
0
 10
108.0657245988435
 20
113.93651047188889
 30
0.0
 42
0.0404311354471943
 50
248.5124580243924
  0
VERTEX
  5
9E
  8
0
 10
108.0342494401783
 20
113.5479026995777
 30
0.0
 42
0.0404311354471791
 50
90.0
  0
SEQEND
  5
9F
  8
0
  0
POLYLINE
  5
A0
  8
0
 66
     1
 10
0.0
 20
0.0
 30
0.0
  0
VERTEX
  5
A1
  8
0
 10
108.0342494401786
 20
108.7195121624689
 30
0.0
 42
0.0433295665536456
 50
90.0
  0
VERTEX
  5
A2
  8
0
 10
108.0656251265044
 20
108.3581332878062
 30
0.0
 42
0.0566743414169658
 50
90.0
  0
VERTEX
  5
A3
  8
0
 10
108.1440843972336
 20
108.0917516904321
 30
0.0
 42
0.0992025570697266
 70
     2
 50
292.89911996388048
  0
VERTEX
  5
A4
  8
0
 10
108.2944972911817
 20
107.8706734600066
 30
0.0
 42
0.2280338981645266
 50
292.89911996388048
  0
VERTEX
  5
A5
  8
0
 10
108.4092494401785
 20
107.8317247890102
 30
0.0
 42
0.1963710675046459
 50
90.0
  0
SEQEND
  5
A6
  8
0
  0
POLYLINE
  5
A7
  8
0
 66
     1
 10
0.0
 20
0.0
 30
0.0
  0
VERTEX
  5
A8
  8
0
 10
108.4092494401785
 20
109.607299535945
 30
0.0
 42
0.1963710675046226
 50
90.0
  0
VERTEX
  5
A9
  8
0
 10
108.2870283180588
 20
109.5573729007571
 30
0.0
 42
0.0992025570696904
 50
90.0
  0
VERTEX
  5
AA
  8
0
 10
108.1440843972336
 20
109.3472726345056
 30
0.0
 42
0.0566743414169369
 70
     2
 50
247.10088003612381
  0
VERTEX
  5
AB
  8
0
 10
108.0656251265044
 20
109.08089103713159
 30
0.0
 42
0.0433295665536664
 50
247.10088003612381
  0
VERTEX
  5
AC
  8
0
 10
108.0342494401786
 20
108.7195121624689
 30
0.0
 42
0.0433295665536456
 50
90.0
  0
SEQEND
  5
AD
  8
0
  0
LINE
  5
AE
  8
0
 10
108.4092494401785
 20
117.391352697667
 30
0.0
 11
108.4092494401785
 21
114.5005030212335
 31
0.0
  0
LINE
  5
AF
  8
0
 10
108.4092494401785
 20
112.81183108797541
 30
0.0
 11
108.4092494401785
 21
109.607299535945
 31
0.0
  0
POLYLINE
  5
B0
  8
0
 66
     1
 10
0.0
 20
0.0
 30
0.0
  0
VERTEX
  5
B1
  8
0
 10
108.0342494401786
 20
121.3604026995781
 30
0.0
 42
0.1453834159301123
 50
90.0
  0
VERTEX
  5
B2
  8
0
 10
108.0594665694762
 20
121.2755094833168
 30
0.0
 42
0.1071699662217274
 50
90.0
  0
VERTEX
  5
B3
  8
0
 10
108.1440843972336
 20
121.1918365293666
 30
0.0
 42
0.077350332773411
 70
     2
 50
327.55576388790911
  0
VERTEX
  5
B4
  8
0
 10
108.2725489527616
 20
121.13571667111221
 30
0.0
 42
0.0789475685392101
 50
327.55576388790911
  0
VERTEX
  5
B5
  8
0
 10
108.4092494401785
 20
121.1220141355093
 30
0.0
 42
0.0644571111103437
 50
90.0
  0
SEQEND
  5
B6
  8
0
  0
POLYLINE
  5
B7
  8
0
 66
     1
 10
0.0
 20
0.0
 30
0.0
  0
VERTEX
  5
B8
  8
0
 10
108.4092494401785
 20
122.1656707861091
 30
0.0
 42
0.1837701506072527
 50
90.0
  0
VERTEX
  5
B9
  8
0
 10
108.2842322769872
 20
122.118115943433
 30
0.0
 42
0.1023570990015804
 50
90.0
  0
VERTEX
  5
BA
  8
0
 10
108.1440843972302
 20
121.92981322423729
 30
0.0
 42
0.06139380527182
 70
     2
 50
245.0293849661897
  0
VERTEX
  5
BB
  8
0
 10
108.0654650137366
 20
121.6870437339347
 30
0.0
 42
0.0476740870733025
 50
245.0293849661897
  0
VERTEX
  5
BC
  8
0
 10
108.0342494401738
 20
121.3604026995781
 30
0.0
 42
0.0476740870732675
 50
90.0
  0
SEQEND
  5
BD
  8
0
  0
LINE
  5
BE
  8
0
 10
108.4092494401785
 20
121.1220141355076
 30
0.0
 11
108.4092494401785
 21
118.82782284273441
 31
0.0
  0
POLYLINE
  5
BF
  8
0
 66
     1
 10
0.0
 20
0.0
 30
0.0
  0
VERTEX
  5
C0
  8
0
 10
108.4092494401785
 20
124.1873150385059
 30
0.0
 42
0.1488470320745859
 50
90.0
  0
VERTEX
  5
C1
  8
0
 10
108.2764717523922
 20
124.1468923260624
 30
0.0
 42
0.1070939314374275
 50
90.0
  0
VERTEX
  5
C2
  8
0
 10
108.1440843972336
 20
124.0093692838466
 30
0.0
 42
0.0758177480846394
 70
     2
 50
238.31552115822251
  0
VERTEX
  5
C3
  8
0
 10
108.06481879783141
 20
123.8227489270203
 30
0.0
 42
0.0626584555913342
 50
238.31552115822251
  0
VERTEX
  5
C4
  8
0
 10
108.0342494401786
 20
123.5797702295815
 30
0.0
 42
0.0626584555913199
 50
90.0
  0
SEQEND
  5
C5
  8
0
  0
POLYLINE
  5
C6
  8
0
 66
     1
 10
0.0
 20
0.0
 30
0.0
  0
VERTEX
  5
C7
  8
0
 10
108.0342494401786
 20
123.5797702295815
 30
0.0
 42
0.0162328826952284
 50
90.0
  0
VERTEX
  5
C8
  8
0
 10
108.18918704357429
 20
123.5848017232947
 30
0.0
 42
0.0226962008047463
 50
90.0
  0
VERTEX
  5
C9
  8
0
 10
108.2994144831235
 20
123.59701052116191
 30
0.0
 42
0.0516790455059756
 70
     2
 50
8.9206691496988508
  0
VERTEX
  5
CA
  8
0
 10
108.40167049697079
 20
123.6240991222344
 30
0.0
 50
8.9206691496988508
  0
VERTEX
  5
CB
  8
0
 10
108.4092494401785
 20
123.6386322669147
 30
0.0
 50
90.0
  0
SEQEND
  5
CC
  8
0
  0
LINE
  5
CD
  8
0
 10
108.4092494401785
 20
123.6386322669147
 30
0.0
 11
108.4092494401785
 21
122.1656707861091
 31
0.0
  0
POLYLINE
  5
CE
  8
0
 66
     1
 10
0.0
 20
0.0
 30
0.0
  0
VERTEX
  5
CF
  8
0
 10
108.0342494401786
 20
124.344512162469
 30
0.0
 42
0.092572595455409
 50
90.0
  0
VERTEX
  5
D0
  8
0
 10
108.17892259299811
 20
124.3715292287265
 30
0.0
 42
0.0958395211622397
 50
90.0
  0
VERTEX
  5
D1
  8
0
 10
108.2994144831235
 20
124.44712753962899
 30
0.0
 42
0.1008530118927434
 70
     2
 50
43.053698806586652
  0
VERTEX
  5
D2
  8
0
 10
108.3879118047366
 20
124.5715250003127
 30
0.0
 42
0.1236287328816281
 50
43.053698806586652
  0
VERTEX
  5
D3
  8
0
 10
108.40924944017389
 20
124.6948629748766
 30
0.0
 42
0.1047089114758273
 50
90.0
  0
SEQEND
  5
D4
  8
0
  0
POLYLINE
  5
D5
  8
0
 66
     1
 10
0.0
 20
0.0
 30
0.0
  0
VERTEX
  5
D6
  8
0
 10
118.5342494401783
 20
123.5797702295815
 30
0.0
 42
-0.0162328826952284
 50
90.0
  0
VERTEX
  5
D7
  8
0
 10
118.3793118367827
 20
123.5848017232947
 30
0.0
 42
-0.0226962008047463
 50
90.0
  0
VERTEX
  5
D8
  8
0
 10
118.2690843972335
 20
123.59701052116191
 30
0.0
 42
-0.0516790455059756
 70
     2
 50
171.07933085030109
  0
VERTEX
  5
D9
  8
0
 10
118.1668283833861
 20
123.6240991222344
 30
0.0
 50
90.0
  0
VERTEX
  5
DA
  8
0
 10
118.1592494401784
 20
123.6386322669147
 30
0.0
 50
90.0
  0
SEQEND
  5
DB
  8
0
  0
POLYLINE
  5
DC
  8
0
 66
     1
 10
0.0
 20
0.0
 30
0.0
  0
VERTEX
  5
DD
  8
0
 10
118.1592494401785
 20
124.1873150385059
 30
0.0
 42
-0.1488470320745859
 50
90.0
  0
VERTEX
  5
DE
  8
0
 10
118.2920271279648
 20
124.1468923260624
 30
0.0
 42
-0.1070939314374275
 50
90.0
  0
VERTEX
  5
DF
  8
0
 10
118.4244144831233
 20
124.0093692838466
 30
0.0
 42
-0.0758177480846394
 70
     2
 50
301.68447884177749
  0
VERTEX
  5
E0
  8
0
 10
118.50368008252561
 20
123.8227489270203
 30
0.0
 42
-0.0626584555913342
 50
90.0
  0
VERTEX
  5
E1
  8
0
 10
118.5342494401783
 20
123.5797702295815
 30
0.0
 42
-0.0626584555913199
 50
90.0
  0
SEQEND
  5
E2
  8
0
  0
POLYLINE
  5
E3
  8
0
 66
     1
 10
0.0
 20
0.0
 30
0.0
  0
VERTEX
  5
E4
  8
0
 10
118.1592494401785
 20
122.1656707861091
 30
0.0
 42
-0.1837701506072527
 50
90.0
  0
VERTEX
  5
E5
  8
0
 10
118.2842666033697
 20
122.118115943433
 30
0.0
 42
-0.1023570990015804
 50
90.0
  0
VERTEX
  5
E6
  8
0
 10
118.4244144831267
 20
121.92981322423729
 30
0.0
 42
-0.06139380527182
 70
     2
 50
294.9706150338103
  0
VERTEX
  5
E7
  8
0
 10
118.5030338666204
 20
121.6870437339347
 30
0.0
 42
-0.0476740870733025
 50
90.0
  0
VERTEX
  5
E8
  8
0
 10
118.5342494401832
 20
121.3604026995781
 30
0.0
 42
-0.0476740870732675
 50
90.0
  0
SEQEND
  5
E9
  8
0
  0
POLYLINE
  5
EA
  8
0
 66
     1
 10
0.0
 20
0.0
 30
0.0
  0
VERTEX
  5
EB
  8
0
 10
118.5342494401783
 20
121.3604026995781
 30
0.0
 42
-0.1453834159301123
 50
90.0
  0
VERTEX
  5
EC
  8
0
 10
118.5090323108808
 20
121.2755094833168
 30
0.0
 42
-0.1071699662217274
 50
90.0
  0
VERTEX
  5
ED
  8
0
 10
118.4244144831233
 20
121.1918365293666
 30
0.0
 42
-0.077350332773411
 70
     2
 50
212.444236112091
  0
VERTEX
  5
EE
  8
0
 10
118.2959499275953
 20
121.13571667111221
 30
0.0
 42
-0.0789475685392101
 50
90.0
  0
VERTEX
  5
EF
  8
0
 10
118.1592494401784
 20
121.1220141355093
 30
0.0
 42
-0.0644571111103437
 50
90.0
  0
SEQEND
  5
F0
  8
0
  0
POLYLINE
  5
F1
  8
0
 66
     1
 10
0.0
 20
0.0
 30
0.0
  0
VERTEX
  5
F2
  8
0
 10
118.1592494401785
 20
109.607299535945
 30
0.0
 42
-0.1963710675046226
 50
90.0
  0
VERTEX
  5
F3
  8
0
 10
118.2814705622982
 20
109.5573729007571
 30
0.0
 42
-0.0992025570696904
 50
90.0
  0
VERTEX
  5
F4
  8
0
 10
118.4244144831233
 20
109.3472726345056
 30
0.0
 42
-0.0566743414169369
 70
     2
 50
292.89911996387622
  0
VERTEX
  5
F5
  8
0
 10
118.5028737538525
 20
109.08089103713159
 30
0.0
 42
-0.0433295665536664
 50
90.0
  0
VERTEX
  5
F6
  8
0
 10
118.5342494401783
 20
108.7195121624689
 30
0.0
 42
-0.0433295665536456
 50
90.0
  0
SEQEND
  5
F7
  8
0
  0
POLYLINE
  5
F8
  8
0
 66
     1
 10
0.0
 20
0.0
 30
0.0
  0
VERTEX
  5
F9
  8
0
 10
118.5342494401783
 20
108.7195121624689
 30
0.0
 42
-0.0433295665536456
 50
90.0
  0
VERTEX
  5
FA
  8
0
 10
118.5028737538525
 20
108.3581332878062
 30
0.0
 42
-0.0566743414169658
 50
90.0
  0
VERTEX
  5
FB
  8
0
 10
118.4244144831233
 20
108.0917516904321
 30
0.0
 42
-0.0992025570697266
 70
     2
 50
247.10088003611941
  0
VERTEX
  5
FC
  8
0
 10
118.2740015891753
 20
107.8706734600066
 30
0.0
 42
-0.2280338981645266
 50
90.0
  0
VERTEX
  5
FD
  8
0
 10
118.1592494401785
 20
107.8317247890102
 30
0.0
 42
-0.1963710675046459
 50
90.0
  0
SEQEND
  5
FE
  8
0
  0
POLYLINE
  5
FF
  8
0
 66
     1
 10
0.0
 20
0.0
 30
0.0
  0
VERTEX
  5
100
  8
0
 10
118.1592494401785
 20
114.5005030212335
 30
0.0
 42
-0.2055316714992537
 50
90.0
  0
VERTEX
  5
101
  8
0
 10
118.2794464256893
 20
114.44891520876401
 30
0.0
 42
-0.0965313913509376
 50
90.0
  0
VERTEX
  5
102
  8
0
 10
118.4244144831235
 20
114.221492846781
 30
0.0
 42
-0.0533986296957384
 70
     2
 50
291.4875419756076
  0
VERTEX
  5
103
  8
0
 10
118.5027742815135
 20
113.93651047188889
 30
0.0
 42
-0.0404311354471943
 50
90.0
  0
VERTEX
  5
104
  8
0
 10
118.5342494401787
 20
113.5479026995777
 30
0.0
 42
-0.0404311354471791
 50
90.0
  0
SEQEND
  5
105
  8
0
  0
POLYLINE
  5
106
  8
0
 66
     1
 10
0.0
 20
0.0
 30
0.0
  0
VERTEX
  5
107
  8
0
 10
118.5342494401783
 20
113.5479026995777
 30
0.0
 42
-0.0520405140106174
 50
90.0
  0
VERTEX
  5
108
  8
0
 10
118.5032075952235
 20
113.2504635067653
 30
0.0
 42
-0.0658985238271168
 50
90.0
  0
VERTEX
  5
109
  8
0
 10
118.4244144831233
 20
113.0274214715748
 30
0.0
 42
-0.1046205348859841
 70
     2
 50
243.00291803298089
  0
VERTEX
  5
10A
  8
0
 10
118.2788773339006
 20
112.84732725185231
 30
0.0
 42
-0.1996909920929194
 50
90.0
  0
VERTEX
  5
10B
  8
0
 10
118.1592494401785
 20
112.81183108797541
 30
0.0
 42
-0.172337143622725
 50
90.0
  0
SEQEND
  5
10C
  8
0
  0
POLYLINE
  5
10D
  8
0
 66
     1
 10
0.0
 20
0.0
 30
0.0
  0
VERTEX
  5
10E
  8
0
 10
118.5342494401783
 20
117.90365672953931
 30
0.0
 42
-0.0737304435607645
 50
90.0
  0
VERTEX
  5
10F
  8
0
 10
118.5042411127416
 20
117.70126274289851
 30
0.0
 42
-0.0845717212532976
 50
90.0
  0
VERTEX
  5
110
  8
0
 10
118.4244144831234
 20
117.5414030745732
 30
0.0
 42
-0.1063921108588694
 70
     2
 50
233.79634935297011
  0
VERTEX
  5
111
  8
0
 10
118.2871373845519
 20
117.4193066445883
 30
0.0
 42
-0.1510088585334486
 50
90.0
  0
VERTEX
  5
112
  8
0
 10
118.1592494401785
 20
117.39135269766381
 30
0.0
 42
-0.1294534172461018
 50
90.0
  0
SEQEND
  5
113
  8
0
  0
POLYLINE
  5
114
  8
0
 66
     1
 10
0.0
 20
0.0
 30
0.0
  0
VERTEX
  5
115
  8
0
 10
118.1592494401785
 20
118.82782284273441
 30
0.0
 42
-0.2015894264067176
 50
90.0
  0
VERTEX
  5
116
  8
0
 10
118.28031646044489
 20
118.7769435318512
 30
0.0
 42
-0.0977170379735125
 50
90.0
  0
VERTEX
  5
117
  8
0
 10
118.4244144831233
 20
118.5571408551224
 30
0.0
 42
-0.0547927573384048
 70
     2
 50
292.08589776082619
  0
VERTEX
  5
118
  8
0
 10
118.5028155169957
 20
118.28032427509579
 30
0.0
 42
-0.0416539519670256
 50
90.0
  0
VERTEX
  5
119
  8
0
 10
118.5342494401783
 20
117.90365672953931
 30
0.0
 42
-0.0416539519669881
 50
90.0
  0
SEQEND
  5
11A
  8
0
  0
POLYLINE
  5
11B
  8
0
 66
     1
 10
0.0
 20
0.0
 30
0.0
  0
VERTEX
  5
11C
  8
0
 10
118.1592494401785
 20
124.6948629748766
 30
0.0
 42
0.0068051090718327
 50
90.0
  0
VERTEX
  5
11D
  8
0
 10
118.3145101483903
 20
124.6969762048472
 30
0.0
 42
0.0096044777403865
 50
90.0
  0
VERTEX
  5
11E
  8
0
 10
118.4244144831233
 20
124.70208255477159
 30
0.0
 42
0.0229390352869734
 70
     2
 50
3.7607085175068882
  0
VERTEX
  5
11F
  8
0
 10
118.5310294059977
 20
124.714020358989
 30
0.0
 50
3.7607085175068882
  0
VERTEX
  5
120
  8
0
 10
118.5342494401784
 20
124.7195121624689
 30
0.0
 50
90.0
  0
SEQEND
  5
121
  8
0
  0
POLYLINE
  5
122
  8
0
 66
     1
 10
0.0
 20
0.0
 30
0.0
  0
VERTEX
  5
123
  8
0
 10
118.1592494401785
 20
92.744161350061148
 30
0.0
 42
-0.0068051090718327
 50
90.0
  0
VERTEX
  5
124
  8
0
 10
118.3145101483903
 20
92.742048120090601
 30
0.0
 42
-0.0096044777403865
 50
90.0
  0
VERTEX
  5
125
  8
0
 10
118.4244144831233
 20
92.736941770166112
 30
0.0
 42
-0.0229390352869734
 70
     2
 50
356.23929148249317
  0
VERTEX
  5
126
  8
0
 10
118.5310294059977
 20
92.72500396594873
 30
0.0
 50
90.0
  0
VERTEX
  5
127
  8
0
 10
118.5342494401784
 20
92.719512162468874
 30
0.0
 50
90.0
  0
SEQEND
  5
128
  8
0
  0
POLYLINE
  5
129
  8
0
 66
     1
 10
0.0
 20
0.0
 30
0.0
  0
VERTEX
  5
12A
  8
0
 10
118.1592494401785
 20
98.611201482203313
 30
0.0
 42
0.2015894264067176
 50
90.0
  0
VERTEX
  5
12B
  8
0
 10
118.28031646044489
 20
98.662080793086517
 30
0.0
 42
0.0977170379735125
 50
90.0
  0
VERTEX
  5
12C
  8
0
 10
118.4244144831233
 20
98.881883469815364
 30
0.0
 42
0.0547927573384048
 70
     2
 50
67.914102239173715
  0
VERTEX
  5
12D
  8
0
 10
118.5028155169957
 20
99.158700049841997
 30
0.0
 42
0.0416539519670256
 50
90.0
  0
VERTEX
  5
12E
  8
0
 10
118.5342494401783
 20
99.535367595398469
 30
0.0
 42
0.0416539519669881
 50
90.0
  0
SEQEND
  5
12F
  8
0
  0
POLYLINE
  5
130
  8
0
 66
     1
 10
0.0
 20
0.0
 30
0.0
  0
VERTEX
  5
131
  8
0
 10
118.5342494401783
 20
99.535367595398441
 30
0.0
 42
0.0737304435607645
 50
90.0
  0
VERTEX
  5
132
  8
0
 10
118.5042411127416
 20
99.737761582039212
 30
0.0
 42
0.0845717212532976
 50
90.0
  0
VERTEX
  5
133
  8
0
 10
118.4244144831234
 20
99.897621250364566
 30
0.0
 42
0.1063921108588694
 70
     2
 50
126.2036506470299
  0
VERTEX
  5
134
  8
0
 10
118.2871373845519
 20
100.0197176803494
 30
0.0
 42
0.1510088585334486
 50
90.0
  0
VERTEX
  5
135
  8
0
 10
118.1592494401785
 20
100.0476716272739
 30
0.0
 42
0.1294534172461018
 50
90.0
  0
SEQEND
  5
136
  8
0
  0
POLYLINE
  5
137
  8
0
 66
     1
 10
0.0
 20
0.0
 30
0.0
  0
VERTEX
  5
138
  8
0
 10
118.5342494401783
 20
103.89112162536
 30
0.0
 42
0.0520405140106174
 50
90.0
  0
VERTEX
  5
139
  8
0
 10
118.5032075952235
 20
104.18856081817241
 30
0.0
 42
0.0658985238271168
 50
90.0
  0
VERTEX
  5
13A
  8
0
 10
118.4244144831233
 20
104.41160285336289
 30
0.0
 42
0.1046205348859841
 70
     2
 50
116.9970819670191
  0
VERTEX
  5
13B
  8
0
 10
118.2788773339006
 20
104.5916970730854
 30
0.0
 42
0.1996909920929194
 50
90.0
  0
VERTEX
  5
13C
  8
0
 10
118.1592494401785
 20
104.6271932369623
 30
0.0
 42
0.172337143622725
 50
90.0
  0
SEQEND
  5
13D
  8
0
  0
POLYLINE
  5
13E
  8
0
 66
     1
 10
0.0
 20
0.0
 30
0.0
  0
VERTEX
  5
13F
  8
0
 10
118.1592494401785
 20
102.93852130370421
 30
0.0
 42
0.2055316714992537
 50
90.0
  0
VERTEX
  5
140
  8
0
 10
118.2794464256893
 20
102.9901091161738
 30
0.0
 42
0.0965313913509376
 50
90.0
  0
VERTEX
  5
141
  8
0
 10
118.4244144831235
 20
103.2175314781567
 30
0.0
 42
0.0533986296957384
 70
     2
 50
68.512458024392416
  0
VERTEX
  5
142
  8
0
 10
118.5027742815135
 20
103.5025138530489
 30
0.0
 42
0.0404311354471943
 50
90.0
  0
VERTEX
  5
143
  8
0
 10
118.5342494401787
 20
103.89112162536
 30
0.0
 42
0.0404311354471791
 50
90.0
  0
SEQEND
  5
144
  8
0
  0
POLYLINE
  5
145
  8
0
 66
     1
 10
0.0
 20
0.0
 30
0.0
  0
VERTEX
  5
146
  8
0
 10
118.5342494401783
 20
96.078621625359602
 30
0.0
 42
0.1453834159301123
 50
90.0
  0
VERTEX
  5
147
  8
0
 10
118.5090323108808
 20
96.163514841620923
 30
0.0
 42
0.1071699662217274
 50
90.0
  0
VERTEX
  5
148
  8
0
 10
118.4244144831233
 20
96.247187795571193
 30
0.0
 42
0.077350332773411
 70
     2
 50
147.555763887909
  0
VERTEX
  5
149
  8
0
 10
118.2959499275953
 20
96.303307653825499
 30
0.0
 42
0.0789475685392101
 50
90.0
  0
VERTEX
  5
14A
  8
0
 10
118.1592494401784
 20
96.317010189428487
 30
0.0
 42
0.0644571111103437
 50
90.0
  0
SEQEND
  5
14B
  8
0
  0
POLYLINE
  5
14C
  8
0
 66
     1
 10
0.0
 20
0.0
 30
0.0
  0
VERTEX
  5
14D
  8
0
 10
118.1592494401785
 20
95.273353538828658
 30
0.0
 42
0.1837701506072527
 50
90.0
  0
VERTEX
  5
14E
  8
0
 10
118.2842666033697
 20
95.320908381504751
 30
0.0
 42
0.1023570990015804
 50
90.0
  0
VERTEX
  5
14F
  8
0
 10
118.4244144831267
 20
95.509211100700469
 30
0.0
 42
0.06139380527182
 70
     2
 50
65.029384966189681
  0
VERTEX
  5
150
  8
0
 10
118.5030338666204
 20
95.751980591003104
 30
0.0
 42
0.0476740870733025
 50
90.0
  0
VERTEX
  5
151
  8
0
 10
118.5342494401832
 20
96.078621625359602
 30
0.0
 42
0.0476740870732675
 50
90.0
  0
SEQEND
  5
152
  8
0
  0
POLYLINE
  5
153
  8
0
 66
     1
 10
0.0
 20
0.0
 30
0.0
  0
VERTEX
  5
154
  8
0
 10
118.1592494401785
 20
93.251709286431833
 30
0.0
 42
0.1488470320745859
 50
90.0
  0
VERTEX
  5
155
  8
0
 10
118.2920271279648
 20
93.292131998875305
 30
0.0
 42
0.1070939314374275
 50
90.0
  0
VERTEX
  5
156
  8
0
 10
118.4244144831233
 20
93.42965504109111
 30
0.0
 42
0.0758177480846394
 70
     2
 50
58.315521158222467
  0
VERTEX
  5
157
  8
0
 10
118.50368008252561
 20
93.616275397917448
 30
0.0
 42
0.0626584555913342
 50
90.0
  0
VERTEX
  5
158
  8
0
 10
118.5342494401783
 20
93.859254095356249
 30
0.0
 42
0.0626584555913199
 50
90.0
  0
SEQEND
  5
159
  8
0
  0
POLYLINE
  5
15A
  8
0
 66
     1
 10
0.0
 20
0.0
 30
0.0
  0
VERTEX
  5
15B
  8
0
 10
118.5342494401783
 20
93.859254095356249
 30
0.0
 42
0.0162328826952284
 50
90.0
  0
VERTEX
  5
15C
  8
0
 10
118.3793118367827
 20
93.854222601643045
 30
0.0
 42
0.0226962008047463
 50
90.0
  0
VERTEX
  5
15D
  8
0
 10
118.2690843972335
 20
93.842013803775814
 30
0.0
 42
0.0516790455059756
 70
     2
 50
188.92066914969891
  0
VERTEX
  5
15E
  8
0
 10
118.1668283833861
 20
93.814925202703336
 30
0.0
 50
90.0
  0
VERTEX
  5
15F
  8
0
 10
118.1592494401784
 20
93.800392058023078
 30
0.0
 50
90.0
  0
SEQEND
  5
160
  8
0
  0
POLYLINE
  5
161
  8
0
 66
     1
 10
0.0
 20
0.0
 30
0.0
  0
VERTEX
  5
162
  8
0
 10
108.0342494401786
 20
93.094512162468746
 30
0.0
 42
-0.092572595455409
 50
90.0
  0
VERTEX
  5
163
  8
0
 10
108.17892259299811
 20
93.067495096211275
 30
0.0
 42
-0.0958395211622397
 50
90.0
  0
VERTEX
  5
164
  8
0
 10
108.2994144831235
 20
92.991896785308796
 30
0.0
 42
-0.1008530118927434
 70
     2
 50
316.94630119341338
  0
VERTEX
  5
165
  8
0
 10
108.3879118047366
 20
92.867499324625015
 30
0.0
 42
-0.1236287328816281
 50
90.0
  0
VERTEX
  5
166
  8
0
 10
108.40924944017389
 20
92.744161350061148
 30
0.0
 42
-0.1047089114758273
 50
90.0
  0
SEQEND
  5
167
  8
0
  0
LINE
  5
168
  8
0
 10
108.4092494401785
 20
93.800392058023078
 30
0.0
 11
108.4092494401785
 21
95.273353538828658
 31
0.0
  0
POLYLINE
  5
169
  8
0
 66
     1
 10
0.0
 20
0.0
 30
0.0
  0
VERTEX
  5
16A
  8
0
 10
108.0342494401786
 20
93.859254095356249
 30
0.0
 42
-0.0162328826952284
 50
90.0
  0
VERTEX
  5
16B
  8
0
 10
108.18918704357429
 20
93.854222601643045
 30
0.0
 42
-0.0226962008047463
 50
90.0
  0
VERTEX
  5
16C
  8
0
 10
108.2994144831235
 20
93.842013803775814
 30
0.0
 42
-0.0516790455059756
 70
     2
 50
351.07933085030118
  0
VERTEX
  5
16D
  8
0
 10
108.40167049697079
 20
93.814925202703336
 30
0.0
 50
90.0
  0
VERTEX
  5
16E
  8
0
 10
108.4092494401785
 20
93.800392058023078
 30
0.0
 50
90.0
  0
SEQEND
  5
16F
  8
0
  0
POLYLINE
  5
170
  8
0
 66
     1
 10
0.0
 20
0.0
 30
0.0
  0
VERTEX
  5
171
  8
0
 10
108.4092494401785
 20
93.251709286431833
 30
0.0
 42
-0.1488470320745859
 50
90.0
  0
VERTEX
  5
172
  8
0
 10
108.2764717523922
 20
93.292131998875305
 30
0.0
 42
-0.1070939314374275
 50
90.0
  0
VERTEX
  5
173
  8
0
 10
108.1440843972336
 20
93.42965504109111
 30
0.0
 42
-0.0758177480846394
 70
     2
 50
121.6844788417775
  0
VERTEX
  5
174
  8
0
 10
108.06481879783141
 20
93.616275397917448
 30
0.0
 42
-0.0626584555913342
 50
90.0
  0
VERTEX
  5
175
  8
0
 10
108.0342494401786
 20
93.859254095356249
 30
0.0
 42
-0.0626584555913199
 50
90.0
  0
SEQEND
  5
176
  8
0
  0
LINE
  5
177
  8
0
 10
108.4092494401785
 20
96.317010189430135
 30
0.0
 11
108.4092494401785
 21
98.611201482203313
 31
0.0
  0
POLYLINE
  5
178
  8
0
 66
     1
 10
0.0
 20
0.0
 30
0.0
  0
VERTEX
  5
179
  8
0
 10
108.4092494401785
 20
95.273353538828658
 30
0.0
 42
-0.1837701506072527
 50
90.0
  0
VERTEX
  5
17A
  8
0
 10
108.2842322769872
 20
95.320908381504751
 30
0.0
 42
-0.1023570990015804
 50
90.0
  0
VERTEX
  5
17B
  8
0
 10
108.1440843972302
 20
95.509211100700469
 30
0.0
 42
-0.06139380527182
 70
     2
 50
114.9706150338103
  0
VERTEX
  5
17C
  8
0
 10
108.0654650137366
 20
95.751980591003104
 30
0.0
 42
-0.0476740870733025
 50
90.0
  0
VERTEX
  5
17D
  8
0
 10
108.0342494401738
 20
96.078621625359602
 30
0.0
 42
-0.0476740870732675
 50
90.0
  0
SEQEND
  5
17E
  8
0
  0
POLYLINE
  5
17F
  8
0
 66
     1
 10
0.0
 20
0.0
 30
0.0
  0
VERTEX
  5
180
  8
0
 10
108.0342494401786
 20
96.078621625359602
 30
0.0
 42
-0.1453834159301123
 50
90.0
  0
VERTEX
  5
181
  8
0
 10
108.0594665694762
 20
96.163514841620923
 30
0.0
 42
-0.1071699662217274
 50
90.0
  0
VERTEX
  5
182
  8
0
 10
108.1440843972336
 20
96.247187795571193
 30
0.0
 42
-0.077350332773411
 70
     2
 50
32.444236112090998
  0
VERTEX
  5
183
  8
0
 10
108.2725489527616
 20
96.303307653825499
 30
0.0
 42
-0.0789475685392101
 50
90.0
  0
VERTEX
  5
184
  8
0
 10
108.4092494401785
 20
96.317010189428487
 30
0.0
 42
-0.0644571111103437
 50
90.0
  0
SEQEND
  5
185
  8
0
  0
LINE
  5
186
  8
0
 10
108.4092494401785
 20
104.6271932369623
 30
0.0
 11
108.4092494401785
 21
107.8317247889927
 31
0.0
  0
LINE
  5
187
  8
0
 10
108.4092494401785
 20
100.0476716272707
 30
0.0
 11
108.4092494401785
 21
102.93852130370421
 31
0.0
  0
POLYLINE
  5
188
  8
0
 66
     1
 10
0.0
 20
0.0
 30
0.0
  0
VERTEX
  5
189
  8
0
 10
108.4092494401785
 20
102.93852130370421
 30
0.0
 42
-0.2055316714992537
 50
90.0
  0
VERTEX
  5
18A
  8
0
 10
108.2890524546677
 20
102.9901091161738
 30
0.0
 42
-0.0965313913509376
 50
90.0
  0
VERTEX
  5
18B
  8
0
 10
108.1440843972334
 20
103.2175314781567
 30
0.0
 42
-0.0533986296957384
 70
     2
 50
111.4875419756076
  0
VERTEX
  5
18C
  8
0
 10
108.0657245988435
 20
103.5025138530489
 30
0.0
 42
-0.0404311354471943
 50
90.0
  0
VERTEX
  5
18D
  8
0
 10
108.0342494401783
 20
103.89112162536
 30
0.0
 42
-0.0404311354471791
 50
90.0
  0
SEQEND
  5
18E
  8
0
  0
POLYLINE
  5
18F
  8
0
 66
     1
 10
0.0
 20
0.0
 30
0.0
  0
VERTEX
  5
190
  8
0
 10
108.0342494401786
 20
103.89112162536
 30
0.0
 42
-0.0520405140106174
 50
90.0
  0
VERTEX
  5
191
  8
0
 10
108.0652912851335
 20
104.18856081817241
 30
0.0
 42
-0.0658985238271168
 50
90.0
  0
VERTEX
  5
192
  8
0
 10
108.1440843972336
 20
104.41160285336289
 30
0.0
 42
-0.1046205348859841
 70
     2
 50
63.002918032980951
  0
VERTEX
  5
193
  8
0
 10
108.2896215464564
 20
104.5916970730854
 30
0.0
 42
-0.1996909920929194
 50
90.0
  0
VERTEX
  5
194
  8
0
 10
108.4092494401785
 20
104.6271932369623
 30
0.0
 42
-0.172337143622725
 50
90.0
  0
SEQEND
  5
195
  8
0
  0
POLYLINE
  5
196
  8
0
 66
     1
 10
0.0
 20
0.0
 30
0.0
  0
VERTEX
  5
197
  8
0
 10
108.0342494401786
 20
99.535367595398441
 30
0.0
 42
-0.0737304435607645
 50
90.0
  0
VERTEX
  5
198
  8
0
 10
108.0642577676153
 20
99.737761582039212
 30
0.0
 42
-0.0845717212532976
 50
90.0
  0
VERTEX
  5
199
  8
0
 10
108.1440843972336
 20
99.897621250364566
 30
0.0
 42
-0.1063921108588694
 70
     2
 50
53.796349352970111
  0
VERTEX
  5
19A
  8
0
 10
108.2813614958051
 20
100.0197176803494
 30
0.0
 42
-0.1510088585334486
 50
90.0
  0
VERTEX
  5
19B
  8
0
 10
108.4092494401785
 20
100.0476716272739
 30
0.0
 42
-0.1294534172461018
 50
90.0
  0
SEQEND
  5
19C
  8
0
  0
POLYLINE
  5
19D
  8
0
 66
     1
 10
0.0
 20
0.0
 30
0.0
  0
VERTEX
  5
19E
  8
0
 10
108.4092494401785
 20
98.611201482203313
 30
0.0
 42
-0.2015894264067176
 50
90.0
  0
VERTEX
  5
19F
  8
0
 10
108.288182419912
 20
98.662080793086517
 30
0.0
 42
-0.0977170379735125
 50
90.0
  0
VERTEX
  5
1A0
  8
0
 10
108.1440843972336
 20
98.881883469815364
 30
0.0
 42
-0.0547927573384048
 70
     2
 50
112.0858977608263
  0
VERTEX
  5
1A1
  8
0
 10
108.0656833633612
 20
99.158700049841997
 30
0.0
 42
-0.0416539519670256
 50
90.0
  0
VERTEX
  5
1A2
  8
0
 10
108.0342494401786
 20
99.535367595398469
 30
0.0
 42
-0.0416539519669881
 50
90.0
  0
SEQEND
  5
1A3
  8
0
  0
LINE
  5
1A4
  8
0
 10
108.4092494401785
 20
92.744161350061148
 30
0.0
 11
118.1592494401784
 21
92.744161350061148
 31
0.0
  0
LINE
  5
1A5
  8
0
 10
108.4092494401785
 20
92.744161350061148
 30
0.0
 11
108.4092494401785
 21
93.251709286431833
 31
0.0
  0
LINE
  5
1A6
  8
0
 10
108.4092494401785
 20
93.251709286431804
 30
0.0
 11
118.1592494401785
 21
93.251709286431804
 31
0.0
  0
LINE
  5
1A7
  8
0
 10
108.4092494401785
 20
93.800392058023036
 30
0.0
 11
118.1592494401784
 21
93.800392058023036
 31
0.0
  0
LINE
  5
1A8
  8
0
 10
108.4092494401785
 20
95.273353538828658
 30
0.0
 11
118.1592503938528
 21
95.273353538828658
 31
0.0
  0
LINE
  5
1A9
  8
0
 10
108.4092494401785
 20
96.317010189430135
 30
0.0
 11
118.2097083129953
 21
96.317010189430135
 31
0.0
  0
LINE
  5
1AA
  8
0
 10
108.4092494401785
 20
98.611201482203313
 30
0.0
 11
118.1592515726591
 21
98.611201482203313
 31
0.0
  0
LINE
  5
1AB
  8
0
 10
108.4092494401785
 20
100.0476716272707
 30
0.0
 11
118.19669072331121
 21
100.0476716272707
 31
0.0
  0
LINE
  5
1AC
  8
0
 10
108.4092494401785
 20
102.93852130370421
 30
0.0
 11
118.1592503938527
 21
102.93852130370421
 31
0.0
  0
LINE
  5
1AD
  8
0
 10
108.4092494401785
 20
104.6271932369623
 30
0.0
 11
118.1935437366345
 21
104.6271932369623
 31
0.0
  0
LINE
  5
1AE
  8
0
 10
108.4092494401785
 20
107.8317247889928
 30
0.0
 11
118.1592494401785
 21
107.8317247889928
 31
0.0
  0
LINE
  5
1AF
  8
0
 10
118.5342494401784
 20
92.719512162468874
 30
0.0
 11
119.4092494401785
 21
92.719512162468874
 31
0.0
  0
LINE
  5
1B0
  8
0
 10
108.0342494401887
 20
93.094512162458699
 30
0.0
 11
107.4092494401785
 21
93.719512162468874
 31
0.0
  0
LINE
  5
1BA
  8
0
 10
108.0342494401887
 20
148.0945121624587
 30
0.0
 11
107.4092494401785
 21
148.71951216246879
 31
0.0
  0
LINE
  5
1BB
  8
0
 10
118.5342494401784
 20
147.7195121624689
 30
0.0
 11
119.4092494401785
 21
147.7195121624689
 31
0.0
  0
LINE
  5
1BC
  8
0
 10
108.4092494401785
 20
162.8317247889928
 30
0.0
 11
118.1592494401785
 21
162.8317247889928
 31
0.0
  0
LINE
  5
1BD
  8
0
 10
108.4092494401785
 20
159.62719323696231
 30
0.0
 11
118.1935437366346
 21
159.62719323696231
 31
0.0
  0
LINE
  5
1BE
  8
0
 10
108.4092494401785
 20
157.93852130370419
 30
0.0
 11
118.1592503938528
 21
157.93852130370419
 31
0.0
  0
LINE
  5
1BF
  8
0
 10
108.4092494401785
 20
155.04767162727069
 30
0.0
 11
118.19669072331131
 21
155.04767162727069
 31
0.0
  0
LINE
  5
1C0
  8
0
 10
108.4092494401785
 20
153.61120148220331
 30
0.0
 11
118.1592515726591
 21
153.61120148220331
 31
0.0
  0
LINE
  5
1C1
  8
0
 10
108.4092494401785
 20
151.31701018943011
 30
0.0
 11
118.2097083129953
 21
151.31701018943011
 31
0.0
  0
LINE
  5
1C2
  8
0
 10
108.4092494401785
 20
150.27335353882859
 30
0.0
 11
118.1592503938528
 21
150.27335353882859
 31
0.0
  0
LINE
  5
1C3
  8
0
 10
108.4092494401785
 20
148.80039205802299
 30
0.0
 11
118.1592494401784
 21
148.80039205802299
 31
0.0
  0
LINE
  5
1C4
  8
0
 10
108.4092494401785
 20
148.2517092864318
 30
0.0
 11
118.1592494401785
 21
148.2517092864318
 31
0.0
  0
LINE
  5
1C5
  8
0
 10
108.4092494401785
 20
147.74416135006109
 30
0.0
 11
108.4092494401785
 21
148.2517092864318
 31
0.0
  0
LINE
  5
1C6
  8
0
 10
108.4092494401785
 20
147.74416135006109
 30
0.0
 11
118.1592494401785
 21
147.74416135006109
 31
0.0
  0
POLYLINE
  5
1C7
  8
0
 66
     1
 10
0.0
 20
0.0
 30
0.0
  0
VERTEX
  5
1C8
  8
0
 10
108.4092494401785
 20
153.61120148220331
 30
0.0
 42
-0.2015894264067176
 50
90.0
  0
VERTEX
  5
1C9
  8
0
 10
108.288182419912
 20
153.66208079308649
 30
0.0
 42
-0.0977170379735125
 50
90.0
  0
VERTEX
  5
1CA
  8
0
 10
108.1440843972336
 20
153.88188346981531
 30
0.0
 42
-0.0547927573384048
 70
     2
 50
112.0858977608263
  0
VERTEX
  5
1CB
  8
0
 10
108.0656833633612
 20
154.158700049842
 30
0.0
 42
-0.0416539519670256
 50
90.0
  0
VERTEX
  5
1CC
  8
0
 10
108.0342494401786
 20
154.53536759539841
 30
0.0
 42
-0.0416539519669881
 50
90.0
  0
SEQEND
  5
1CD
  8
0
  0
POLYLINE
  5
1CE
  8
0
 66
     1
 10
0.0
 20
0.0
 30
0.0
  0
VERTEX
  5
1CF
  8
0
 10
108.0342494401786
 20
154.53536759539841
 30
0.0
 42
-0.0737304435607645
 50
90.0
  0
VERTEX
  5
1D0
  8
0
 10
108.0642577676154
 20
154.73776158203921
 30
0.0
 42
-0.0845717212532976
 50
90.0
  0
VERTEX
  5
1D1
  8
0
 10
108.1440843972336
 20
154.89762125036449
 30
0.0
 42
-0.1063921108588694
 70
     2
 50
53.796349352970111
  0
VERTEX
  5
1D2
  8
0
 10
108.2813614958051
 20
155.0197176803494
 30
0.0
 42
-0.1510088585334486
 50
90.0
  0
VERTEX
  5
1D3
  8
0
 10
108.4092494401785
 20
155.0476716272739
 30
0.0
 42
-0.1294534172461018
 50
90.0
  0
SEQEND
  5
1D4
  8
0
  0
POLYLINE
  5
1D5
  8
0
 66
     1
 10
0.0
 20
0.0
 30
0.0
  0
VERTEX
  5
1D6
  8
0
 10
108.0342494401786
 20
158.89112162536011
 30
0.0
 42
-0.0520405140106174
 50
90.0
  0
VERTEX
  5
1D7
  8
0
 10
108.0652912851335
 20
159.18856081817239
 30
0.0
 42
-0.0658985238271168
 50
90.0
  0
VERTEX
  5
1D8
  8
0
 10
108.1440843972336
 20
159.41160285336289
 30
0.0
 42
-0.1046205348859841
 70
     2
 50
63.002918032980951
  0
VERTEX
  5
1D9
  8
0
 10
108.2896215464564
 20
159.59169707308541
 30
0.0
 42
-0.1996909920929194
 50
90.0
  0
VERTEX
  5
1DA
  8
0
 10
108.4092494401785
 20
159.62719323696231
 30
0.0
 42
-0.172337143622725
 50
90.0
  0
SEQEND
  5
1DB
  8
0
  0
POLYLINE
  5
1DC
  8
0
 66
     1
 10
0.0
 20
0.0
 30
0.0
  0
VERTEX
  5
1DD
  8
0
 10
108.4092494401785
 20
157.93852130370419
 30
0.0
 42
-0.2055316714992537
 50
90.0
  0
VERTEX
  5
1DE
  8
0
 10
108.2890524546677
 20
157.99010911617381
 30
0.0
 42
-0.0965313913509376
 50
90.0
  0
VERTEX
  5
1DF
  8
0
 10
108.1440843972334
 20
158.2175314781567
 30
0.0
 42
-0.0533986296957384
 70
     2
 50
111.4875419756076
  0
VERTEX
  5
1E0
  8
0
 10
108.0657245988435
 20
158.5025138530489
 30
0.0
 42
-0.0404311354471943
 50
90.0
  0
VERTEX
  5
1E1
  8
0
 10
108.0342494401783
 20
158.89112162536011
 30
0.0
 42
-0.0404311354471791
 50
90.0
  0
SEQEND
  5
1E2
  8
0
  0
LINE
  5
1E3
  8
0
 10
108.4092494401785
 20
155.04767162727069
 30
0.0
 11
108.4092494401785
 21
157.93852130370419
 31
0.0
  0
LINE
  5
1E4
  8
0
 10
108.4092494401785
 20
159.62719323696231
 30
0.0
 11
108.4092494401785
 21
162.83172478899269
 31
0.0
  0
POLYLINE
  5
1E5
  8
0
 66
     1
 10
0.0
 20
0.0
 30
0.0
  0
VERTEX
  5
1E6
  8
0
 10
108.0342494401786
 20
151.0786216253596
 30
0.0
 42
-0.1453834159301123
 50
90.0
  0
VERTEX
  5
1E7
  8
0
 10
108.0594665694762
 20
151.16351484162089
 30
0.0
 42
-0.1071699662217274
 50
90.0
  0
VERTEX
  5
1E8
  8
0
 10
108.1440843972336
 20
151.24718779557119
 30
0.0
 42
-0.077350332773411
 70
     2
 50
32.444236112090998
  0
VERTEX
  5
1E9
  8
0
 10
108.2725489527616
 20
151.3033076538255
 30
0.0
 42
-0.0789475685392101
 50
90.0
  0
VERTEX
  5
1EA
  8
0
 10
108.4092494401785
 20
151.31701018942849
 30
0.0
 42
-0.0644571111103437
 50
90.0
  0
SEQEND
  5
1EB
  8
0
  0
POLYLINE
  5
1EC
  8
0
 66
     1
 10
0.0
 20
0.0
 30
0.0
  0
VERTEX
  5
1ED
  8
0
 10
108.4092494401785
 20
150.27335353882859
 30
0.0
 42
-0.1837701506072527
 50
90.0
  0
VERTEX
  5
1EE
  8
0
 10
108.2842322769872
 20
150.32090838150469
 30
0.0
 42
-0.1023570990015804
 50
90.0
  0
VERTEX
  5
1EF
  8
0
 10
108.1440843972302
 20
150.50921110070041
 30
0.0
 42
-0.06139380527182
 70
     2
 50
114.9706150338103
  0
VERTEX
  5
1F0
  8
0
 10
108.0654650137366
 20
150.7519805910031
 30
0.0
 42
-0.0476740870733025
 50
90.0
  0
VERTEX
  5
1F1
  8
0
 10
108.0342494401738
 20
151.0786216253596
 30
0.0
 42
-0.0476740870732675
 50
90.0
  0
SEQEND
  5
1F2
  8
0
  0
LINE
  5
1F3
  8
0
 10
108.4092494401785
 20
151.31701018943011
 30
0.0
 11
108.4092494401785
 21
153.61120148220331
 31
0.0
  0
POLYLINE
  5
1F4
  8
0
 66
     1
 10
0.0
 20
0.0
 30
0.0
  0
VERTEX
  5
1F5
  8
0
 10
108.4092494401785
 20
148.2517092864318
 30
0.0
 42
-0.1488470320745859
 50
90.0
  0
VERTEX
  5
1F6
  8
0
 10
108.2764717523922
 20
148.29213199887531
 30
0.0
 42
-0.1070939314374275
 50
90.0
  0
VERTEX
  5
1F7
  8
0
 10
108.1440843972336
 20
148.42965504109111
 30
0.0
 42
-0.0758177480846394
 70
     2
 50
121.6844788417775
  0
VERTEX
  5
1F8
  8
0
 10
108.06481879783141
 20
148.61627539791741
 30
0.0
 42
-0.0626584555913342
 50
90.0
  0
VERTEX
  5
1F9
  8
0
 10
108.0342494401786
 20
148.85925409535619
 30
0.0
 42
-0.0626584555913199
 50
90.0
  0
SEQEND
  5
1FA
  8
0
  0
POLYLINE
  5
1FB
  8
0
 66
     1
 10
0.0
 20
0.0
 30
0.0
  0
VERTEX
  5
1FC
  8
0
 10
108.0342494401786
 20
148.85925409535619
 30
0.0
 42
-0.0162328826952284
 50
90.0
  0
VERTEX
  5
1FD
  8
0
 10
108.18918704357429
 20
148.85422260164299
 30
0.0
 42
-0.0226962008047463
 50
90.0
  0
VERTEX
  5
1FE
  8
0
 10
108.2994144831235
 20
148.84201380377581
 30
0.0
 42
-0.0516790455059756
 70
     2
 50
351.07933085030118
  0
VERTEX
  5
1FF
  8
0
 10
108.40167049697089
 20
148.81492520270331
 30
0.0
 50
90.0
  0
VERTEX
  5
200
  8
0
 10
108.4092494401785
 20
148.80039205802311
 30
0.0
 50
90.0
  0
SEQEND
  5
201
  8
0
  0
LINE
  5
202
  8
0
 10
108.4092494401785
 20
148.80039205802311
 30
0.0
 11
108.4092494401785
 21
150.27335353882859
 31
0.0
  0
POLYLINE
  5
203
  8
0
 66
     1
 10
0.0
 20
0.0
 30
0.0
  0
VERTEX
  5
204
  8
0
 10
108.0342494401786
 20
148.0945121624687
 30
0.0
 42
-0.092572595455409
 50
90.0
  0
VERTEX
  5
205
  8
0
 10
108.17892259299811
 20
148.0674950962113
 30
0.0
 42
-0.0958395211622397
 50
90.0
  0
VERTEX
  5
206
  8
0
 10
108.2994144831235
 20
147.9918967853088
 30
0.0
 42
-0.1008530118927434
 70
     2
 50
316.94630119341338
  0
VERTEX
  5
207
  8
0
 10
108.3879118047366
 20
147.86749932462499
 30
0.0
 42
-0.1236287328816281
 50
90.0
  0
VERTEX
  5
208
  8
0
 10
108.40924944017389
 20
147.74416135006109
 30
0.0
 42
-0.1047089114758273
 50
90.0
  0
SEQEND
  5
209
  8
0
  0
POLYLINE
  5
20A
  8
0
 66
     1
 10
0.0
 20
0.0
 30
0.0
  0
VERTEX
  5
20B
  8
0
 10
118.5342494401784
 20
148.85925409535619
 30
0.0
 42
0.0162328826952284
 50
90.0
  0
VERTEX
  5
20C
  8
0
 10
118.3793118367827
 20
148.85422260164299
 30
0.0
 42
0.0226962008047463
 50
90.0
  0
VERTEX
  5
20D
  8
0
 10
118.2690843972335
 20
148.84201380377581
 30
0.0
 42
0.0516790455059756
 70
     2
 50
188.92066914969891
  0
VERTEX
  5
20E
  8
0
 10
118.1668283833861
 20
148.81492520270331
 30
0.0
 50
90.0
  0
VERTEX
  5
20F
  8
0
 10
118.1592494401785
 20
148.80039205802311
 30
0.0
 50
90.0
  0
SEQEND
  5
210
  8
0
  0
POLYLINE
  5
211
  8
0
 66
     1
 10
0.0
 20
0.0
 30
0.0
  0
VERTEX
  5
212
  8
0
 10
118.1592494401785
 20
148.2517092864318
 30
0.0
 42
0.1488470320745859
 50
90.0
  0
VERTEX
  5
213
  8
0
 10
118.2920271279648
 20
148.29213199887531
 30
0.0
 42
0.1070939314374275
 50
90.0
  0
VERTEX
  5
214
  8
0
 10
118.4244144831233
 20
148.42965504109111
 30
0.0
 42
0.0758177480846394
 70
     2
 50
58.315521158222467
  0
VERTEX
  5
215
  8
0
 10
118.50368008252561
 20
148.61627539791741
 30
0.0
 42
0.0626584555913342
 50
90.0
  0
VERTEX
  5
216
  8
0
 10
118.5342494401784
 20
148.85925409535619
 30
0.0
 42
0.0626584555913199
 50
90.0
  0
SEQEND
  5
217
  8
0
  0
POLYLINE
  5
218
  8
0
 66
     1
 10
0.0
 20
0.0
 30
0.0
  0
VERTEX
  5
219
  8
0
 10
118.1592494401785
 20
150.27335353882859
 30
0.0
 42
0.1837701506072527
 50
90.0
  0
VERTEX
  5
21A
  8
0
 10
118.2842666033697
 20
150.32090838150469
 30
0.0
 42
0.1023570990015804
 50
90.0
  0
VERTEX
  5
21B
  8
0
 10
118.4244144831268
 20
150.50921110070041
 30
0.0
 42
0.06139380527182
 70
     2
 50
65.029384966189681
  0
VERTEX
  5
21C
  8
0
 10
118.5030338666204
 20
150.7519805910031
 30
0.0
 42
0.0476740870733025
 50
90.0
  0
VERTEX
  5
21D
  8
0
 10
118.5342494401832
 20
151.0786216253596
 30
0.0
 42
0.0476740870732675
 50
90.0
  0
SEQEND
  5
21E
  8
0
  0
POLYLINE
  5
21F
  8
0
 66
     1
 10
0.0
 20
0.0
 30
0.0
  0
VERTEX
  5
220
  8
0
 10
118.5342494401784
 20
151.0786216253596
 30
0.0
 42
0.1453834159301123
 50
90.0
  0
VERTEX
  5
221
  8
0
 10
118.5090323108808
 20
151.16351484162089
 30
0.0
 42
0.1071699662217274
 50
90.0
  0
VERTEX
  5
222
  8
0
 10
118.4244144831233
 20
151.24718779557119
 30
0.0
 42
0.077350332773411
 70
     2
 50
147.555763887909
  0
VERTEX
  5
223
  8
0
 10
118.2959499275953
 20
151.3033076538255
 30
0.0
 42
0.0789475685392101
 50
90.0
  0
VERTEX
  5
224
  8
0
 10
118.1592494401785
 20
151.31701018942849
 30
0.0
 42
0.0644571111103437
 50
90.0
  0
SEQEND
  5
225
  8
0
  0
POLYLINE
  5
226
  8
0
 66
     1
 10
0.0
 20
0.0
 30
0.0
  0
VERTEX
  5
227
  8
0
 10
118.1592494401785
 20
157.93852130370419
 30
0.0
 42
0.2055316714992537
 50
90.0
  0
VERTEX
  5
228
  8
0
 10
118.2794464256893
 20
157.99010911617381
 30
0.0
 42
0.0965313913509376
 50
90.0
  0
VERTEX
  5
229
  8
0
 10
118.4244144831236
 20
158.2175314781567
 30
0.0
 42
0.0533986296957384
 70
     2
 50
68.512458024392416
  0
VERTEX
  5
22A
  8
0
 10
118.5027742815135
 20
158.5025138530489
 30
0.0
 42
0.0404311354471943
 50
90.0
  0
VERTEX
  5
22B
  8
0
 10
118.5342494401787
 20
158.89112162536011
 30
0.0
 42
0.0404311354471791
 50
90.0
  0
SEQEND
  5
22C
  8
0
  0
POLYLINE
  5
22D
  8
0
 66
     1
 10
0.0
 20
0.0
 30
0.0
  0
VERTEX
  5
22E
  8
0
 10
118.5342494401784
 20
158.89112162536011
 30
0.0
 42
0.0520405140106174
 50
90.0
  0
VERTEX
  5
22F
  8
0
 10
118.5032075952235
 20
159.18856081817239
 30
0.0
 42
0.0658985238271168
 50
90.0
  0
VERTEX
  5
230
  8
0
 10
118.4244144831233
 20
159.41160285336289
 30
0.0
 42
0.1046205348859841
 70
     2
 50
116.9970819670191
  0
VERTEX
  5
231
  8
0
 10
118.2788773339006
 20
159.59169707308541
 30
0.0
 42
0.1996909920929194
 50
90.0
  0
VERTEX
  5
232
  8
0
 10
118.1592494401785
 20
159.62719323696231
 30
0.0
 42
0.172337143622725
 50
90.0
  0
SEQEND
  5
233
  8
0
  0
POLYLINE
  5
234
  8
0
 66
     1
 10
0.0
 20
0.0
 30
0.0
  0
VERTEX
  5
235
  8
0
 10
118.5342494401784
 20
154.53536759539841
 30
0.0
 42
0.0737304435607645
 50
90.0
  0
VERTEX
  5
236
  8
0
 10
118.5042411127416
 20
154.73776158203921
 30
0.0
 42
0.0845717212532976
 50
90.0
  0
VERTEX
  5
237
  8
0
 10
118.4244144831234
 20
154.89762125036449
 30
0.0
 42
0.1063921108588694
 70
     2
 50
126.2036506470299
  0
VERTEX
  5
238
  8
0
 10
118.2871373845519
 20
155.0197176803494
 30
0.0
 42
0.1510088585334486
 50
90.0
  0
VERTEX
  5
239
  8
0
 10
118.1592494401785
 20
155.0476716272739
 30
0.0
 42
0.1294534172461018
 50
90.0
  0
SEQEND
  5
23A
  8
0
  0
POLYLINE
  5
23B
  8
0
 66
     1
 10
0.0
 20
0.0
 30
0.0
  0
VERTEX
  5
23C
  8
0
 10
118.1592494401785
 20
153.61120148220331
 30
0.0
 42
0.2015894264067176
 50
90.0
  0
VERTEX
  5
23D
  8
0
 10
118.28031646044489
 20
153.66208079308649
 30
0.0
 42
0.0977170379735125
 50
90.0
  0
VERTEX
  5
23E
  8
0
 10
118.4244144831233
 20
153.88188346981531
 30
0.0
 42
0.0547927573384048
 70
     2
 50
67.914102239173715
  0
VERTEX
  5
23F
  8
0
 10
118.5028155169957
 20
154.158700049842
 30
0.0
 42
0.0416539519670256
 50
90.0
  0
VERTEX
  5
240
  8
0
 10
118.5342494401784
 20
154.53536759539841
 30
0.0
 42
0.0416539519669881
 50
90.0
  0
SEQEND
  5
241
  8
0
  0
POLYLINE
  5
242
  8
0
 66
     1
 10
0.0
 20
0.0
 30
0.0
  0
VERTEX
  5
243
  8
0
 10
118.1592494401785
 20
147.74416135006109
 30
0.0
 42
-0.0068051090718327
 50
90.0
  0
VERTEX
  5
244
  8
0
 10
118.3145101483903
 20
147.7420481200906
 30
0.0
 42
-0.0096044777403865
 50
90.0
  0
VERTEX
  5
245
  8
0
 10
118.4244144831233
 20
147.73694177016611
 30
0.0
 42
-0.0229390352869734
 70
     2
 50
356.23929148249317
  0
VERTEX
  5
246
  8
0
 10
118.5310294059977
 20
147.7250039659487
 30
0.0
 50
90.0
  0
VERTEX
  5
247
  8
0
 10
118.5342494401784
 20
147.7195121624689
 30
0.0
 50
90.0
  0
SEQEND
  5
248
  8
0
  0
POLYLINE
  5
249
  8
0
 66
     1
 10
0.0
 20
0.0
 30
0.0
  0
VERTEX
  5
24A
  8
0
 10
118.1592494401785
 20
179.6948629748766
 30
0.0
 42
0.0068051090718327
 50
90.0
  0
VERTEX
  5
24B
  8
0
 10
118.3145101483903
 20
179.69697620484709
 30
0.0
 42
0.0096044777403865
 50
90.0
  0
VERTEX
  5
24C
  8
0
 10
118.4244144831233
 20
179.70208255477161
 30
0.0
 42
0.0229390352869734
 70
     2
 50
3.7607085175068882
  0
VERTEX
  5
24D
  8
0
 10
118.5310294059977
 20
179.71402035898899
 30
0.0
 50
3.7607085175068882
  0
VERTEX
  5
24E
  8
0
 10
118.5342494401784
 20
179.7195121624689
 30
0.0
 50
90.0
  0
SEQEND
  5
24F
  8
0
  0
POLYLINE
  5
250
  8
0
 66
     1
 10
0.0
 20
0.0
 30
0.0
  0
VERTEX
  5
251
  8
0
 10
118.1592494401785
 20
173.82782284273441
 30
0.0
 42
-0.2015894264067176
 50
90.0
  0
VERTEX
  5
252
  8
0
 10
118.28031646044489
 20
173.7769435318512
 30
0.0
 42
-0.0977170379735125
 50
90.0
  0
VERTEX
  5
253
  8
0
 10
118.4244144831233
 20
173.55714085512241
 30
0.0
 42
-0.0547927573384048
 70
     2
 50
292.08589776082619
  0
VERTEX
  5
254
  8
0
 10
118.5028155169957
 20
173.28032427509581
 30
0.0
 42
-0.0416539519670256
 50
90.0
  0
VERTEX
  5
255
  8
0
 10
118.5342494401784
 20
172.90365672953931
 30
0.0
 42
-0.0416539519669881
 50
90.0
  0
SEQEND
  5
256
  8
0
  0
POLYLINE
  5
257
  8
0
 66
     1
 10
0.0
 20
0.0
 30
0.0
  0
VERTEX
  5
258
  8
0
 10
118.5342494401784
 20
172.90365672953931
 30
0.0
 42
-0.0737304435607645
 50
90.0
  0
VERTEX
  5
259
  8
0
 10
118.5042411127416
 20
172.70126274289851
 30
0.0
 42
-0.0845717212532976
 50
90.0
  0
VERTEX
  5
25A
  8
0
 10
118.4244144831234
 20
172.5414030745732
 30
0.0
 42
-0.1063921108588694
 70
     2
 50
233.79634935297011
  0
VERTEX
  5
25B
  8
0
 10
118.2871373845519
 20
172.41930664458829
 30
0.0
 42
-0.1510088585334486
 50
90.0
  0
VERTEX
  5
25C
  8
0
 10
118.1592494401785
 20
172.39135269766379
 30
0.0
 42
-0.1294534172461018
 50
90.0
  0
SEQEND
  5
25D
  8
0
  0
POLYLINE
  5
25E
  8
0
 66
     1
 10
0.0
 20
0.0
 30
0.0
  0
VERTEX
  5
25F
  8
0
 10
118.5342494401784
 20
168.54790269957769
 30
0.0
 42
-0.0520405140106174
 50
90.0
  0
VERTEX
  5
260
  8
0
 10
118.5032075952235
 20
168.2504635067653
 30
0.0
 42
-0.0658985238271168
 50
90.0
  0
VERTEX
  5
261
  8
0
 10
118.4244144831233
 20
168.0274214715748
 30
0.0
 42
-0.1046205348859841
 70
     2
 50
243.00291803298089
  0
VERTEX
  5
262
  8
0
 10
118.2788773339006
 20
167.84732725185231
 30
0.0
 42
-0.1996909920929194
 50
90.0
  0
VERTEX
  5
263
  8
0
 10
118.1592494401785
 20
167.81183108797541
 30
0.0
 42
-0.172337143622725
 50
90.0
  0
SEQEND
  5
264
  8
0
  0
POLYLINE
  5
265
  8
0
 66
     1
 10
0.0
 20
0.0
 30
0.0
  0
VERTEX
  5
266
  8
0
 10
118.1592494401785
 20
169.5005030212335
 30
0.0
 42
-0.2055316714992537
 50
90.0
  0
VERTEX
  5
267
  8
0
 10
118.2794464256893
 20
169.44891520876399
 30
0.0
 42
-0.0965313913509376
 50
90.0
  0
VERTEX
  5
268
  8
0
 10
118.4244144831236
 20
169.22149284678099
 30
0.0
 42
-0.0533986296957384
 70
     2
 50
291.4875419756076
  0
VERTEX
  5
269
  8
0
 10
118.5027742815135
 20
168.93651047188891
 30
0.0
 42
-0.0404311354471943
 50
90.0
  0
VERTEX
  5
26A
  8
0
 10
118.5342494401787
 20
168.54790269957769
 30
0.0
 42
-0.0404311354471791
 50
90.0
  0
SEQEND
  5
26B
  8
0
  0
POLYLINE
  5
26C
  8
0
 66
     1
 10
0.0
 20
0.0
 30
0.0
  0
VERTEX
  5
26D
  8
0
 10
118.5342494401784
 20
163.7195121624689
 30
0.0
 42
-0.0433295665536456
 50
90.0
  0
VERTEX
  5
26E
  8
0
 10
118.5028737538525
 20
163.3581332878062
 30
0.0
 42
-0.0566743414169658
 50
90.0
  0
VERTEX
  5
26F
  8
0
 10
118.4244144831233
 20
163.09175169043209
 30
0.0
 42
-0.0992025570697266
 70
     2
 50
247.10088003611941
  0
VERTEX
  5
270
  8
0
 10
118.2740015891753
 20
162.8706734600066
 30
0.0
 42
-0.2280338981645266
 50
90.0
  0
VERTEX
  5
271
  8
0
 10
118.1592494401785
 20
162.8317247890102
 30
0.0
 42
-0.1963710675046459
 50
90.0
  0
SEQEND
  5
272
  8
0
  0
POLYLINE
  5
273
  8
0
 66
     1
 10
0.0
 20
0.0
 30
0.0
  0
VERTEX
  5
274
  8
0
 10
118.1592494401785
 20
164.607299535945
 30
0.0
 42
-0.1963710675046226
 50
90.0
  0
VERTEX
  5
275
  8
0
 10
118.2814705622982
 20
164.55737290075709
 30
0.0
 42
-0.0992025570696904
 50
90.0
  0
VERTEX
  5
276
  8
0
 10
118.4244144831234
 20
164.3472726345056
 30
0.0
 42
-0.0566743414169369
 70
     2
 50
292.89911996387622
  0
VERTEX
  5
277
  8
0
 10
118.5028737538525
 20
164.08089103713161
 30
0.0
 42
-0.0433295665536664
 50
90.0
  0
VERTEX
  5
278
  8
0
 10
118.5342494401784
 20
163.7195121624689
 30
0.0
 42
-0.0433295665536456
 50
90.0
  0
SEQEND
  5
279
  8
0
  0
POLYLINE
  5
27A
  8
0
 66
     1
 10
0.0
 20
0.0
 30
0.0
  0
VERTEX
  5
27B
  8
0
 10
118.5342494401784
 20
176.3604026995782
 30
0.0
 42
-0.1453834159301123
 50
90.0
  0
VERTEX
  5
27C
  8
0
 10
118.5090323108808
 20
176.2755094833168
 30
0.0
 42
-0.1071699662217274
 50
90.0
  0
VERTEX
  5
27D
  8
0
 10
118.4244144831233
 20
176.19183652936661
 30
0.0
 42
-0.077350332773411
 70
     2
 50
212.444236112091
  0
VERTEX
  5
27E
  8
0
 10
118.2959499275953
 20
176.13571667111219
 30
0.0
 42
-0.0789475685392101
 50
90.0
  0
VERTEX
  5
27F
  8
0
 10
118.1592494401785
 20
176.12201413550929
 30
0.0
 42
-0.0644571111103437
 50
90.0
  0
SEQEND
  5
280
  8
0
  0
POLYLINE
  5
281
  8
0
 66
     1
 10
0.0
 20
0.0
 30
0.0
  0
VERTEX
  5
282
  8
0
 10
118.1592494401785
 20
177.1656707861091
 30
0.0
 42
-0.1837701506072527
 50
90.0
  0
VERTEX
  5
283
  8
0
 10
118.2842666033697
 20
177.118115943433
 30
0.0
 42
-0.1023570990015804
 50
90.0
  0
VERTEX
  5
284
  8
0
 10
118.4244144831268
 20
176.92981322423731
 30
0.0
 42
-0.06139380527182
 70
     2
 50
294.9706150338103
  0
VERTEX
  5
285
  8
0
 10
118.5030338666204
 20
176.68704373393459
 30
0.0
 42
-0.0476740870733025
 50
90.0
  0
VERTEX
  5
286
  8
0
 10
118.5342494401832
 20
176.3604026995782
 30
0.0
 42
-0.0476740870732675
 50
90.0
  0
SEQEND
  5
287
  8
0
  0
POLYLINE
  5
288
  8
0
 66
     1
 10
0.0
 20
0.0
 30
0.0
  0
VERTEX
  5
289
  8
0
 10
118.1592494401785
 20
179.18731503850589
 30
0.0
 42
-0.1488470320745859
 50
90.0
  0
VERTEX
  5
28A
  8
0
 10
118.2920271279648
 20
179.14689232606241
 30
0.0
 42
-0.1070939314374275
 50
90.0
  0
VERTEX
  5
28B
  8
0
 10
118.4244144831233
 20
179.00936928384669
 30
0.0
 42
-0.0758177480846394
 70
     2
 50
301.68447884177749
  0
VERTEX
  5
28C
  8
0
 10
118.50368008252561
 20
178.82274892702031
 30
0.0
 42
-0.0626584555913342
 50
90.0
  0
VERTEX
  5
28D
  8
0
 10
118.5342494401784
 20
178.5797702295815
 30
0.0
 42
-0.0626584555913199
 50
90.0
  0
SEQEND
  5
28E
  8
0
  0
POLYLINE
  5
28F
  8
0
 66
     1
 10
0.0
 20
0.0
 30
0.0
  0
VERTEX
  5
290
  8
0
 10
118.5342494401784
 20
178.5797702295815
 30
0.0
 42
-0.0162328826952284
 50
90.0
  0
VERTEX
  5
291
  8
0
 10
118.3793118367827
 20
178.5848017232947
 30
0.0
 42
-0.0226962008047463
 50
90.0
  0
VERTEX
  5
292
  8
0
 10
118.2690843972335
 20
178.59701052116191
 30
0.0
 42
-0.0516790455059756
 70
     2
 50
171.07933085030109
  0
VERTEX
  5
293
  8
0
 10
118.1668283833861
 20
178.62409912223441
 30
0.0
 50
90.0
  0
VERTEX
  5
294
  8
0
 10
118.1592494401785
 20
178.6386322669147
 30
0.0
 50
90.0
  0
SEQEND
  5
295
  8
0
  0
POLYLINE
  5
296
  8
0
 66
     1
 10
0.0
 20
0.0
 30
0.0
  0
VERTEX
  5
297
  8
0
 10
108.0342494401786
 20
179.34451216246899
 30
0.0
 42
0.092572595455409
 50
90.0
  0
VERTEX
  5
298
  8
0
 10
108.17892259299811
 20
179.3715292287265
 30
0.0
 42
0.0958395211622397
 50
90.0
  0
VERTEX
  5
299
  8
0
 10
108.2994144831235
 20
179.44712753962901
 30
0.0
 42
0.1008530118927434
 70
     2
 50
43.053698806586652
  0
VERTEX
  5
29A
  8
0
 10
108.3879118047366
 20
179.5715250003127
 30
0.0
 42
0.1236287328816281
 50
43.053698806586652
  0
VERTEX
  5
29B
  8
0
 10
108.40924944017389
 20
179.6948629748766
 30
0.0
 42
0.1047089114758273
 50
90.0
  0
SEQEND
  5
29C
  8
0
  0
LINE
  5
29D
  8
0
 10
108.4092494401785
 20
178.6386322669147
 30
0.0
 11
108.4092494401785
 21
177.1656707861091
 31
0.0
  0
POLYLINE
  5
29E
  8
0
 66
     1
 10
0.0
 20
0.0
 30
0.0
  0
VERTEX
  5
29F
  8
0
 10
108.0342494401786
 20
178.5797702295815
 30
0.0
 42
0.0162328826952284
 50
90.0
  0
VERTEX
  5
2A0
  8
0
 10
108.18918704357429
 20
178.5848017232947
 30
0.0
 42
0.0226962008047463
 50
90.0
  0
VERTEX
  5
2A1
  8
0
 10
108.2994144831235
 20
178.59701052116191
 30
0.0
 42
0.0516790455059756
 70
     2
 50
8.9206691496988508
  0
VERTEX
  5
2A2
  8
0
 10
108.40167049697089
 20
178.62409912223441
 30
0.0
 50
8.9206691496988508
  0
VERTEX
  5
2A3
  8
0
 10
108.4092494401785
 20
178.6386322669147
 30
0.0
 50
90.0
  0
SEQEND
  5
2A4
  8
0
  0
POLYLINE
  5
2A5
  8
0
 66
     1
 10
0.0
 20
0.0
 30
0.0
  0
VERTEX
  5
2A6
  8
0
 10
108.4092494401785
 20
179.18731503850589
 30
0.0
 42
0.1488470320745859
 50
90.0
  0
VERTEX
  5
2A7
  8
0
 10
108.2764717523922
 20
179.14689232606241
 30
0.0
 42
0.1070939314374275
 50
90.0
  0
VERTEX
  5
2A8
  8
0
 10
108.1440843972336
 20
179.00936928384669
 30
0.0
 42
0.0758177480846394
 70
     2
 50
238.31552115822251
  0
VERTEX
  5
2A9
  8
0
 10
108.06481879783141
 20
178.82274892702031
 30
0.0
 42
0.0626584555913342
 50
238.31552115822251
  0
VERTEX
  5
2AA
  8
0
 10
108.0342494401786
 20
178.5797702295815
 30
0.0
 42
0.0626584555913199
 50
90.0
  0
SEQEND
  5
2AB
  8
0
  0
LINE
  5
2AC
  8
0
 10
108.4092494401785
 20
176.12201413550761
 30
0.0
 11
108.4092494401785
 21
173.82782284273441
 31
0.0
  0
POLYLINE
  5
2AD
  8
0
 66
     1
 10
0.0
 20
0.0
 30
0.0
  0
VERTEX
  5
2AE
  8
0
 10
108.4092494401785
 20
177.1656707861091
 30
0.0
 42
0.1837701506072527
 50
90.0
  0
VERTEX
  5
2AF
  8
0
 10
108.2842322769872
 20
177.118115943433
 30
0.0
 42
0.1023570990015804
 50
90.0
  0
VERTEX
  5
2B0
  8
0
 10
108.1440843972302
 20
176.92981322423731
 30
0.0
 42
0.06139380527182
 70
     2
 50
245.0293849661897
  0
VERTEX
  5
2B1
  8
0
 10
108.0654650137366
 20
176.68704373393459
 30
0.0
 42
0.0476740870733025
 50
245.0293849661897
  0
VERTEX
  5
2B2
  8
0
 10
108.0342494401738
 20
176.3604026995782
 30
0.0
 42
0.0476740870732675
 50
90.0
  0
SEQEND
  5
2B3
  8
0
  0
POLYLINE
  5
2B4
  8
0
 66
     1
 10
0.0
 20
0.0
 30
0.0
  0
VERTEX
  5
2B5
  8
0
 10
108.0342494401786
 20
176.3604026995782
 30
0.0
 42
0.1453834159301123
 50
90.0
  0
VERTEX
  5
2B6
  8
0
 10
108.0594665694762
 20
176.2755094833168
 30
0.0
 42
0.1071699662217274
 50
90.0
  0
VERTEX
  5
2B7
  8
0
 10
108.1440843972336
 20
176.19183652936661
 30
0.0
 42
0.077350332773411
 70
     2
 50
327.55576388790911
  0
VERTEX
  5
2B8
  8
0
 10
108.2725489527616
 20
176.13571667111219
 30
0.0
 42
0.0789475685392101
 50
327.55576388790911
  0
VERTEX
  5
2B9
  8
0
 10
108.4092494401785
 20
176.12201413550929
 30
0.0
 42
0.0644571111103437
 50
90.0
  0
SEQEND
  5
2BA
  8
0
  0
LINE
  5
2BB
  8
0
 10
108.4092494401785
 20
167.81183108797541
 30
0.0
 11
108.4092494401785
 21
164.607299535945
 31
0.0
  0
LINE
  5
2BC
  8
0
 10
108.4092494401785
 20
172.391352697667
 30
0.0
 11
108.4092494401785
 21
169.5005030212335
 31
0.0
  0
POLYLINE
  5
2BD
  8
0
 66
     1
 10
0.0
 20
0.0
 30
0.0
  0
VERTEX
  5
2BE
  8
0
 10
108.4092494401785
 20
164.607299535945
 30
0.0
 42
0.1963710675046226
 50
90.0
  0
VERTEX
  5
2BF
  8
0
 10
108.2870283180588
 20
164.55737290075709
 30
0.0
 42
0.0992025570696904
 50
90.0
  0
VERTEX
  5
2C0
  8
0
 10
108.1440843972336
 20
164.3472726345056
 30
0.0
 42
0.0566743414169369
 70
     2
 50
247.10088003612381
  0
VERTEX
  5
2C1
  8
0
 10
108.0656251265045
 20
164.08089103713161
 30
0.0
 42
0.0433295665536664
 50
247.10088003612381
  0
VERTEX
  5
2C2
  8
0
 10
108.0342494401786
 20
163.7195121624689
 30
0.0
 42
0.0433295665536456
 50
90.0
  0
SEQEND
  5
2C3
  8
0
  0
POLYLINE
  5
2C4
  8
0
 66
     1
 10
0.0
 20
0.0
 30
0.0
  0
VERTEX
  5
2C5
  8
0
 10
108.0342494401786
 20
163.7195121624689
 30
0.0
 42
0.0433295665536456
 50
90.0
  0
VERTEX
  5
2C6
  8
0
 10
108.0656251265045
 20
163.3581332878062
 30
0.0
 42
0.0566743414169658
 50
90.0
  0
VERTEX
  5
2C7
  8
0
 10
108.1440843972336
 20
163.09175169043209
 30
0.0
 42
0.0992025570697266
 70
     2
 50
292.89911996388048
  0
VERTEX
  5
2C8
  8
0
 10
108.2944972911817
 20
162.8706734600066
 30
0.0
 42
0.2280338981645266
 50
292.89911996388048
  0
VERTEX
  5
2C9
  8
0
 10
108.4092494401785
 20
162.8317247890102
 30
0.0
 42
0.1963710675046459
 50
90.0
  0
SEQEND
  5
2CA
  8
0
  0
POLYLINE
  5
2CB
  8
0
 66
     1
 10
0.0
 20
0.0
 30
0.0
  0
VERTEX
  5
2CC
  8
0
 10
108.4092494401785
 20
169.5005030212335
 30
0.0
 42
0.2055316714992537
 50
90.0
  0
VERTEX
  5
2CD
  8
0
 10
108.2890524546677
 20
169.44891520876399
 30
0.0
 42
0.0965313913509376
 50
90.0
  0
VERTEX
  5
2CE
  8
0
 10
108.1440843972334
 20
169.22149284678099
 30
0.0
 42
0.0533986296957384
 70
     2
 50
248.5124580243924
  0
VERTEX
  5
2CF
  8
0
 10
108.0657245988435
 20
168.93651047188891
 30
0.0
 42
0.0404311354471943
 50
248.5124580243924
  0
VERTEX
  5
2D0
  8
0
 10
108.0342494401783
 20
168.54790269957769
 30
0.0
 42
0.0404311354471791
 50
90.0
  0
SEQEND
  5
2D1
  8
0
  0
POLYLINE
  5
2D2
  8
0
 66
     1
 10
0.0
 20
0.0
 30
0.0
  0
VERTEX
  5
2D3
  8
0
 10
108.0342494401786
 20
168.54790269957769
 30
0.0
 42
0.0520405140106174
 50
90.0
  0
VERTEX
  5
2D4
  8
0
 10
108.0652912851335
 20
168.2504635067653
 30
0.0
 42
0.0658985238271168
 50
90.0
  0
VERTEX
  5
2D5
  8
0
 10
108.1440843972336
 20
168.0274214715748
 30
0.0
 42
0.1046205348859841
 70
     2
 50
296.99708196701908
  0
VERTEX
  5
2D6
  8
0
 10
108.2896215464564
 20
167.84732725185231
 30
0.0
 42
0.1996909920929194
 50
296.99708196701908
  0
VERTEX
  5
2D7
  8
0
 10
108.4092494401785
 20
167.81183108797541
 30
0.0
 42
0.172337143622725
 50
90.0
  0
SEQEND
  5
2D8
  8
0
  0
POLYLINE
  5
2D9
  8
0
 66
     1
 10
0.0
 20
0.0
 30
0.0
  0
VERTEX
  5
2DA
  8
0
 10
108.0342494401786
 20
172.90365672953931
 30
0.0
 42
0.0737304435607645
 50
90.0
  0
VERTEX
  5
2DB
  8
0
 10
108.0642577676154
 20
172.70126274289851
 30
0.0
 42
0.0845717212532976
 50
90.0
  0
VERTEX
  5
2DC
  8
0
 10
108.1440843972336
 20
172.5414030745732
 30
0.0
 42
0.1063921108588694
 70
     2
 50
306.20365064702992
  0
VERTEX
  5
2DD
  8
0
 10
108.2813614958051
 20
172.41930664458829
 30
0.0
 42
0.1510088585334486
 50
306.20365064702992
  0
VERTEX
  5
2DE
  8
0
 10
108.4092494401785
 20
172.39135269766379
 30
0.0
 42
0.1294534172461018
 50
90.0
  0
SEQEND
  5
2DF
  8
0
  0
POLYLINE
  5
2E0
  8
0
 66
     1
 10
0.0
 20
0.0
 30
0.0
  0
VERTEX
  5
2E1
  8
0
 10
108.4092494401785
 20
173.82782284273441
 30
0.0
 42
0.2015894264067176
 50
90.0
  0
VERTEX
  5
2E2
  8
0
 10
108.288182419912
 20
173.7769435318512
 30
0.0
 42
0.0977170379735125
 50
90.0
  0
VERTEX
  5
2E3
  8
0
 10
108.1440843972336
 20
173.55714085512241
 30
0.0
 42
0.0547927573384048
 70
     2
 50
247.9141022391737
  0
VERTEX
  5
2E4
  8
0
 10
108.0656833633612
 20
173.28032427509581
 30
0.0
 42
0.0416539519670256
 50
247.9141022391737
  0
VERTEX
  5
2E5
  8
0
 10
108.0342494401786
 20
172.90365672953931
 30
0.0
 42
0.0416539519669881
 50
90.0
  0
SEQEND
  5
2E6
  8
0
  0
LINE
  5
2E7
  8
0
 10
108.4092494401785
 20
179.6948629748766
 30
0.0
 11
118.1592494401785
 21
179.6948629748766
 31
0.0
  0
LINE
  5
2E8
  8
0
 10
108.4092494401785
 20
179.6948629748766
 30
0.0
 11
108.4092494401785
 21
179.18731503850589
 31
0.0
  0
LINE
  5
2F0
  8
2
 10
112.8092494401785
 20
174.21951216246879
 30
0.0
 11
112.3092494401785
 21
174.21951216246879
 31
0.0
  0
LINE
  5
2F1
  8
2
 10
107.4092494401785
 20
177.21951216246879
 30
0.0
 11
112.3092494401785
 21
174.21951216246879
 31
0.0
  0
LINE
  5
2FB
  8
0
 10
108.4092494401785
 20
179.18731503850589
 30
0.0
 11
118.1592494401785
 21
179.18731503850589
 31
0.0
  0
LINE
  5
2FC
  8
0
 10
108.4092494401785
 20
178.6386322669147
 30
0.0
 11
118.1592494401784
 21
178.6386322669147
 31
0.0
  0
LINE
  5
2FD
  8
0
 10
108.4092494401785
 20
177.1656707861091
 30
0.0
 11
118.1592503938528
 21
177.1656707861091
 31
0.0
  0
LINE
  5
2FE
  8
0
 10
108.4092494401785
 20
176.12201413550761
 30
0.0
 11
118.2097083129953
 21
176.12201413550761
 31
0.0
  0
LINE
  5
2FF
  8
0
 10
108.4092494401785
 20
173.82782284273441
 30
0.0
 11
118.1592515726591
 21
173.82782284273441
 31
0.0
  0
LINE
  5
300
  8
0
 10
108.4092494401785
 20
172.391352697667
 30
0.0
 11
118.19669072331131
 21
172.391352697667
 31
0.0
  0
LINE
  5
301
  8
0
 10
108.4092494401785
 20
169.5005030212335
 30
0.0
 11
118.1592503938528
 21
169.5005030212335
 31
0.0
  0
LINE
  5
302
  8
0
 10
108.4092494401785
 20
167.81183108797541
 30
0.0
 11
118.1935437366346
 21
167.81183108797541
 31
0.0
  0
LINE
  5
303
  8
0
 10
108.4092494401785
 20
164.607299535945
 30
0.0
 11
118.1592494401785
 21
164.60729953594489
 31
0.0
  0
LINE
  5
305
  8
0
 10
107.4092494401785
 20
148.71951216246879
 30
0.0
 11
107.4092494401785
 21
178.7195121624689
 31
0.0
  0
LINE
  5
306
  8
2
 10
107.4092494401785
 20
150.2195121624689
 30
0.0
 11
112.3092494401785
 21
153.2195121624689
 31
0.0
  0
LINE
  5
307
  8
2
 10
112.3092494401785
 20
153.2195121624689
 30
0.0
 11
112.3092494401785
 21
174.21951216246879
 31
0.0
  0
LINE
  5
308
  8
2
 10
112.8092494401785
 20
153.2195121624689
 30
0.0
 11
112.3092494401785
 21
153.2195121624689
 31
0.0
  0
LINE
  5
309
  8
2
 10
112.8092494401785
 20
174.21951216246879
 30
0.0
 11
112.8092494401785
 21
153.2195121624689
 31
0.0
  0
LINE
  5
30D
  8
0
 10
119.4092494401785
 20
179.7195121624689
 30
0.0
 11
119.4092494401785
 21
147.7195121624689
 31
0.0
  0
LINE
  5
30E
  8
0
 10
128.1092494401785
 20
172.21951216246879
 30
0.0
 11
128.1092494401785
 21
155.2195121624689
 31
0.0
  0
LINE
  5
30F
  8
0
 10
118.5342494401784
 20
179.7195121624689
 30
0.0
 11
119.4092494401785
 21
179.7195121624689
 31
0.0
  0
LINE
  5
310
  8
0
 10
120.4092494401785
 20
178.7195121624689
 30
0.0
 11
120.4092494401785
 21
148.7195121624689
 31
0.0
  0
LINE
  5
311
  8
0
 10
120.4092494401785
 20
172.2195121624689
 30
0.0
 11
128.1092494401785
 21
172.21951216246879
 31
0.0
  0
LINE
  5
312
  8
0
 10
129.1092494401785
 20
171.21951216246879
 30
0.0
 11
129.1092494401785
 21
156.2195121624689
 31
0.0
  0
LINE
  5
314
  8
0
 10
108.0342494401887
 20
179.34451216247911
 30
0.0
 11
107.4092494401785
 21
178.7195121624689
 31
0.0
  0
LINE
  5
315
  8
0
 10
119.4092494401785
 20
179.7195121624689
 30
0.0
 11
120.4092494401785
 21
178.7195121624689
 31
0.0
  0
LINE
  5
316
  8
0
 10
128.1092494401785
 20
172.21951216246879
 30
0.0
 11
129.1092494401785
 21
171.21951216246879
 31
0.0
  0
LINE
  5
317
  8
0
 10
128.1092494401785
 20
155.2195121624689
 30
0.0
 11
129.1092494401785
 21
156.2195121624689
 31
0.0
  0
LINE
  5
318
  8
0
 10
119.4092494401785
 20
147.7195121624689
 30
0.0
 11
120.4092494401785
 21
148.7195121624689
 31
0.0
  0
LINE
  5
319
  8
0
 10
120.4092494401785
 20
155.2195121624689
 30
0.0
 11
128.1092494401785
 21
155.2195121624689
 31
0.0
  0
LINE
  5
31A
  8
1
 10
174.40924944017939
 20
163.7195121624689
 30
0.0
 11
102.4092494401785
 21
163.7195121624689
 31
0.0
  0
LINE
  5
31B
  8
0
 10
108.0342494401887
 20
38.094512162458699
 30
0.0
 11
107.4092494401785
 21
38.719512162468881
 31
0.0
  0
LINE
  5
31C
  8
0
 10
118.5342494401784
 20
37.719512162468881
 30
0.0
 11
119.4092494401785
 21
37.719512162468881
 31
0.0
  0
LINE
  5
31D
  8
0
 10
108.4092494401785
 20
52.831724788992801
 30
0.0
 11
118.1592494401785
 21
52.831724788992801
 31
0.0
  0
LINE
  5
31E
  8
0
 10
108.4092494401785
 20
49.627193236962341
 30
0.0
 11
118.1935437366345
 21
49.627193236962341
 31
0.0
  0
LINE
  5
31F
  8
0
 10
108.4092494401785
 20
47.938521303704242
 30
0.0
 11
118.1592503938527
 21
47.938521303704242
 31
0.0
  0
LINE
  5
320
  8
0
 10
108.4092494401785
 20
45.047671627270773
 30
0.0
 11
118.19669072331121
 21
45.047671627270773
 31
0.0
  0
LINE
  5
321
  8
0
 10
108.4092494401785
 20
43.611201482203313
 30
0.0
 11
118.1592515726591
 21
43.611201482203313
 31
0.0
  0
LINE
  5
322
  8
0
 10
108.4092494401785
 20
41.317010189430128
 30
0.0
 11
118.2097083129953
 21
41.317010189430128
 31
0.0
  0
LINE
  5
323
  8
0
 10
108.4092494401785
 20
40.273353538828673
 30
0.0
 11
118.1592503938528
 21
40.273353538828673
 31
0.0
  0
LINE
  5
324
  8
0
 10
108.4092494401785
 20
38.80039205802305
 30
0.0
 11
118.1592494401784
 21
38.80039205802305
 31
0.0
  0
LINE
  5
325
  8
0
 10
108.4092494401785
 20
38.251709286431797
 30
0.0
 11
118.1592494401785
 21
38.251709286431797
 31
0.0
  0
LINE
  5
326
  8
0
 10
108.4092494401785
 20
37.744161350061148
 30
0.0
 11
108.4092494401785
 21
38.251709286431833
 31
0.0
  0
LINE
  5
327
  8
0
 10
108.4092494401785
 20
37.744161350061148
 30
0.0
 11
118.1592494401784
 21
37.744161350061148
 31
0.0
  0
POLYLINE
  5
328
  8
0
 66
     1
 10
0.0
 20
0.0
 30
0.0
  0
VERTEX
  5
329
  8
0
 10
108.4092494401785
 20
43.611201482203313
 30
0.0
 42
-0.2015894264067176
 50
90.0
  0
VERTEX
  5
32A
  8
0
 10
108.288182419912
 20
43.66208079308651
 30
0.0
 42
-0.0977170379735125
 50
90.0
  0
VERTEX
  5
32B
  8
0
 10
108.1440843972336
 20
43.881883469815357
 30
0.0
 42
-0.0547927573384048
 70
     2
 50
112.0858977608263
  0
VERTEX
  5
32C
  8
0
 10
108.0656833633612
 20
44.15870004984199
 30
0.0
 42
-0.0416539519670256
 50
90.0
  0
VERTEX
  5
32D
  8
0
 10
108.0342494401786
 20
44.535367595398462
 30
0.0
 42
-0.0416539519669881
 50
90.0
  0
SEQEND
  5
32E
  8
0
  0
POLYLINE
  5
32F
  8
0
 66
     1
 10
0.0
 20
0.0
 30
0.0
  0
VERTEX
  5
330
  8
0
 10
108.0342494401786
 20
44.535367595398441
 30
0.0
 42
-0.0737304435607645
 50
90.0
  0
VERTEX
  5
331
  8
0
 10
108.0642577676153
 20
44.737761582039212
 30
0.0
 42
-0.0845717212532976
 50
90.0
  0
VERTEX
  5
332
  8
0
 10
108.1440843972336
 20
44.897621250364551
 30
0.0
 42
-0.1063921108588694
 70
     2
 50
53.796349352970111
  0
VERTEX
  5
333
  8
0
 10
108.2813614958051
 20
45.01971768034943
 30
0.0
 42
-0.1510088585334486
 50
90.0
  0
VERTEX
  5
334
  8
0
 10
108.4092494401785
 20
45.047671627273921
 30
0.0
 42
-0.1294534172461018
 50
90.0
  0
SEQEND
  5
335
  8
0
  0
POLYLINE
  5
336
  8
0
 66
     1
 10
0.0
 20
0.0
 30
0.0
  0
VERTEX
  5
337
  8
0
 10
108.0342494401786
 20
48.891121625360078
 30
0.0
 42
-0.0520405140106174
 50
90.0
  0
VERTEX
  5
338
  8
0
 10
108.0652912851335
 20
49.188560818172469
 30
0.0
 42
-0.0658985238271168
 50
90.0
  0
VERTEX
  5
339
  8
0
 10
108.1440843972336
 20
49.41160285336295
 30
0.0
 42
-0.1046205348859841
 70
     2
 50
63.002918032980951
  0
VERTEX
  5
33A
  8
0
 10
108.2896215464564
 20
49.591697073085413
 30
0.0
 42
-0.1996909920929194
 50
90.0
  0
VERTEX
  5
33B
  8
0
 10
108.4092494401785
 20
49.627193236962341
 30
0.0
 42
-0.172337143622725
 50
90.0
  0
SEQEND
  5
33C
  8
0
  0
POLYLINE
  5
33D
  8
0
 66
     1
 10
0.0
 20
0.0
 30
0.0
  0
VERTEX
  5
33E
  8
0
 10
108.4092494401785
 20
47.938521303704242
 30
0.0
 42
-0.2055316714992537
 50
90.0
  0
VERTEX
  5
33F
  8
0
 10
108.2890524546677
 20
47.990109116173812
 30
0.0
 42
-0.0965313913509376
 50
90.0
  0
VERTEX
  5
340
  8
0
 10
108.1440843972334
 20
48.217531478156729
 30
0.0
 42
-0.0533986296957384
 70
     2
 50
111.4875419756076
  0
VERTEX
  5
341
  8
0
 10
108.0657245988435
 20
48.502513853048903
 30
0.0
 42
-0.0404311354471943
 50
90.0
  0
VERTEX
  5
342
  8
0
 10
108.0342494401783
 20
48.891121625360078
 30
0.0
 42
-0.0404311354471791
 50
90.0
  0
SEQEND
  5
343
  8
0
  0
LINE
  5
344
  8
0
 10
108.4092494401785
 20
45.047671627270773
 30
0.0
 11
108.4092494401785
 21
47.938521303704221
 31
0.0
  0
LINE
  5
345
  8
0
 10
108.4092494401785
 20
49.627193236962313
 30
0.0
 11
108.4092494401785
 21
52.831724788992773
 31
0.0
  0
POLYLINE
  5
346
  8
0
 66
     1
 10
0.0
 20
0.0
 30
0.0
  0
VERTEX
  5
347
  8
0
 10
108.0342494401786
 20
41.078621625359602
 30
0.0
 42
-0.1453834159301123
 50
90.0
  0
VERTEX
  5
348
  8
0
 10
108.0594665694762
 20
41.163514841620923
 30
0.0
 42
-0.1071699662217274
 50
90.0
  0
VERTEX
  5
349
  8
0
 10
108.1440843972336
 20
41.247187795571193
 30
0.0
 42
-0.077350332773411
 70
     2
 50
32.444236112090998
  0
VERTEX
  5
34A
  8
0
 10
108.2725489527616
 20
41.303307653825499
 30
0.0
 42
-0.0789475685392101
 50
90.0
  0
VERTEX
  5
34B
  8
0
 10
108.4092494401785
 20
41.31701018942848
 30
0.0
 42
-0.0644571111103437
 50
90.0
  0
SEQEND
  5
34C
  8
0
  0
POLYLINE
  5
34D
  8
0
 66
     1
 10
0.0
 20
0.0
 30
0.0
  0
VERTEX
  5
34E
  8
0
 10
108.4092494401785
 20
40.273353538828673
 30
0.0
 42
-0.1837701506072527
 50
90.0
  0
VERTEX
  5
34F
  8
0
 10
108.2842322769872
 20
40.320908381504751
 30
0.0
 42
-0.1023570990015804
 50
90.0
  0
VERTEX
  5
350
  8
0
 10
108.1440843972302
 20
40.509211100700469
 30
0.0
 42
-0.06139380527182
 70
     2
 50
114.9706150338103
  0
VERTEX
  5
351
  8
0
 10
108.0654650137366
 20
40.751980591003097
 30
0.0
 42
-0.0476740870733025
 50
90.0
  0
VERTEX
  5
352
  8
0
 10
108.0342494401738
 20
41.078621625359602
 30
0.0
 42
-0.0476740870732675
 50
90.0
  0
SEQEND
  5
353
  8
0
  0
LINE
  5
354
  8
0
 10
108.4092494401785
 20
41.317010189430128
 30
0.0
 11
108.4092494401785
 21
43.611201482203313
 31
0.0
  0
POLYLINE
  5
355
  8
0
 66
     1
 10
0.0
 20
0.0
 30
0.0
  0
VERTEX
  5
356
  8
0
 10
108.4092494401785
 20
38.251709286431833
 30
0.0
 42
-0.1488470320745859
 50
90.0
  0
VERTEX
  5
357
  8
0
 10
108.2764717523922
 20
38.292131998875313
 30
0.0
 42
-0.1070939314374275
 50
90.0
  0
VERTEX
  5
358
  8
0
 10
108.1440843972336
 20
38.42965504109111
 30
0.0
 42
-0.0758177480846394
 70
     2
 50
121.6844788417775
  0
VERTEX
  5
359
  8
0
 10
108.06481879783141
 20
38.616275397917462
 30
0.0
 42
-0.0626584555913342
 50
90.0
  0
VERTEX
  5
35A
  8
0
 10
108.0342494401786
 20
38.859254095356249
 30
0.0
 42
-0.0626584555913199
 50
90.0
  0
SEQEND
  5
35B
  8
0
  0
POLYLINE
  5
35C
  8
0
 66
     1
 10
0.0
 20
0.0
 30
0.0
  0
VERTEX
  5
35D
  8
0
 10
108.0342494401786
 20
38.859254095356249
 30
0.0
 42
-0.0162328826952284
 50
90.0
  0
VERTEX
  5
35E
  8
0
 10
108.18918704357429
 20
38.854222601643038
 30
0.0
 42
-0.0226962008047463
 50
90.0
  0
VERTEX
  5
35F
  8
0
 10
108.2994144831235
 20
38.842013803775806
 30
0.0
 42
-0.0516790455059756
 70
     2
 50
351.07933085030118
  0
VERTEX
  5
360
  8
0
 10
108.40167049697079
 20
38.814925202703343
 30
0.0
 50
90.0
  0
VERTEX
  5
361
  8
0
 10
108.4092494401785
 20
38.800392058023078
 30
0.0
 50
90.0
  0
SEQEND
  5
362
  8
0
  0
LINE
  5
363
  8
0
 10
108.4092494401785
 20
38.800392058023078
 30
0.0
 11
108.4092494401785
 21
40.273353538828673
 31
0.0
  0
POLYLINE
  5
364
  8
0
 66
     1
 10
0.0
 20
0.0
 30
0.0
  0
VERTEX
  5
365
  8
0
 10
108.0342494401786
 20
38.09451216246876
 30
0.0
 42
-0.092572595455409
 50
90.0
  0
VERTEX
  5
366
  8
0
 10
108.17892259299811
 20
38.067495096211267
 30
0.0
 42
-0.0958395211622397
 50
90.0
  0
VERTEX
  5
367
  8
0
 10
108.2994144831235
 20
37.991896785308803
 30
0.0
 42
-0.1008530118927434
 70
     2
 50
316.94630119341338
  0
VERTEX
  5
368
  8
0
 10
108.3879118047366
 20
37.867499324625022
 30
0.0
 42
-0.1236287328816281
 50
90.0
  0
VERTEX
  5
369
  8
0
 10
108.40924944017389
 20
37.744161350061148
 30
0.0
 42
-0.1047089114758273
 50
90.0
  0
SEQEND
  5
36A
  8
0
  0
POLYLINE
  5
36B
  8
0
 66
     1
 10
0.0
 20
0.0
 30
0.0
  0
VERTEX
  5
36C
  8
0
 10
118.5342494401783
 20
38.859254095356249
 30
0.0
 42
0.0162328826952284
 50
90.0
  0
VERTEX
  5
36D
  8
0
 10
118.3793118367827
 20
38.854222601643038
 30
0.0
 42
0.0226962008047463
 50
90.0
  0
VERTEX
  5
36E
  8
0
 10
118.2690843972335
 20
38.842013803775806
 30
0.0
 42
0.0516790455059756
 70
     2
 50
188.92066914969891
  0
VERTEX
  5
36F
  8
0
 10
118.1668283833861
 20
38.814925202703343
 30
0.0
 50
90.0
  0
VERTEX
  5
370
  8
0
 10
118.1592494401784
 20
38.800392058023078
 30
0.0
 50
90.0
  0
SEQEND
  5
371
  8
0
  0
POLYLINE
  5
372
  8
0
 66
     1
 10
0.0
 20
0.0
 30
0.0
  0
VERTEX
  5
373
  8
0
 10
118.1592494401785
 20
38.251709286431833
 30
0.0
 42
0.1488470320745859
 50
90.0
  0
VERTEX
  5
374
  8
0
 10
118.2920271279648
 20
38.292131998875313
 30
0.0
 42
0.1070939314374275
 50
90.0
  0
VERTEX
  5
375
  8
0
 10
118.4244144831233
 20
38.42965504109111
 30
0.0
 42
0.0758177480846394
 70
     2
 50
58.315521158222467
  0
VERTEX
  5
376
  8
0
 10
118.50368008252561
 20
38.616275397917462
 30
0.0
 42
0.0626584555913342
 50
90.0
  0
VERTEX
  5
377
  8
0
 10
118.5342494401783
 20
38.859254095356249
 30
0.0
 42
0.0626584555913199
 50
90.0
  0
SEQEND
  5
378
  8
0
  0
POLYLINE
  5
379
  8
0
 66
     1
 10
0.0
 20
0.0
 30
0.0
  0
VERTEX
  5
37A
  8
0
 10
118.1592494401785
 20
40.273353538828673
 30
0.0
 42
0.1837701506072527
 50
90.0
  0
VERTEX
  5
37B
  8
0
 10
118.2842666033697
 20
40.320908381504751
 30
0.0
 42
0.1023570990015804
 50
90.0
  0
VERTEX
  5
37C
  8
0
 10
118.4244144831267
 20
40.509211100700469
 30
0.0
 42
0.06139380527182
 70
     2
 50
65.029384966189681
  0
VERTEX
  5
37D
  8
0
 10
118.5030338666204
 20
40.751980591003097
 30
0.0
 42
0.0476740870733025
 50
90.0
  0
VERTEX
  5
37E
  8
0
 10
118.5342494401832
 20
41.078621625359602
 30
0.0
 42
0.0476740870732675
 50
90.0
  0
SEQEND
  5
37F
  8
0
  0
POLYLINE
  5
380
  8
0
 66
     1
 10
0.0
 20
0.0
 30
0.0
  0
VERTEX
  5
381
  8
0
 10
118.5342494401783
 20
41.078621625359602
 30
0.0
 42
0.1453834159301123
 50
90.0
  0
VERTEX
  5
382
  8
0
 10
118.5090323108808
 20
41.163514841620923
 30
0.0
 42
0.1071699662217274
 50
90.0
  0
VERTEX
  5
383
  8
0
 10
118.4244144831233
 20
41.247187795571193
 30
0.0
 42
0.077350332773411
 70
     2
 50
147.555763887909
  0
VERTEX
  5
384
  8
0
 10
118.2959499275953
 20
41.303307653825499
 30
0.0
 42
0.0789475685392101
 50
90.0
  0
VERTEX
  5
385
  8
0
 10
118.1592494401784
 20
41.31701018942848
 30
0.0
 42
0.0644571111103437
 50
90.0
  0
SEQEND
  5
386
  8
0
  0
POLYLINE
  5
387
  8
0
 66
     1
 10
0.0
 20
0.0
 30
0.0
  0
VERTEX
  5
388
  8
0
 10
118.1592494401785
 20
47.938521303704242
 30
0.0
 42
0.2055316714992537
 50
90.0
  0
VERTEX
  5
389
  8
0
 10
118.2794464256893
 20
47.990109116173812
 30
0.0
 42
0.0965313913509376
 50
90.0
  0
VERTEX
  5
38A
  8
0
 10
118.4244144831235
 20
48.217531478156729
 30
0.0
 42
0.0533986296957384
 70
     2
 50
68.512458024392416
  0
VERTEX
  5
38B
  8
0
 10
118.5027742815135
 20
48.502513853048903
 30
0.0
 42
0.0404311354471943
 50
90.0
  0
VERTEX
  5
38C
  8
0
 10
118.5342494401787
 20
48.891121625360078
 30
0.0
 42
0.0404311354471791
 50
90.0
  0
SEQEND
  5
38D
  8
0
  0
POLYLINE
  5
38E
  8
0
 66
     1
 10
0.0
 20
0.0
 30
0.0
  0
VERTEX
  5
38F
  8
0
 10
118.5342494401783
 20
48.891121625360078
 30
0.0
 42
0.0520405140106174
 50
90.0
  0
VERTEX
  5
390
  8
0
 10
118.5032075952235
 20
49.188560818172469
 30
0.0
 42
0.0658985238271168
 50
90.0
  0
VERTEX
  5
391
  8
0
 10
118.4244144831233
 20
49.41160285336295
 30
0.0
 42
0.1046205348859841
 70
     2
 50
116.9970819670191
  0
VERTEX
  5
392
  8
0
 10
118.2788773339006
 20
49.591697073085413
 30
0.0
 42
0.1996909920929194
 50
90.0
  0
VERTEX
  5
393
  8
0
 10
118.1592494401785
 20
49.627193236962341
 30
0.0
 42
0.172337143622725
 50
90.0
  0
SEQEND
  5
394
  8
0
  0
POLYLINE
  5
395
  8
0
 66
     1
 10
0.0
 20
0.0
 30
0.0
  0
VERTEX
  5
396
  8
0
 10
118.5342494401783
 20
44.535367595398441
 30
0.0
 42
0.0737304435607645
 50
90.0
  0
VERTEX
  5
397
  8
0
 10
118.5042411127416
 20
44.737761582039212
 30
0.0
 42
0.0845717212532976
 50
90.0
  0
VERTEX
  5
398
  8
0
 10
118.4244144831234
 20
44.897621250364551
 30
0.0
 42
0.1063921108588694
 70
     2
 50
126.2036506470299
  0
VERTEX
  5
399
  8
0
 10
118.2871373845519
 20
45.01971768034943
 30
0.0
 42
0.1510088585334486
 50
90.0
  0
VERTEX
  5
39A
  8
0
 10
118.1592494401785
 20
45.047671627273921
 30
0.0
 42
0.1294534172461018
 50
90.0
  0
SEQEND
  5
39B
  8
0
  0
POLYLINE
  5
39C
  8
0
 66
     1
 10
0.0
 20
0.0
 30
0.0
  0
VERTEX
  5
39D
  8
0
 10
118.1592494401785
 20
43.611201482203313
 30
0.0
 42
0.2015894264067176
 50
90.0
  0
VERTEX
  5
39E
  8
0
 10
118.28031646044489
 20
43.66208079308651
 30
0.0
 42
0.0977170379735125
 50
90.0
  0
VERTEX
  5
39F
  8
0
 10
118.4244144831233
 20
43.881883469815357
 30
0.0
 42
0.0547927573384048
 70
     2
 50
67.914102239173715
  0
VERTEX
  5
3A0
  8
0
 10
118.5028155169957
 20
44.15870004984199
 30
0.0
 42
0.0416539519670256
 50
90.0
  0
VERTEX
  5
3A1
  8
0
 10
118.5342494401783
 20
44.535367595398462
 30
0.0
 42
0.0416539519669881
 50
90.0
  0
SEQEND
  5
3A2
  8
0
  0
POLYLINE
  5
3A3
  8
0
 66
     1
 10
0.0
 20
0.0
 30
0.0
  0
VERTEX
  5
3A4
  8
0
 10
118.1592494401785
 20
37.744161350061148
 30
0.0
 42
-0.0068051090718327
 50
90.0
  0
VERTEX
  5
3A5
  8
0
 10
118.3145101483903
 20
37.742048120090601
 30
0.0
 42
-0.0096044777403865
 50
90.0
  0
VERTEX
  5
3A6
  8
0
 10
118.4244144831233
 20
37.736941770166112
 30
0.0
 42
-0.0229390352869734
 70
     2
 50
356.23929148249317
  0
VERTEX
  5
3A7
  8
0
 10
118.5310294059977
 20
37.72500396594873
 30
0.0
 50
90.0
  0
VERTEX
  5
3A8
  8
0
 10
118.5342494401784
 20
37.719512162468881
 30
0.0
 50
90.0
  0
SEQEND
  5
3A9
  8
0
  0
POLYLINE
  5
3AA
  8
0
 66
     1
 10
0.0
 20
0.0
 30
0.0
  0
VERTEX
  5
3AB
  8
0
 10
118.1592494401785
 20
69.694862974876614
 30
0.0
 42
0.0068051090718327
 50
90.0
  0
VERTEX
  5
3AC
  8
0
 10
118.3145101483903
 20
69.696976204847175
 30
0.0
 42
0.0096044777403865
 50
90.0
  0
VERTEX
  5
3AD
  8
0
 10
118.4244144831233
 20
69.702082554771664
 30
0.0
 42
0.0229390352869734
 70
     2
 50
3.7607085175068882
  0
VERTEX
  5
3AE
  8
0
 10
118.5310294059977
 20
69.714020358989046
 30
0.0
 50
3.7607085175068882
  0
VERTEX
  5
3AF
  8
0
 10
118.5342494401784
 20
69.719512162468902
 30
0.0
 50
90.0
  0
SEQEND
  5
3B0
  8
0
  0
POLYLINE
  5
3B1
  8
0
 66
     1
 10
0.0
 20
0.0
 30
0.0
  0
VERTEX
  5
3B2
  8
0
 10
118.1592494401785
 20
63.827822842734463
 30
0.0
 42
-0.2015894264067176
 50
90.0
  0
VERTEX
  5
3B3
  8
0
 10
118.28031646044489
 20
63.776943531851259
 30
0.0
 42
-0.0977170379735125
 50
90.0
  0
VERTEX
  5
3B4
  8
0
 10
118.4244144831233
 20
63.557140855122412
 30
0.0
 42
-0.0547927573384048
 70
     2
 50
292.08589776082619
  0
VERTEX
  5
3B5
  8
0
 10
118.5028155169957
 20
63.280324275095779
 30
0.0
 42
-0.0416539519670256
 50
90.0
  0
VERTEX
  5
3B6
  8
0
 10
118.5342494401783
 20
62.903656729539307
 30
0.0
 42
-0.0416539519669881
 50
90.0
  0
SEQEND
  5
3B7
  8
0
  0
POLYLINE
  5
3B8
  8
0
 66
     1
 10
0.0
 20
0.0
 30
0.0
  0
VERTEX
  5
3B9
  8
0
 10
118.5342494401783
 20
62.903656729539328
 30
0.0
 42
-0.0737304435607645
 50
90.0
  0
VERTEX
  5
3BA
  8
0
 10
118.5042411127416
 20
62.701262742898557
 30
0.0
 42
-0.0845717212532976
 50
90.0
  0
VERTEX
  5
3BB
  8
0
 10
118.4244144831234
 20
62.541403074573232
 30
0.0
 42
-0.1063921108588694
 70
     2
 50
233.79634935297011
  0
VERTEX
  5
3BC
  8
0
 10
118.2871373845519
 20
62.419306644588339
 30
0.0
 42
-0.1510088585334486
 50
90.0
  0
VERTEX
  5
3BD
  8
0
 10
118.1592494401785
 20
62.391352697663848
 30
0.0
 42
-0.1294534172461018
 50
90.0
  0
SEQEND
  5
3BE
  8
0
  0
POLYLINE
  5
3BF
  8
0
 66
     1
 10
0.0
 20
0.0
 30
0.0
  0
VERTEX
  5
3C0
  8
0
 10
118.5342494401783
 20
58.547902699577719
 30
0.0
 42
-0.0520405140106174
 50
90.0
  0
VERTEX
  5
3C1
  8
0
 10
118.5032075952235
 20
58.250463506765293
 30
0.0
 42
-0.0658985238271168
 50
90.0
  0
VERTEX
  5
3C2
  8
0
 10
118.4244144831233
 20
58.027421471574819
 30
0.0
 42
-0.1046205348859841
 70
     2
 50
243.00291803298089
  0
VERTEX
  5
3C3
  8
0
 10
118.2788773339006
 20
57.847327251852363
 30
0.0
 42
-0.1996909920929194
 50
90.0
  0
VERTEX
  5
3C4
  8
0
 10
118.1592494401785
 20
57.811831087975428
 30
0.0
 42
-0.172337143622725
 50
90.0
  0
SEQEND
  5
3C5
  8
0
  0
POLYLINE
  5
3C6
  8
0
 66
     1
 10
0.0
 20
0.0
 30
0.0
  0
VERTEX
  5
3C7
  8
0
 10
118.1592494401785
 20
59.500503021233548
 30
0.0
 42
-0.2055316714992537
 50
90.0
  0
VERTEX
  5
3C8
  8
0
 10
118.2794464256893
 20
59.448915208763992
 30
0.0
 42
-0.0965313913509376
 50
90.0
  0
VERTEX
  5
3C9
  8
0
 10
118.4244144831235
 20
59.221492846781047
 30
0.0
 42
-0.0533986296957384
 70
     2
 50
291.4875419756076
  0
VERTEX
  5
3CA
  8
0
 10
118.5027742815135
 20
58.93651047188888
 30
0.0
 42
-0.0404311354471943
 50
90.0
  0
VERTEX
  5
3CB
  8
0
 10
118.5342494401787
 20
58.547902699577719
 30
0.0
 42
-0.0404311354471791
 50
90.0
  0
SEQEND
  5
3CC
  8
0
  0
POLYLINE
  5
3CD
  8
0
 66
     1
 10
0.0
 20
0.0
 30
0.0
  0
VERTEX
  5
3CE
  8
0
 10
118.5342494401783
 20
53.719512162468902
 30
0.0
 42
-0.0433295665536456
 50
90.0
  0
VERTEX
  5
3CF
  8
0
 10
118.5028737538525
 20
53.358133287806247
 30
0.0
 42
-0.0566743414169658
 50
90.0
  0
VERTEX
  5
3D0
  8
0
 10
118.4244144831233
 20
53.09175169043214
 30
0.0
 42
-0.0992025570697266
 70
     2
 50
247.10088003611941
  0
VERTEX
  5
3D1
  8
0
 10
118.2740015891753
 20
52.870673460006628
 30
0.0
 42
-0.2280338981645266
 50
90.0
  0
VERTEX
  5
3D2
  8
0
 10
118.1592494401785
 20
52.831724789010188
 30
0.0
 42
-0.1963710675046459
 50
90.0
  0
SEQEND
  5
3D3
  8
0
  0
POLYLINE
  5
3D4
  8
0
 66
     1
 10
0.0
 20
0.0
 30
0.0
  0
VERTEX
  5
3D5
  8
0
 10
118.1592494401785
 20
54.607299535945003
 30
0.0
 42
-0.1963710675046226
 50
90.0
  0
VERTEX
  5
3D6
  8
0
 10
118.2814705622982
 20
54.557372900757088
 30
0.0
 42
-0.0992025570696904
 50
90.0
  0
VERTEX
  5
3D7
  8
0
 10
118.4244144831233
 20
54.347272634505629
 30
0.0
 42
-0.0566743414169369
 70
     2
 50
292.89911996387622
  0
VERTEX
  5
3D8
  8
0
 10
118.5028737538525
 20
54.080891037131657
 30
0.0
 42
-0.0433295665536664
 50
90.0
  0
VERTEX
  5
3D9
  8
0
 10
118.5342494401783
 20
53.719512162468902
 30
0.0
 42
-0.0433295665536456
 50
90.0
  0
SEQEND
  5
3DA
  8
0
  0
POLYLINE
  5
3DB
  8
0
 66
     1
 10
0.0
 20
0.0
 30
0.0
  0
VERTEX
  5
3DC
  8
0
 10
118.5342494401783
 20
66.360402699578174
 30
0.0
 42
-0.1453834159301123
 50
90.0
  0
VERTEX
  5
3DD
  8
0
 10
118.5090323108808
 20
66.275509483316853
 30
0.0
 42
-0.1071699662217274
 50
90.0
  0
VERTEX
  5
3DE
  8
0
 10
118.4244144831233
 20
66.191836529366583
 30
0.0
 42
-0.077350332773411
 70
     2
 50
212.444236112091
  0
VERTEX
  5
3DF
  8
0
 10
118.2959499275953
 20
66.135716671112263
 30
0.0
 42
-0.0789475685392101
 50
90.0
  0
VERTEX
  5
3E0
  8
0
 10
118.1592494401784
 20
66.122014135509289
 30
0.0
 42
-0.0644571111103437
 50
90.0
  0
SEQEND
  5
3E1
  8
0
  0
POLYLINE
  5
3E2
  8
0
 66
     1
 10
0.0
 20
0.0
 30
0.0
  0
VERTEX
  5
3E3
  8
0
 10
118.1592494401785
 20
67.165670786109104
 30
0.0
 42
-0.1837701506072527
 50
90.0
  0
VERTEX
  5
3E4
  8
0
 10
118.2842666033697
 20
67.118115943433025
 30
0.0
 42
-0.1023570990015804
 50
90.0
  0
VERTEX
  5
3E5
  8
0
 10
118.4244144831267
 20
66.929813224237293
 30
0.0
 42
-0.06139380527182
 70
     2
 50
294.9706150338103
  0
VERTEX
  5
3E6
  8
0
 10
118.5030338666204
 20
66.687043733934672
 30
0.0
 42
-0.0476740870733025
 50
90.0
  0
VERTEX
  5
3E7
  8
0
 10
118.5342494401832
 20
66.360402699578174
 30
0.0
 42
-0.0476740870732675
 50
90.0
  0
SEQEND
  5
3E8
  8
0
  0
POLYLINE
  5
3E9
  8
0
 66
     1
 10
0.0
 20
0.0
 30
0.0
  0
VERTEX
  5
3EA
  8
0
 10
118.1592494401785
 20
69.187315038505943
 30
0.0
 42
-0.1488470320745859
 50
90.0
  0
VERTEX
  5
3EB
  8
0
 10
118.2920271279648
 20
69.146892326062471
 30
0.0
 42
-0.1070939314374275
 50
90.0
  0
VERTEX
  5
3EC
  8
0
 10
118.4244144831233
 20
69.009369283846667
 30
0.0
 42
-0.0758177480846394
 70
     2
 50
301.68447884177749
  0
VERTEX
  5
3ED
  8
0
 10
118.50368008252561
 20
68.822748927020314
 30
0.0
 42
-0.0626584555913342
 50
90.0
  0
VERTEX
  5
3EE
  8
0
 10
118.5342494401783
 20
68.579770229581527
 30
0.0
 42
-0.0626584555913199
 50
90.0
  0
SEQEND
  5
3EF
  8
0
  0
POLYLINE
  5
3F0
  8
0
 66
     1
 10
0.0
 20
0.0
 30
0.0
  0
VERTEX
  5
3F1
  8
0
 10
118.5342494401783
 20
68.579770229581527
 30
0.0
 42
-0.0162328826952284
 50
90.0
  0
VERTEX
  5
3F2
  8
0
 10
118.3793118367827
 20
68.584801723294731
 30
0.0
 42
-0.0226962008047463
 50
90.0
  0
VERTEX
  5
3F3
  8
0
 10
118.2690843972335
 20
68.597010521161963
 30
0.0
 42
-0.0516790455059756
 70
     2
 50
171.07933085030109
  0
VERTEX
  5
3F4
  8
0
 10
118.1668283833861
 20
68.624099122234441
 30
0.0
 50
90.0
  0
VERTEX
  5
3F5
  8
0
 10
118.1592494401784
 20
68.638632266914698
 30
0.0
 50
90.0
  0
SEQEND
  5
3F6
  8
0
  0
POLYLINE
  5
3F7
  8
0
 66
     1
 10
0.0
 20
0.0
 30
0.0
  0
VERTEX
  5
3F8
  8
0
 10
108.0342494401786
 20
69.344512162469016
 30
0.0
 42
0.092572595455409
 50
90.0
  0
VERTEX
  5
3F9
  8
0
 10
108.17892259299811
 20
69.371529228726502
 30
0.0
 42
0.0958395211622397
 50
90.0
  0
VERTEX
  5
3FA
  8
0
 10
108.2994144831235
 20
69.44712753962898
 30
0.0
 42
0.1008530118927434
 70
     2
 50
43.053698806586652
  0
VERTEX
  5
3FB
  8
0
 10
108.3879118047366
 20
69.571525000312761
 30
0.0
 42
0.1236287328816281
 50
43.053698806586652
  0
VERTEX
  5
3FC
  8
0
 10
108.40924944017389
 20
69.694862974876614
 30
0.0
 42
0.1047089114758273
 50
90.0
  0
SEQEND
  5
3FD
  8
0
  0
LINE
  5
3FE
  8
0
 10
108.4092494401785
 20
68.638632266914698
 30
0.0
 11
108.4092494401785
 21
67.165670786109104
 31
0.0
  0
POLYLINE
  5
3FF
  8
0
 66
     1
 10
0.0
 20
0.0
 30
0.0
  0
VERTEX
  5
400
  8
0
 10
108.0342494401786
 20
68.579770229581527
 30
0.0
 42
0.0162328826952284
 50
90.0
  0
VERTEX
  5
401
  8
0
 10
108.18918704357429
 20
68.584801723294731
 30
0.0
 42
0.0226962008047463
 50
90.0
  0
VERTEX
  5
402
  8
0
 10
108.2994144831235
 20
68.597010521161963
 30
0.0
 42
0.0516790455059756
 70
     2
 50
8.9206691496988508
  0
VERTEX
  5
403
  8
0
 10
108.40167049697079
 20
68.624099122234441
 30
0.0
 50
8.9206691496988508
  0
VERTEX
  5
404
  8
0
 10
108.4092494401785
 20
68.638632266914698
 30
0.0
 50
90.0
  0
SEQEND
  5
405
  8
0
  0
POLYLINE
  5
406
  8
0
 66
     1
 10
0.0
 20
0.0
 30
0.0
  0
VERTEX
  5
407
  8
0
 10
108.4092494401785
 20
69.187315038505943
 30
0.0
 42
0.1488470320745859
 50
90.0
  0
VERTEX
  5
408
  8
0
 10
108.2764717523922
 20
69.146892326062471
 30
0.0
 42
0.1070939314374275
 50
90.0
  0
VERTEX
  5
409
  8
0
 10
108.1440843972336
 20
69.009369283846667
 30
0.0
 42
0.0758177480846394
 70
     2
 50
238.31552115822251
  0
VERTEX
  5
40A
  8
0
 10
108.06481879783141
 20
68.822748927020314
 30
0.0
 42
0.0626584555913342
 50
238.31552115822251
  0
VERTEX
  5
40B
  8
0
 10
108.0342494401786
 20
68.579770229581527
 30
0.0
 42
0.0626584555913199
 50
90.0
  0
SEQEND
  5
40C
  8
0
  0
LINE
  5
40D
  8
0
 10
108.4092494401785
 20
66.122014135507641
 30
0.0
 11
108.4092494401785
 21
63.827822842734463
 31
0.0
  0
POLYLINE
  5
40E
  8
0
 66
     1
 10
0.0
 20
0.0
 30
0.0
  0
VERTEX
  5
40F
  8
0
 10
108.4092494401785
 20
67.165670786109104
 30
0.0
 42
0.1837701506072527
 50
90.0
  0
VERTEX
  5
410
  8
0
 10
108.2842322769872
 20
67.118115943433025
 30
0.0
 42
0.1023570990015804
 50
90.0
  0
VERTEX
  5
411
  8
0
 10
108.1440843972302
 20
66.929813224237293
 30
0.0
 42
0.06139380527182
 70
     2
 50
245.0293849661897
  0
VERTEX
  5
412
  8
0
 10
108.0654650137366
 20
66.687043733934672
 30
0.0
 42
0.0476740870733025
 50
245.0293849661897
  0
VERTEX
  5
413
  8
0
 10
108.0342494401738
 20
66.360402699578174
 30
0.0
 42
0.0476740870732675
 50
90.0
  0
SEQEND
  5
414
  8
0
  0
POLYLINE
  5
415
  8
0
 66
     1
 10
0.0
 20
0.0
 30
0.0
  0
VERTEX
  5
416
  8
0
 10
108.0342494401786
 20
66.360402699578174
 30
0.0
 42
0.1453834159301123
 50
90.0
  0
VERTEX
  5
417
  8
0
 10
108.0594665694762
 20
66.275509483316853
 30
0.0
 42
0.1071699662217274
 50
90.0
  0
VERTEX
  5
418
  8
0
 10
108.1440843972336
 20
66.191836529366583
 30
0.0
 42
0.077350332773411
 70
     2
 50
327.55576388790911
  0
VERTEX
  5
419
  8
0
 10
108.2725489527616
 20
66.135716671112263
 30
0.0
 42
0.0789475685392101
 50
327.55576388790911
  0
VERTEX
  5
41A
  8
0
 10
108.4092494401785
 20
66.122014135509289
 30
0.0
 42
0.0644571111103437
 50
90.0
  0
SEQEND
  5
41B
  8
0
  0
LINE
  5
41C
  8
0
 10
108.4092494401785
 20
57.811831087975463
 30
0.0
 11
108.4092494401785
 21
54.607299535945003
 31
0.0
  0
LINE
  5
41D
  8
0
 10
108.4092494401785
 20
62.391352697667003
 30
0.0
 11
108.4092494401785
 21
59.500503021233548
 31
0.0
  0
POLYLINE
  5
41E
  8
0
 66
     1
 10
0.0
 20
0.0
 30
0.0
  0
VERTEX
  5
41F
  8
0
 10
108.4092494401785
 20
54.607299535945003
 30
0.0
 42
0.1963710675046226
 50
90.0
  0
VERTEX
  5
420
  8
0
 10
108.2870283180588
 20
54.557372900757088
 30
0.0
 42
0.0992025570696904
 50
90.0
  0
VERTEX
  5
421
  8
0
 10
108.1440843972336
 20
54.347272634505629
 30
0.0
 42
0.0566743414169369
 70
     2
 50
247.10088003612381
  0
VERTEX
  5
422
  8
0
 10
108.0656251265044
 20
54.080891037131657
 30
0.0
 42
0.0433295665536664
 50
247.10088003612381
  0
VERTEX
  5
423
  8
0
 10
108.0342494401786
 20
53.719512162468902
 30
0.0
 42
0.0433295665536456
 50
90.0
  0
SEQEND
  5
424
  8
0
  0
POLYLINE
  5
425
  8
0
 66
     1
 10
0.0
 20
0.0
 30
0.0
  0
VERTEX
  5
426
  8
0
 10
108.0342494401786
 20
53.719512162468902
 30
0.0
 42
0.0433295665536456
 50
90.0
  0
VERTEX
  5
427
  8
0
 10
108.0656251265044
 20
53.358133287806247
 30
0.0
 42
0.0566743414169658
 50
90.0
  0
VERTEX
  5
428
  8
0
 10
108.1440843972336
 20
53.09175169043214
 30
0.0
 42
0.0992025570697266
 70
     2
 50
292.89911996388048
  0
VERTEX
  5
429
  8
0
 10
108.2944972911817
 20
52.870673460006628
 30
0.0
 42
0.2280338981645266
 50
292.89911996388048
  0
VERTEX
  5
42A
  8
0
 10
108.4092494401785
 20
52.831724789010188
 30
0.0
 42
0.1963710675046459
 50
90.0
  0
SEQEND
  5
42B
  8
0
  0
POLYLINE
  5
42C
  8
0
 66
     1
 10
0.0
 20
0.0
 30
0.0
  0
VERTEX
  5
42D
  8
0
 10
108.4092494401785
 20
59.500503021233548
 30
0.0
 42
0.2055316714992537
 50
90.0
  0
VERTEX
  5
42E
  8
0
 10
108.2890524546677
 20
59.448915208763992
 30
0.0
 42
0.0965313913509376
 50
90.0
  0
VERTEX
  5
42F
  8
0
 10
108.1440843972334
 20
59.221492846781047
 30
0.0
 42
0.0533986296957384
 70
     2
 50
248.5124580243924
  0
VERTEX
  5
430
  8
0
 10
108.0657245988435
 20
58.93651047188888
 30
0.0
 42
0.0404311354471943
 50
248.5124580243924
  0
VERTEX
  5
431
  8
0
 10
108.0342494401783
 20
58.547902699577719
 30
0.0
 42
0.0404311354471791
 50
90.0
  0
SEQEND
  5
432
  8
0
  0
POLYLINE
  5
433
  8
0
 66
     1
 10
0.0
 20
0.0
 30
0.0
  0
VERTEX
  5
434
  8
0
 10
108.0342494401786
 20
58.547902699577719
 30
0.0
 42
0.0520405140106174
 50
90.0
  0
VERTEX
  5
435
  8
0
 10
108.0652912851335
 20
58.250463506765293
 30
0.0
 42
0.0658985238271168
 50
90.0
  0
VERTEX
  5
436
  8
0
 10
108.1440843972336
 20
58.027421471574819
 30
0.0
 42
0.1046205348859841
 70
     2
 50
296.99708196701908
  0
VERTEX
  5
437
  8
0
 10
108.2896215464564
 20
57.847327251852363
 30
0.0
 42
0.1996909920929194
 50
296.99708196701908
  0
VERTEX
  5
438
  8
0
 10
108.4092494401785
 20
57.811831087975428
 30
0.0
 42
0.172337143622725
 50
90.0
  0
SEQEND
  5
439
  8
0
  0
POLYLINE
  5
43A
  8
0
 66
     1
 10
0.0
 20
0.0
 30
0.0
  0
VERTEX
  5
43B
  8
0
 10
108.0342494401786
 20
62.903656729539328
 30
0.0
 42
0.0737304435607645
 50
90.0
  0
VERTEX
  5
43C
  8
0
 10
108.0642577676153
 20
62.701262742898557
 30
0.0
 42
0.0845717212532976
 50
90.0
  0
VERTEX
  5
43D
  8
0
 10
108.1440843972336
 20
62.541403074573232
 30
0.0
 42
0.1063921108588694
 70
     2
 50
306.20365064702992
  0
VERTEX
  5
43E
  8
0
 10
108.2813614958051
 20
62.419306644588339
 30
0.0
 42
0.1510088585334486
 50
306.20365064702992
  0
VERTEX
  5
43F
  8
0
 10
108.4092494401785
 20
62.391352697663848
 30
0.0
 42
0.1294534172461018
 50
90.0
  0
SEQEND
  5
440
  8
0
  0
POLYLINE
  5
441
  8
0
 66
     1
 10
0.0
 20
0.0
 30
0.0
  0
VERTEX
  5
442
  8
0
 10
108.4092494401785
 20
63.827822842734463
 30
0.0
 42
0.2015894264067176
 50
90.0
  0
VERTEX
  5
443
  8
0
 10
108.288182419912
 20
63.776943531851259
 30
0.0
 42
0.0977170379735125
 50
90.0
  0
VERTEX
  5
444
  8
0
 10
108.1440843972336
 20
63.557140855122412
 30
0.0
 42
0.0547927573384048
 70
     2
 50
247.9141022391737
  0
VERTEX
  5
445
  8
0
 10
108.0656833633612
 20
63.280324275095779
 30
0.0
 42
0.0416539519670256
 50
247.9141022391737
  0
VERTEX
  5
446
  8
0
 10
108.0342494401786
 20
62.903656729539307
 30
0.0
 42
0.0416539519669881
 50
90.0
  0
SEQEND
  5
447
  8
0
  0
LINE
  5
448
  8
0
 10
108.4092494401785
 20
69.694862974876614
 30
0.0
 11
118.1592494401784
 21
69.694862974876614
 31
0.0
  0
LINE
  5
449
  8
0
 10
108.4092494401785
 20
69.694862974876614
 30
0.0
 11
108.4092494401785
 21
69.187315038505943
 31
0.0
  0
LINE
  5
451
  8
2
 10
112.8092494401785
 20
64.219512162468874
 30
0.0
 11
112.3092494401785
 21
64.219512162468874
 31
0.0
  0
LINE
  5
452
  8
2
 10
107.4092494401785
 20
67.219512162468874
 30
0.0
 11
112.3092494401785
 21
64.219512162468874
 31
0.0
  0
LINE
  5
45C
  8
0
 10
108.4092494401785
 20
69.187315038505972
 30
0.0
 11
118.1592494401785
 21
69.187315038505972
 31
0.0
  0
LINE
  5
45D
  8
0
 10
108.4092494401785
 20
68.638632266914726
 30
0.0
 11
118.1592494401784
 21
68.638632266914726
 31
0.0
  0
LINE
  5
45E
  8
0
 10
108.4092494401785
 20
67.165670786109104
 30
0.0
 11
118.1592503938528
 21
67.165670786109104
 31
0.0
  0
LINE
  5
45F
  8
0
 10
108.4092494401785
 20
66.122014135507641
 30
0.0
 11
118.2097083129953
 21
66.122014135507641
 31
0.0
  0
LINE
  5
460
  8
0
 10
108.4092494401785
 20
63.827822842734463
 30
0.0
 11
118.1592515726591
 21
63.827822842734463
 31
0.0
  0
LINE
  5
461
  8
0
 10
108.4092494401785
 20
62.391352697667003
 30
0.0
 11
118.19669072331121
 21
62.391352697667003
 31
0.0
  0
LINE
  5
462
  8
0
 10
108.4092494401785
 20
59.500503021233548
 30
0.0
 11
118.1592503938527
 21
59.500503021233548
 31
0.0
  0
LINE
  5
463
  8
0
 10
108.4092494401785
 20
57.811831087975428
 30
0.0
 11
118.1935437366345
 21
57.811831087975428
 31
0.0
  0
LINE
  5
464
  8
0
 10
108.4092494401785
 20
54.607299535945003
 30
0.0
 11
118.1592494401785
 21
54.607299535944982
 31
0.0
  0
LINE
  5
466
  8
0
 10
107.4092494401785
 20
38.719512162468881
 30
0.0
 11
107.4092494401785
 21
68.719512162468902
 31
0.0
  0
LINE
  5
467
  8
2
 10
107.4092494401785
 20
40.219512162468902
 30
0.0
 11
112.3092494401785
 21
43.219512162468902
 31
0.0
  0
LINE
  5
468
  8
2
 10
112.3092494401785
 20
43.219512162468902
 30
0.0
 11
112.3092494401785
 21
64.219512162468874
 31
0.0
  0
LINE
  5
469
  8
2
 10
112.8092494401785
 20
43.219512162468902
 30
0.0
 11
112.3092494401785
 21
43.219512162468902
 31
0.0
  0
LINE
  5
46A
  8
2
 10
112.8092494401785
 20
64.219512162468874
 30
0.0
 11
112.8092494401785
 21
43.219512162468902
 31
0.0
  0
LINE
  5
46E
  8
0
 10
119.4092494401785
 20
69.719512162468902
 30
0.0
 11
119.4092494401785
 21
37.719512162468902
 31
0.0
  0
LINE
  5
46F
  8
0
 10
128.1092494401785
 20
62.219512162468867
 30
0.0
 11
128.1092494401785
 21
45.219512162468902
 31
0.0
  0
LINE
  5
470
  8
0
 10
118.5342494401784
 20
69.719512162468902
 30
0.0
 11
119.4092494401785
 21
69.719512162468902
 31
0.0
  0
LINE
  5
471
  8
0
 10
120.4092494401785
 20
68.719512162468902
 30
0.0
 11
120.4092494401785
 21
38.719512162468902
 31
0.0
  0
LINE
  5
472
  8
0
 10
120.4092494401785
 20
62.219512162468902
 30
0.0
 11
128.1092494401785
 21
62.219512162468867
 31
0.0
  0
LINE
  5
473
  8
0
 10
129.1092494401785
 20
61.219512162468881
 30
0.0
 11
129.1092494401785
 21
46.219512162468902
 31
0.0
  0
LINE
  5
475
  8
0
 10
108.0342494401887
 20
69.344512162479063
 30
0.0
 11
107.4092494401785
 21
68.719512162468902
 31
0.0
  0
LINE
  5
476
  8
0
 10
119.4092494401785
 20
69.719512162468902
 30
0.0
 11
120.4092494401785
 21
68.719512162468902
 31
0.0
  0
LINE
  5
477
  8
0
 10
128.1092494401785
 20
62.219512162468867
 30
0.0
 11
129.1092494401785
 21
61.219512162468881
 31
0.0
  0
LINE
  5
478
  8
0
 10
128.1092494401785
 20
45.219512162468867
 30
0.0
 11
129.1092494401785
 21
46.219512162468902
 31
0.0
  0
LINE
  5
479
  8
0
 10
119.4092494401785
 20
37.719512162468902
 30
0.0
 11
120.4092494401785
 21
38.719512162468902
 31
0.0
  0
LINE
  5
47A
  8
0
 10
120.4092494401785
 20
45.219512162468867
 30
0.0
 11
128.1092494401785
 21
45.219512162468867
 31
0.0
  0
LINE
  5
47B
  8
1
 10
174.40924944017851
 20
53.719512162468902
 30
0.0
 11
102.4092494401784
 21
53.719512162468902
 31
0.0
  0
CIRCLE
  5
47C
  8
0
 10
225.40924944017851
 20
108.7195121624689
 30
0.0
 40
16.0
  0
LINE
  5
47D
  8
1
 10
225.40924944017851
 20
87.719512162468874
 30
0.0
 11
225.40924944017851
 21
129.7195121624689
 31
0.0
  0
LINE
  5
47E
  8
1
 10
246.40924944017851
 20
108.7195121624688
 30
0.0
 11
204.40924944017851
 21
108.7195121624689
 31
0.0
  0
CIRCLE
  5
481
  8
0
 10
225.40924944017851
 20
108.7195121624688
 30
0.0
 40
15.0
  0
CIRCLE
  5
482
  8
0
 10
225.40924944017851
 20
108.7195121624688
 30
0.0
 40
8.4999999999999858
  0
CIRCLE
  5
483
  8
0
 10
225.40924944017851
 20
108.7195121624688
 30
0.0
 40
7.4999999999999707
  0
CIRCLE
  5
96F
  8
0
 10
225.40924944017851
 20
108.7195121624689
 30
0.0
 40
6.0
  0
LINE
  5
97B
  8
0
 10
169.40924944017851
 20
112.2195121624689
 30
0.0
 11
169.4092494401784
 21
105.2195121624689
 31
0.0
  0
LINE
  5
97C
  8
0
 10
129.4092494401784
 20
103.7195121624688
 30
0.0
 11
167.9092494401784
 21
103.7195121624689
 31
0.0
  0
LINE
  5
97D
  8
3
 10
131.4092494401784
 20
104.5315121624687
 30
0.0
 11
168.72124944017841
 21
104.5315121624688
 31
0.0
  0
LINE
  5
97E
  8
3
 10
131.40924944017851
 20
112.9075121624689
 30
0.0
 11
168.7212494401785
 21
112.907512162469
 31
0.0
  0
LINE
  5
97F
  8
0
 10
129.40924944017851
 20
113.7195121624688
 30
0.0
 11
167.90924944017851
 21
113.7195121624689
 31
0.0
  0
LINE
  5
980
  8
0
 10
167.90924944017851
 20
113.7195121624689
 30
0.0
 11
169.40924944017851
 21
112.2195121624689
 31
0.0
  0
LINE
  5
981
  8
0
 10
169.4092494401784
 20
105.2195121624689
 30
0.0
 11
167.9092494401784
 21
103.7195121624689
 31
0.0
  0
LINE
  5
982
  8
0
 10
131.40924944017851
 20
113.7195121624688
 30
0.0
 11
131.4092494401784
 21
103.7195121624688
 31
0.0
  0
LINE
  5
983
  8
3
 10
131.40924944017851
 20
112.9075121624689
 30
0.0
 11
130.0028241844328
 21
113.7195121624689
 31
0.0
  0
LINE
  5
984
  8
3
 10
131.40924944017851
 20
104.5315121624688
 30
0.0
 11
130.0028241844328
 21
103.7195121624689
 31
0.0
  0
LINE
  5
985
  8
0
 10
167.90924944017851
 20
113.7195121624689
 30
0.0
 11
167.9092494401784
 21
103.7195121624689
 31
0.0
  0
LINE
  5
98A
  8
0
 10
167.9092494401786
 20
168.7195121624689
 30
0.0
 11
167.90924944017851
 21
158.7195121624689
 31
0.0
  0
LINE
  5
98B
  8
3
 10
131.4092494401786
 20
159.5315121624688
 30
0.0
 11
130.0028241844328
 21
158.7195121624689
 31
0.0
  0
LINE
  5
98C
  8
3
 10
131.4092494401786
 20
167.90751216246889
 30
0.0
 11
130.0028241844328
 21
168.7195121624689
 31
0.0
  0
LINE
  5
98D
  8
0
 10
131.4092494401786
 20
168.71951216246879
 30
0.0
 11
131.40924944017851
 21
158.71951216246879
 31
0.0
  0
LINE
  5
98E
  8
0
 10
169.4092494401784
 20
160.2195121624689
 30
0.0
 11
167.90924944017851
 21
158.7195121624689
 31
0.0
  0
LINE
  5
98F
  8
0
 10
167.9092494401786
 20
168.7195121624689
 30
0.0
 11
169.40924944017851
 21
167.2195121624689
 31
0.0
  0
LINE
  5
990
  8
0
 10
129.40924944017851
 20
168.7195121624689
 30
0.0
 11
167.9092494401786
 21
168.7195121624689
 31
0.0
  0
LINE
  5
991
  8
3
 10
131.4092494401786
 20
167.90751216246889
 30
0.0
 11
168.7212494401785
 21
167.907512162469
 31
0.0
  0
LINE
  5
992
  8
3
 10
131.40924944017851
 20
159.53151216246869
 30
0.0
 11
168.72124944017841
 21
159.5315121624688
 31
0.0
  0
LINE
  5
993
  8
0
 10
129.40924944017851
 20
158.71951216246879
 30
0.0
 11
167.90924944017851
 21
158.7195121624689
 31
0.0
  0
LINE
  5
994
  8
0
 10
169.40924944017851
 20
167.2195121624689
 30
0.0
 11
169.4092494401784
 21
160.2195121624689
 31
0.0
  0
LINE
  5
995
  8
0
 10
129.40924944017851
 20
157.7195121624689
 30
0.0
 11
129.40924944017851
 21
169.7195121624689
 31
0.0
  0
LINE
  5
996
  8
0
 10
129.40924944017851
 20
157.7195121624689
 30
0.0
 11
129.1092494401785
 21
157.7195121624689
 31
0.0
  0
LINE
  5
997
  8
0
 10
129.1092494401785
 20
169.7195121624689
 30
0.0
 11
129.40924944017851
 21
169.7195121624689
 31
0.0
  0
LINE
  5
998
  8
0
 10
129.1092494401785
 20
59.719512162468888
 30
0.0
 11
129.40924944017851
 21
59.719512162468888
 31
0.0
  0
LINE
  5
999
  8
0
 10
129.40924944017851
 20
47.719512162468888
 30
0.0
 11
129.1092494401785
 21
47.719512162468888
 31
0.0
  0
LINE
  5
99A
  8
0
 10
129.40924944017851
 20
47.719512162468888
 30
0.0
 11
129.40924944017851
 21
59.719512162468888
 31
0.0
  0
LINE
  5
99B
  8
0
 10
169.40924944017851
 20
57.219512162468888
 30
0.0
 11
169.4092494401784
 21
50.219512162468888
 31
0.0
  0
LINE
  5
99C
  8
0
 10
129.4092494401784
 20
48.71951216246886
 30
0.0
 11
167.9092494401784
 21
48.719512162468881
 31
0.0
  0
LINE
  5
99D
  8
3
 10
131.4092494401784
 20
49.531512162468758
 30
0.0
 11
168.72124944017841
 21
49.531512162468808
 31
0.0
  0
LINE
  5
99E
  8
3
 10
131.40924944017851
 20
57.907512162468961
 30
0.0
 11
168.7212494401785
 21
57.90751216246899
 31
0.0
  0
LINE
  5
99F
  8
0
 10
129.40924944017851
 20
58.719512162468881
 30
0.0
 11
167.90924944017851
 21
58.719512162468881
 31
0.0
  0
LINE
  5
9A0
  8
0
 10
167.90924944017851
 20
58.719512162468881
 30
0.0
 11
169.40924944017851
 21
57.219512162468888
 31
0.0
  0
LINE
  5
9A1
  8
0
 10
169.4092494401784
 20
50.219512162468888
 30
0.0
 11
167.9092494401784
 21
48.719512162468881
 31
0.0
  0
LINE
  5
9A2
  8
0
 10
131.40924944017851
 20
58.71951216246886
 30
0.0
 11
131.4092494401784
 21
48.71951216246886
 31
0.0
  0
LINE
  5
9A3
  8
3
 10
131.40924944017851
 20
57.907512162468961
 30
0.0
 11
130.0028241844328
 21
58.719512162468881
 31
0.0
  0
LINE
  5
9A4
  8
3
 10
131.40924944017851
 20
49.531512162468793
 30
0.0
 11
130.0028241844328
 21
48.719512162468881
 31
0.0
  0
LINE
  5
9A5
  8
0
 10
167.90924944017851
 20
58.719512162468881
 30
0.0
 11
167.9092494401784
 21
48.719512162468881
 31
0.0
  0
CIRCLE
  5
9A7
  8
3
 10
225.40924944017851
 20
108.7195121624689
 30
0.0
 40
4.1879999999999988
  0
CIRCLE
  5
9A8
  8
0
 10
225.40924944017851
 20
108.7195121624689
 30
0.0
 40
5.0
  0
TEXT
  5
A5F
  8
0
 62
     3
 10
0.0
 20
0.0
 30
0.0
 40
10.0
  1
FTK32X40
  7
STANDARD1
  0
ENDSEC
  0
EOF
