  0
SECTION
  2
HEADER
  9
$ACADVER
  1
AC1009
  9
$INSBASE
 10
0.0
 20
0.0
 30
0.0
  9
$EXTMIN
 10
0.0
 20
-2.960436562073669
 30
0.0
  9
$EXTMAX
 10
240.0878089999999929
 20
240.7275180000000034
 30
0.0
  9
$LIMMIN
 10
0.0
 20
0.0
  9
$LIMMAX
 10
375.0
 20
270.0
  9
$ORTHOMODE
 70
     1
  9
$REGENMODE
 70
     1
  9
$FILLMODE
 70
     1
  9
$QTEXTMODE
 70
     0
  9
$MIRRTEXT
 70
     0
  9
$DRAGMODE
 70
     2
  9
$LTSCALE
 40
10.0
  9
$OSMODE
 70
    37
  9
$ATTMODE
 70
     1
  9
$TEXTSIZE
 40
0.2
  9
$TRACEWID
 40
0.05
  9
$TEXTSTYLE
  7
STANDARD
  9
$CLAYER
  8
0
  9
$CELTYPE
  6
BYLAYER
  9
$CECOLOR
 62
   256
  9
$DIMSCALE
 40
1.0
  9
$DIMASZ
 40
3.0
  9
$DIMEXO
 40
2.0
  9
$DIMDLI
 40
10.0
  9
$DIMRND
 40
0.0
  9
$DIMDLE
 40
0.0
  9
$DIMEXE
 40
2.0
  9
$DIMTP
 40
0.0
  9
$DIMTM
 40
0.0
  9
$DIMTXT
 40
3.2000000000000002
  9
$DIMCEN
 40
0.09
  9
$DIMTSZ
 40
0.0
  9
$DIMTOL
 70
     0
  9
$DIMLIM
 70
     0
  9
$DIMTIH
 70
     0
  9
$DIMTOH
 70
     0
  9
$DIMSE1
 70
     0
  9
$DIMSE2
 70
     0
  9
$DIMTAD
 70
     1
  9
$DIMZIN
 70
     0
  9
$DIMBLK
  1

  9
$DIMASO
 70
     0
  9
$DIMSHO
 70
     0
  9
$DIMPOST
  1

  9
$DIMAPOST
  1

  9
$DIMALT
 70
     0
  9
$DIMALTD
 70
     2
  9
$DIMALTF
 40
25.3999999999999986
  9
$DIMLFAC
 40
1.0
  9
$DIMTOFL
 70
     1
  9
$DIMTVP
 40
1.6000000000000001
  9
$DIMTIX
 70
     0
  9
$DIMSOXD
 70
     0
  9
$DIMSAH
 70
     0
  9
$DIMBLK1
  1

  9
$DIMBLK2
  1

  9
$DIMSTYLE
  2
STANDARD
  9
$DIMCLRD
 70
     0
  9
$DIMCLRE
 70
     0
  9
$DIMCLRT
 70
     0
  9
$DIMTFAC
 40
1.0
  9
$DIMGAP
 40
0.09
  9
$LUNITS
 70
     2
  9
$LUPREC
 70
     4
  9
$SKETCHINC
 40
0.1
  9
$FILLETRAD
 40
0.0
  9
$AUNITS
 70
     0
  9
$AUPREC
 70
     0
  9
$MENU
  1
E:\r13\win\SUPPORT\ACAD
  9
$ELEVATION
 40
0.0
  9
$PELEVATION
 40
0.0
  9
$THICKNESS
 40
0.0
  9
$LIMCHECK
 70
     0
  9
$BLIPMODE
 70
     0
  9
$CHAMFERA
 40
0.0
  9
$CHAMFERB
 40
0.0
  9
$SKPOLY
 70
     0
  9
$TDCREATE
 40
2449840.6171296299435198
  9
$TDUPDATE
 40
2460791.4916782411746681
  9
$TDINDWG
 40
0.011891088
  9
$TDUSRTIMER
 40
0.011891088
  9
$USRTIMER
 70
     1
  9
$ANGBASE
 50
0.0
  9
$ANGDIR
 70
     0
  9
$PDMODE
 70
     0
  9
$PDSIZE
 40
0.0
  9
$PLINEWID
 40
0.0
  9
$COORDS
 70
     1
  9
$SPLFRAME
 70
     0
  9
$SPLINETYPE
 70
     6
  9
$SPLINESEGS
 70
     8
  9
$ATTDIA
 70
     1
  9
$ATTREQ
 70
     1
  9
$HANDLING
 70
     1
  9
$HANDSEED
  5
2FB
  9
$SURFTAB1
 70
     6
  9
$SURFTAB2
 70
     6
  9
$SURFTYPE
 70
     6
  9
$SURFU
 70
     6
  9
$SURFV
 70
     6
  9
$UCSNAME
  2

  9
$UCSORG
 10
0.0
 20
0.0
 30
0.0
  9
$UCSXDIR
 10
1.0
 20
0.0
 30
0.0
  9
$UCSYDIR
 10
0.0
 20
1.0
 30
0.0
  9
$PUCSNAME
  2

  9
$PUCSORG
 10
0.0
 20
0.0
 30
0.0
  9
$PUCSXDIR
 10
1.0
 20
0.0
 30
0.0
  9
$PUCSYDIR
 10
0.0
 20
1.0
 30
0.0
  9
$USERI1
 70
     0
  9
$USERI2
 70
     1
  9
$USERI3
 70
     0
  9
$USERI4
 70
     0
  9
$USERI5
 70
     0
  9
$USERR1
 40
0.0
  9
$USERR2
 40
0.0
  9
$USERR3
 40
0.0
  9
$USERR4
 40
0.0
  9
$USERR5
 40
0.0
  9
$WORLDVIEW
 70
     1
  9
$SHADEDGE
 70
     3
  9
$SHADEDIF
 70
    70
  9
$TILEMODE
 70
     1
  9
$MAXACTVP
 70
    16
  9
$PLIMCHECK
 70
     0
  9
$PEXTMIN
 10
1.0000000000000000E+20
 20
1.0000000000000000E+20
 30
1.0000000000000000E+20
  9
$PEXTMAX
 10
-1.0000000000000000E+20
 20
-1.0000000000000000E+20
 30
-1.0000000000000000E+20
  9
$PLIMMIN
 10
0.0
 20
0.0
  9
$PLIMMAX
 10
12.0
 20
9.0
  9
$UNITMODE
 70
     0
  9
$VISRETAIN
 70
     0
  9
$PLINEGEN
 70
     0
  9
$PSLTSCALE
 70
     0
  0
ENDSEC
  0
SECTION
  2
TABLES
  0
TABLE
  2
VPORT
 70
     1
  0
VPORT
  2
*ACTIVE
 70
     0
 10
0.0
 20
0.0
 11
1.0
 21
1.0
 12
293.5652709359605979
 22
125.4421689252150003
 13
0.0
 23
0.0
 14
10.0
 24
10.0
 15
10.0
 25
10.0
 16
0.0
 26
0.0
 36
1.0
 17
0.0
 27
0.0
 37
0.0
 40
250.8843378504300858
 41
2.340243902439024
 42
50.0
 43
0.0
 44
0.0
 50
0.0
 51
0.0
 71
     0
 72
   100
 73
     1
 74
     0
 75
     0
 76
     0
 77
     0
 78
     0
  0
ENDTAB
  0
TABLE
  2
LTYPE
 70
     3
  0
LTYPE
  2
CONTINUOUS
 70
     0
  3
Solid Line
 72
    65
 73
     0
 40
0.0
  0
LTYPE
  2
CENTER
 70
     0
  3
____ _ ____ _ ____ _ ____ _ ____ _ ____ _ ____
 72
    65
 73
     4
 40
2.0
 49
1.25
 49
-0.25
 49
0.25
 49
-0.25
  0
LTYPE
  2
HIDDEN
 70
     0
  3
Hidden __ __ __ __ __ __ __ __ __ __ __ __ __ _
 72
    65
 73
     2
 40
0.375
 49
0.25
 49
-0.125
  0
ENDTAB
  0
TABLE
  2
LAYER
 70
     4
  0
LAYER
  2
0
 70
     0
 62
     7
  6
CONTINUOUS
  0
LAYER
  2
1
 70
     0
 62
     1
  6
CENTER
  0
LAYER
  2
3
 70
     0
 62
     3
  6
CONTINUOUS
  0
LAYER
  2
2
 70
     0
 62
     2
  6
HIDDEN
  0
ENDTAB
  0
TABLE
  2
STYLE
 70
     3
  0
STYLE
  2
STANDARD
 70
     0
 40
0.0
 41
1.0
 50
0.0
 71
     0
 42
0.2
  3
TXT
  4
BIGFONT
  0
STYLE
  2
COMPLEX
 70
     0
 40
3.5
 41
0.4
 50
0.0
 71
     0
 42
3.0
  3
COMPLEX
  4

  0
STYLE
  2
STANDARD1
 70
     0
 40
0.0
 41
1.0
 50
0.0
 71
     0
 42
3.0
  3
txt
  4

  0
ENDTAB
  0
TABLE
  2
VIEW
 70
     1
  0
VIEW
  2
ALL
 70
     0
 40
270.0
 10
220.9915970000000129
 20
135.0
 41
0.0
 11
0.0
 21
0.0
 31
1.0
 12
0.0
 22
0.0
 32
0.0
 42
0.0
 43
0.0
 44
0.0
 50
0.0
 71
     0
  0
ENDTAB
  0
TABLE
  2
UCS
 70
     0
  0
ENDTAB
  0
TABLE
  2
APPID
 70
     3
  0
APPID
  2
ACAD
 70
     0
  0
APPID
  2
ACAD_MLEADERVER
 70
     0
  0
APPID
  2
ACAD_NAV_VCDISPLAY
 70
     0
  0
ENDTAB
  0
TABLE
  2
DIMSTYLE
 70
     1
  0
DIMSTYLE
  2
STANDARD
 70
     0
  3

  4

  5

  6

  7

 40
1.0
 41
0.18
 42
0.0625
 43
0.38
 44
0.18
 45
0.0
 46
0.0
 47
0.0
 48
0.0
140
0.18
141
0.09
142
0.0
143
25.3999999999999986
144
1.0
145
0.0
146
1.0
147
0.09
 71
     0
 72
     0
 73
     1
 74
     1
 75
     0
 76
     0
 77
     0
 78
     0
170
     0
171
     2
172
     0
173
     0
174
     0
175
     0
176
     0
177
     0
178
     0
  0
ENDTAB
  0
ENDSEC
  0
SECTION
  2
BLOCKS
  0
BLOCK
  8
0
  2
$MODEL_SPACE
 70
     0
 10
0.0
 20
0.0
 30
0.0
  3
$MODEL_SPACE
  1

  0
ENDBLK
  5
E8
  8
0
  0
BLOCK
 67
     1
  8
0
  2
$PAPER_SPACE
 70
     0
 10
0.0
 20
0.0
 30
0.0
  3
$PAPER_SPACE
  1

  0
ENDBLK
  5
E6
 67
     1
  8
0
  0
ENDSEC
  0
SECTION
  2
ENTITIES
  0
CIRCLE
  5
37
  8
0
 10
133.5878089999999929
 20
215.2275180000000034
 30
0.0
 40
20.5
  0
LINE
  5
38
  8
1
 10
108.0878089999999929
 20
215.2275180000000034
 30
0.0
 11
159.0878089999999929
 21
215.2275180000000034
 31
0.0
  0
LINE
  5
3A
  8
1
 10
133.5878089999999929
 20
240.7275180000000034
 30
0.0
 11
133.5878089999999929
 21
189.7275180000000034
 31
0.0
  0
CIRCLE
  5
3D
  8
0
 10
133.5878089999999929
 20
215.2275180000000034
 30
0.0
 40
18.5
  0
CIRCLE
  5
3E
  8
0
 10
133.5878089999999929
 20
215.2275180000000034
 30
0.0
 40
11.0
  0
CIRCLE
  5
3F
  8
0
 10
133.5878089999999929
 20
215.2275180000000034
 30
0.0
 40
7.5
  0
TEXT
  5
44
  8
0
 10
131.2544756666665933
 20
213.7275180000000034
 30
0.0
 40
3.5
  1
Kipp
 41
0.4
  7
COMPLEX
 72
     1
 11
133.5878089999999929
 21
213.7275180000000034
 31
0.0
  0
LINE
  5
52
  8
1
 10
108.0878089999999929
 20
146.2275180000000034
 30
0.0
 11
159.0878089999999929
 21
146.2275180000000034
 31
0.0
  0
LINE
  5
53
  8
0
 10
115.0878089999999929
 20
154.7275180000000034
 30
0.0
 11
113.0878089999999929
 21
152.7275180000000034
 31
0.0
  0
LINE
  5
54
  8
0
 10
113.0878089999999929
 20
152.7275180000000034
 30
0.0
 11
113.0878089999999929
 21
135.7275180000000034
 31
0.0
  0
LINE
  5
55
  8
0
 10
113.0878089999999929
 20
135.7275180000000034
 30
0.0
 11
114.0878089999999929
 21
134.7275180000000034
 31
0.0
  0
LINE
  5
56
  8
0
 10
124.0878089999999929
 20
134.7275180000000034
 30
0.0
 11
124.0878089999999929
 21
133.3275179999999978
 31
0.0
  0
LINE
  5
57
  8
0
 10
124.0878089999999929
 20
133.3275179999999978
 30
0.0
 11
124.6878090000000014
 21
132.7275179999998898
 31
0.0
  0
LINE
  5
58
  8
0
 10
143.0878089999999929
 20
133.3275179999999978
 30
0.0
 11
142.4878089999999986
 21
132.7275179999998898
 31
0.0
  0
LINE
  5
59
  8
0
 10
143.0878089999999929
 20
134.7275180000000034
 30
0.0
 11
143.0878089999999929
 21
133.3275179999999978
 31
0.0
  0
LINE
  5
5A
  8
0
 10
154.0878089999999929
 20
135.7275180000000034
 30
0.0
 11
153.0878089999999929
 21
134.7275180000000034
 31
0.0
  0
LINE
  5
5B
  8
2
 10
154.0878089999999929
 20
152.7275180000000034
 30
0.0
 11
154.0878089999999929
 21
152.2275180000000034
 31
0.0
  0
LINE
  5
5C
  8
0
 10
152.0878089999999929
 20
154.7275180000000034
 30
0.0
 11
154.0878089999999929
 21
152.7275180000000034
 31
0.0
  0
LINE
  5
5D
  8
0
 10
115.0878089999999929
 20
154.7275180000000034
 30
0.0
 11
152.0878089999999929
 21
154.7275180000000034
 31
0.0
  0
LINE
  5
5E
  8
0
 10
154.0878089999999929
 20
152.7275180000000034
 30
0.0
 11
113.0878089999999929
 21
152.7275180000000034
 31
0.0
  0
LINE
  5
5F
  8
0
 10
113.0878089999999929
 20
135.7275180000000034
 30
0.0
 11
154.0878089999999929
 21
135.7275180000000034
 31
0.0
  0
LINE
  5
60
  8
0
 10
114.0878089999999929
 20
134.7275180000000034
 30
0.0
 11
153.0878089999999929
 21
134.7275180000000034
 31
0.0
  0
LINE
  5
61
  8
0
 10
124.6878090000000014
 20
132.7275179999998898
 30
0.0
 11
142.4878089999999986
 21
132.7275179999998898
 31
0.0
  0
ARC
  5
62
  8
0
 10
173.6901049999999884
 20
146.2275180000000034
 30
0.0
 40
20.5
 50
162.9813530000000128
 51
197.0186469999999872
  0
LINE
  5
63
  8
0
 10
154.0878089999999929
 20
140.2275180000000034
 30
0.0
 11
154.0878089999999929
 21
135.7275180000000034
 31
0.0
  0
LINE
  5
64
  8
1
 10
133.5878089999999929
 20
159.7275180000000034
 30
0.0
 11
133.5878089999999929
 21
127.727517999999904
 31
0.0
  0
LINE
  5
65
  8
0
 10
124.0878089999999929
 20
133.3275179999999978
 30
0.0
 11
143.0878089999999929
 21
133.3275179999999978
 31
0.0
  0
LINE
  5
6A
  8
1
 10
133.5878089999999929
 20
97.727517999999975
 30
0.0
 11
133.5878089999999929
 21
46.7275179999999679
 31
0.0
  0
LINE
  5
6C
  8
1
 10
108.0878089999999929
 20
72.227517999999975
 30
0.0
 11
159.0878089999999929
 21
72.227517999999975
 31
0.0
  0
CIRCLE
  5
6D
  8
0
 10
133.5878089999999929
 20
72.227517999999975
 30
0.0
 40
20.5
  0
CIRCLE
  5
6E
  8
0
 10
133.5878089999999929
 20
72.227517999999975
 30
0.0
 40
19.5
  0
CIRCLE
  5
6F
  8
0
 10
133.5878089999999929
 20
72.227517999999975
 30
0.0
 40
9.5
  0
CIRCLE
  5
70
  8
0
 10
133.5878089999999929
 20
72.227517999999975
 30
0.0
 40
8.9000000000000004
  0
CIRCLE
  5
71
  8
3
 10
133.5878089999999929
 20
72.227517999999975
 30
0.0
 40
5.0
  0
CIRCLE
  5
72
  8
0
 10
133.5878089999999929
 20
72.227517999999975
 30
0.0
 40
4.1879999999999988
  0
LINE
  5
74
  8
1
 10
214.5878089999999929
 20
159.7275180000000034
 30
0.0
 11
214.5878089999999929
 21
127.7275180000000034
 31
0.0
  0
LINE
  5
75
  8
0
 10
235.0878089999999929
 20
152.7275180000000034
 30
0.0
 11
235.0878089999999929
 21
135.7275180000000034
 31
0.0
  0
LINE
  5
79
  8
0
 10
235.0878089999999929
 20
152.7275180000000034
 30
0.0
 11
194.0878089999999929
 21
152.7275180000000034
 31
0.0
  0
LINE
  5
7B
  8
0
 10
233.0878089999999929
 20
154.7275180000000034
 30
0.0
 11
235.0878089999999929
 21
152.7275180000000034
 31
0.0
  0
LINE
  5
7C
  8
0
 10
235.0878089999999929
 20
135.7275180000000034
 30
0.0
 11
234.0878089999999929
 21
134.7275180000000034
 31
0.0
  0
LINE
  5
7D
  8
0
 10
224.0878089999999929
 20
134.7275180000000034
 30
0.0
 11
224.0878089999999929
 21
133.3275179999999978
 31
0.0
  0
LINE
  5
7E
  8
0
 10
224.0878089999999929
 20
133.3275179999999978
 30
0.0
 11
223.4878089999999986
 21
132.7275179999998898
 31
0.0
  0
LINE
  5
7F
  8
0
 10
205.0878089999999929
 20
133.3275179999999978
 30
0.0
 11
205.6878089999999872
 21
132.7275179999998898
 31
0.0
  0
LINE
  5
80
  8
0
 10
205.0878089999999929
 20
134.7275180000000034
 30
0.0
 11
205.0878089999999929
 21
133.3275179999999978
 31
0.0
  0
LINE
  5
81
  8
0
 10
194.0878089999999929
 20
135.7275180000000034
 30
0.0
 11
195.0878089999999929
 21
134.7275180000000034
 31
0.0
  0
LINE
  5
82
  8
0
 10
194.0878089999999929
 20
152.7275180000000034
 30
0.0
 11
194.0878089999999929
 21
135.7275180000000034
 31
0.0
  0
LINE
  5
83
  8
0
 10
196.0878089999999929
 20
154.7275180000000034
 30
0.0
 11
194.0878089999999929
 21
152.7275180000000034
 31
0.0
  0
LINE
  5
84
  8
1
 10
189.0878089999999929
 20
146.2275180000000034
 30
0.0
 11
240.0878089999999929
 21
146.2275180000000034
 31
0.0
  0
LINE
  5
86
  8
0
 10
196.0878089999999929
 20
154.7275180000000034
 30
0.0
 11
233.0878089999999929
 21
154.7275180000000034
 31
0.0
  0
LINE
  5
88
  8
0
 10
194.0878089999999929
 20
135.7275180000000034
 30
0.0
 11
235.0878089999999929
 21
135.7275180000000034
 31
0.0
  0
LINE
  5
89
  8
0
 10
195.0878090000001066
 20
134.7275180000000034
 30
0.0
 11
234.0878089999999929
 21
134.7275180000000034
 31
0.0
  0
LINE
  5
8A
  8
0
 10
205.0878089999999929
 20
133.3275179999999978
 30
0.0
 11
224.0878089999999929
 21
133.3275179999999978
 31
0.0
  0
LINE
  5
8B
  8
0
 10
205.6878089999999872
 20
132.7275179999998898
 30
0.0
 11
223.4878089999999986
 21
132.7275179999998898
 31
0.0
  0
LINE
  5
8C
  8
0
 10
73.0878089999999929
 20
152.7275180000000034
 30
0.0
 11
32.087809
 21
152.7275180000000034
 31
0.0
  0
LINE
  5
8E
  8
1
 10
27.0878089999999894
 20
146.2275180000000034
 30
0.0
 11
78.0878089999999929
 21
146.2275180000000034
 31
0.0
  0
LINE
  5
8F
  8
0
 10
34.087809
 20
154.7275180000000034
 30
0.0
 11
32.087809
 21
152.7275180000000034
 31
0.0
  0
LINE
  5
90
  8
0
 10
32.087809
 20
152.7275180000000034
 30
0.0
 11
32.087809
 21
135.7275180000000034
 31
0.0
  0
LINE
  5
91
  8
0
 10
32.087809
 20
135.7275180000000034
 30
0.0
 11
33.087809
 21
134.7275180000000034
 31
0.0
  0
LINE
  5
92
  8
0
 10
43.087809
 20
134.7275180000000034
 30
0.0
 11
43.087809
 21
133.3275179999999978
 31
0.0
  0
LINE
  5
93
  8
0
 10
43.087809
 20
133.3275179999999978
 30
0.0
 11
43.6878089999999872
 21
132.7275179999998898
 31
0.0
  0
LINE
  5
94
  8
0
 10
62.0878089999999929
 20
133.3275179999999978
 30
0.0
 11
61.4878089999999986
 21
132.7275179999998898
 31
0.0
  0
LINE
  5
95
  8
0
 10
62.0878089999999929
 20
134.7275180000000034
 30
0.0
 11
62.0878089999999929
 21
133.3275179999999978
 31
0.0
  0
LINE
  5
96
  8
0
 10
73.0878089999999929
 20
135.7275180000000034
 30
0.0
 11
72.0878089999999929
 21
134.7275180000000034
 31
0.0
  0
LINE
  5
97
  8
0
 10
71.0878089999999929
 20
154.7275180000000034
 30
0.0
 11
73.0878089999999929
 21
152.7275180000000034
 31
0.0
  0
LINE
  5
98
  8
0
 10
34.087809
 20
154.7275180000000034
 30
0.0
 11
71.0878089999999929
 21
154.7275180000000034
 31
0.0
  0
LINE
  5
99
  8
0
 10
32.087809
 20
135.7275180000000034
 30
0.0
 11
73.0878089999999929
 21
135.7275180000000034
 31
0.0
  0
LINE
  5
9A
  8
0
 10
33.087809
 20
134.7275180000000034
 30
0.0
 11
72.0878089999999929
 21
134.7275180000000034
 31
0.0
  0
LINE
  5
9B
  8
0
 10
43.6878089999999872
 20
132.7275179999998898
 30
0.0
 11
61.4878089999999986
 21
132.7275179999998898
 31
0.0
  0
LINE
  5
9C
  8
0
 10
73.0878089999999929
 20
152.7275180000000034
 30
0.0
 11
73.0878089999999929
 21
135.7275180000000034
 31
0.0
  0
LINE
  5
9D
  8
1
 10
52.587809
 20
159.7275180000000034
 30
0.0
 11
52.5878089999999929
 21
127.7275180000000034
 31
0.0
  0
LINE
  5
9E
  8
0
 10
43.087809
 20
133.3275179999999978
 30
0.0
 11
62.0878089999999929
 21
133.3275179999999978
 31
0.0
  0
LINE
  5
A9
  8
2
 10
128.5878089999999929
 20
153.7275180000000034
 30
0.0
 11
138.5878089999999929
 21
153.7275180000000034
 31
0.0
  0
LINE
  5
AA
  8
2
 10
137.7758090000000095
 20
153.7275180000000034
 30
0.0
 11
137.7758090000000095
 21
132.7275179999998898
 31
0.0
  0
LINE
  5
AB
  8
2
 10
129.3998090000000047
 20
153.7275180000000034
 30
0.0
 11
129.3998090000000047
 21
132.7275179999998898
 31
0.0
  0
LINE
  5
AC
  8
2
 10
138.5878089999999929
 20
153.7275180000000034
 30
0.0
 11
138.5878089999999929
 21
132.7275179999998898
 31
0.0
  0
LINE
  5
AD
  8
2
 10
128.5878089999999929
 20
153.7275180000000034
 30
0.0
 11
128.5878089999999929
 21
132.7275179999998898
 31
0.0
  0
LINE
  5
AE
  8
2
 10
47.5878089999999929
 20
153.7275180000000034
 30
0.0
 11
47.5878089999999929
 21
132.7275179999998898
 31
0.0
  0
LINE
  5
AF
  8
2
 10
57.5878089999999929
 20
153.7275180000000034
 30
0.0
 11
57.5878089999999929
 21
132.7275179999998898
 31
0.0
  0
LINE
  5
B0
  8
2
 10
48.3998089999999976
 20
153.7275180000000034
 30
0.0
 11
48.3998089999999976
 21
132.7275179999998898
 31
0.0
  0
LINE
  5
B1
  8
2
 10
56.7758089999999882
 20
153.7275180000000034
 30
0.0
 11
56.7758089999999882
 21
132.7275179999998898
 31
0.0
  0
LINE
  5
B2
  8
2
 10
47.5878089999999929
 20
153.7275180000000034
 30
0.0
 11
57.5878089999999929
 21
153.7275180000000034
 31
0.0
  0
LINE
  5
113
  8
2
 10
152.5878089999999929
 20
152.2275180000000034
 30
0.0
 11
154.0878089999999929
 21
152.2275180000000034
 31
0.0
  0
LINE
  5
114
  8
2
 10
152.5878089999999929
 20
140.2275180000000034
 30
0.0
 11
154.0878089999999929
 21
140.2275180000000034
 31
0.0
  0
LINE
  5
115
  8
2
 10
152.5878089999999929
 20
152.2275180000000034
 30
0.0
 11
152.5878089999999929
 21
140.2275180000000034
 31
0.0
  0
LINE
  5
116
  8
2
 10
145.0878089999999929
 20
151.2275180000000034
 30
0.0
 11
152.5878089999999929
 21
151.2275180000000034
 31
0.0
  0
LINE
  5
117
  8
2
 10
145.0878089999999929
 20
150.4155179999999916
 30
0.0
 11
152.5878089999999929
 21
150.4155179999999916
 31
0.0
  0
LINE
  5
118
  8
2
 10
145.0878089999999929
 20
142.0395179999999868
 30
0.0
 11
152.5878089999999929
 21
142.0395179999999868
 31
0.0
  0
LINE
  5
119
  8
2
 10
145.0878089999999929
 20
141.2275180000000034
 30
0.0
 11
152.5878089999999929
 21
141.2275180000000034
 31
0.0
  0
LINE
  5
11C
  8
2
 10
145.0878089999999929
 20
151.2275180000000034
 30
0.0
 11
145.0878089999999929
 21
141.2275180000000034
 31
0.0
  0
CIRCLE
  5
128
  8
0
 10
214.5878089999999929
 20
146.2275179999998898
 30
0.0
 40
5.999999861933901
  0
CIRCLE
  5
129
  8
3
 10
214.5878089999999929
 20
146.2275179999998898
 30
0.0
 40
5.000000000000056
  0
CIRCLE
  5
12A
  8
0
 10
214.5878089999999929
 20
146.2275179999998898
 30
0.0
 40
4.188000000000045
  0
TEXT
  5
1EA
  8
0
 62
     3
 10
0.0
 20
0.0
 30
0.0
 40
10.0
  1
FTFN10
  7
STANDARD1
  0
ENDSEC
  0
EOF
