  0
SECTION
  2
HEADER
  9
$ACADVER
  1
AC1009
  9
$INSBASE
 10
0.0
 20
0.0
 30
0.0
  9
$EXTMIN
 10
0.0
 20
-2.960436562073669
 30
0.0
  9
$EXTMAX
 10
434.4942458863433785
 20
330.0158092973404109
 30
0.0
  9
$LIMMIN
 10
0.0
 20
0.0
  9
$LIMMAX
 10
375.0
 20
270.0
  9
$ORTHOMODE
 70
     1
  9
$REGENMODE
 70
     1
  9
$FILLMODE
 70
     1
  9
$QTEXTMODE
 70
     0
  9
$MIRRTEXT
 70
     0
  9
$DRAGMODE
 70
     2
  9
$LTSCALE
 40
10.0
  9
$OSMODE
 70
    37
  9
$ATTMODE
 70
     1
  9
$TEXTSIZE
 40
0.2
  9
$TRACEWID
 40
0.05
  9
$TEXTSTYLE
  7
STANDARD
  9
$CLAYER
  8
0
  9
$CELTYPE
  6
BYLAYER
  9
$CECOLOR
 62
   256
  9
$DIMSCALE
 40
1.0
  9
$DIMASZ
 40
3.0
  9
$DIMEXO
 40
2.0
  9
$DIMDLI
 40
10.0
  9
$DIMRND
 40
0.0
  9
$DIMDLE
 40
0.0
  9
$DIMEXE
 40
2.0
  9
$DIMTP
 40
0.0
  9
$DIMTM
 40
0.0
  9
$DIMTXT
 40
3.2000000000000002
  9
$DIMCEN
 40
0.09
  9
$DIMTSZ
 40
0.0
  9
$DIMTOL
 70
     0
  9
$DIMLIM
 70
     0
  9
$DIMTIH
 70
     0
  9
$DIMTOH
 70
     0
  9
$DIMSE1
 70
     0
  9
$DIMSE2
 70
     0
  9
$DIMTAD
 70
     1
  9
$DIMZIN
 70
     8
  9
$DIMBLK
  1

  9
$DIMASO
 70
     0
  9
$DIMSHO
 70
     0
  9
$DIMPOST
  1

  9
$DIMAPOST
  1

  9
$DIMALT
 70
     0
  9
$DIMALTD
 70
     2
  9
$DIMALTF
 40
25.3999999999999986
  9
$DIMLFAC
 40
1.0
  9
$DIMTOFL
 70
     1
  9
$DIMTVP
 40
1.6000000000000001
  9
$DIMTIX
 70
     1
  9
$DIMSOXD
 70
     0
  9
$DIMSAH
 70
     0
  9
$DIMBLK1
  1

  9
$DIMBLK2
  1

  9
$DIMSTYLE
  2
STANDARD
  9
$DIMCLRD
 70
     0
  9
$DIMCLRE
 70
     0
  9
$DIMCLRT
 70
     0
  9
$DIMTFAC
 40
1.0
  9
$DIMGAP
 40
0.09
  9
$LUNITS
 70
     2
  9
$LUPREC
 70
     1
  9
$SKETCHINC
 40
0.1
  9
$FILLETRAD
 40
0.0
  9
$AUNITS
 70
     0
  9
$AUPREC
 70
     0
  9
$MENU
  1
E:\r13\win\SUPPORT\ACAD
  9
$ELEVATION
 40
0.0
  9
$PELEVATION
 40
0.0
  9
$THICKNESS
 40
0.0
  9
$LIMCHECK
 70
     0
  9
$BLIPMODE
 70
     0
  9
$CHAMFERA
 40
0.0
  9
$CHAMFERB
 40
0.0
  9
$SKPOLY
 70
     0
  9
$TDCREATE
 40
2449840.6171296299435198
  9
$TDUPDATE
 40
2460791.491666667163372
  9
$TDINDWG
 40
0.0512242708
  9
$TDUSRTIMER
 40
0.0512242708
  9
$USRTIMER
 70
     1
  9
$ANGBASE
 50
0.0
  9
$ANGDIR
 70
     0
  9
$PDMODE
 70
     0
  9
$PDSIZE
 40
0.0
  9
$PLINEWID
 40
0.0
  9
$COORDS
 70
     1
  9
$SPLFRAME
 70
     0
  9
$SPLINETYPE
 70
     6
  9
$SPLINESEGS
 70
     8
  9
$ATTDIA
 70
     1
  9
$ATTREQ
 70
     1
  9
$HANDLING
 70
     1
  9
$HANDSEED
  5
F45
  9
$SURFTAB1
 70
     6
  9
$SURFTAB2
 70
     6
  9
$SURFTYPE
 70
     6
  9
$SURFU
 70
     6
  9
$SURFV
 70
     6
  9
$UCSNAME
  2

  9
$UCSORG
 10
0.0
 20
0.0
 30
0.0
  9
$UCSXDIR
 10
1.0
 20
0.0
 30
0.0
  9
$UCSYDIR
 10
0.0
 20
1.0
 30
0.0
  9
$PUCSNAME
  2

  9
$PUCSORG
 10
0.0
 20
0.0
 30
0.0
  9
$PUCSXDIR
 10
1.0
 20
0.0
 30
0.0
  9
$PUCSYDIR
 10
0.0
 20
1.0
 30
0.0
  9
$USERI1
 70
     0
  9
$USERI2
 70
     1
  9
$USERI3
 70
     0
  9
$USERI4
 70
     0
  9
$USERI5
 70
     0
  9
$USERR1
 40
0.0
  9
$USERR2
 40
0.0
  9
$USERR3
 40
0.0
  9
$USERR4
 40
0.0
  9
$USERR5
 40
0.0
  9
$WORLDVIEW
 70
     1
  9
$SHADEDGE
 70
     3
  9
$SHADEDIF
 70
    70
  9
$TILEMODE
 70
     1
  9
$MAXACTVP
 70
    16
  9
$PLIMCHECK
 70
     0
  9
$PEXTMIN
 10
1.0000000000000000E+20
 20
1.0000000000000000E+20
 30
1.0000000000000000E+20
  9
$PEXTMAX
 10
-1.0000000000000000E+20
 20
-1.0000000000000000E+20
 30
-1.0000000000000000E+20
  9
$PLIMMIN
 10
0.0
 20
0.0
  9
$PLIMMAX
 10
12.0
 20
9.0
  9
$UNITMODE
 70
     0
  9
$VISRETAIN
 70
     0
  9
$PLINEGEN
 70
     0
  9
$PSLTSCALE
 70
     0
  0
ENDSEC
  0
SECTION
  2
TABLES
  0
TABLE
  2
VPORT
 70
     1
  0
VPORT
  2
*ACTIVE
 70
     0
 10
0.0
 20
0.0
 11
1.0
 21
1.0
 12
399.2487684729064199
 22
170.6013497382924129
 13
0.0
 23
0.0
 14
10.0
 24
10.0
 15
10.0
 25
10.0
 16
0.0
 26
0.0
 36
1.0
 17
0.0
 27
0.0
 37
0.0
 40
341.2026994765848826
 41
2.340243902439024
 42
50.0
 43
0.0
 44
0.0
 50
0.0
 51
0.0
 71
     0
 72
   100
 73
     1
 74
     0
 75
     0
 76
     0
 77
     0
 78
     0
  0
ENDTAB
  0
TABLE
  2
LTYPE
 70
     4
  0
LTYPE
  2
CONTINUOUS
 70
     0
  3
Solid Line
 72
    65
 73
     0
 40
0.0
  0
LTYPE
  2
CENTER
 70
     0
  3
____ _ ____ _ ____ _ ____ _ ____ _ ____ _ ____
 72
    65
 73
     4
 40
2.0
 49
1.25
 49
-0.25
 49
0.25
 49
-0.25
  0
LTYPE
  2
DASHED
 70
     0
  3
__ __ __ __ __ __ __ __ __ __ __ __ __ __ __
 72
    65
 73
     2
 40
0.75
 49
0.5
 49
-0.25
  0
LTYPE
  2
PHANTOM2
 70
     0
  3
___ _ _ ___ _ _ ___ _ _ ___ _ _
 72
    65
 73
     6
 40
1.25
 49
0.625
 49
-0.125
 49
0.125
 49
-0.125
 49
0.125
 49
-0.125
  0
ENDTAB
  0
TABLE
  2
LAYER
 70
     5
  0
LAYER
  2
0
 70
     0
 62
     7
  6
CONTINUOUS
  0
LAYER
  2
1
 70
     0
 62
     1
  6
CENTER
  0
LAYER
  2
3
 70
     0
 62
     3
  6
CONTINUOUS
  0
LAYER
  2
2
 70
     0
 62
     2
  6
DASHED
  0
LAYER
  2
DEFPOINTS
 70
     0
 62
     7
  6
CONTINUOUS
  0
ENDTAB
  0
TABLE
  2
STYLE
 70
     3
  0
STYLE
  2
STANDARD
 70
     0
 40
0.0
 41
1.0
 50
0.0
 71
     0
 42
0.2
  3
TXT
  4
BIGFONT
  0
STYLE
  2
COMPLEX
 70
     0
 40
3.5
 41
0.4
 50
0.0
 71
     0
 42
3.0
  3
COMPLEX
  4

  0
STYLE
  2
STANDARD1
 70
     0
 40
0.0
 41
1.0
 50
0.0
 71
     0
 42
3.0
  3
txt
  4

  0
ENDTAB
  0
TABLE
  2
VIEW
 70
     1
  0
VIEW
  2
ALL
 70
     0
 40
270.0
 10
220.9915970000000129
 20
135.0
 41
0.0
 11
0.0
 21
0.0
 31
1.0
 12
0.0
 22
0.0
 32
0.0
 42
0.0
 43
0.0
 44
0.0
 50
0.0
 71
     0
  0
ENDTAB
  0
TABLE
  2
UCS
 70
     0
  0
ENDTAB
  0
TABLE
  2
APPID
 70
     7
  0
APPID
  2
ACAD
 70
     0
  0
APPID
  2
ACAD_MLEADERVER
 70
     0
  0
APPID
  2
ACAD_NAV_VCDISPLAY
 70
     0
  0
APPID
  2
ACAD_EXEMPT_FROM_CAD_STANDARDS
 70
     0
  0
APPID
  2
ACAD_DSTYLE_DIMRADIAL_EXTENSION
 70
     0
  0
APPID
  2
ACAD_DSTYLE_DIMJAG
 70
     0
  0
APPID
  2
ACAD_DSTYLE_DIMTALN
 70
     0
  0
ENDTAB
  0
TABLE
  2
DIMSTYLE
 70
     1
  0
DIMSTYLE
  2
STANDARD
 70
     0
  3

  4

  5

  6

  7

 40
1.0
 41
0.18
 42
0.0625
 43
0.38
 44
0.18
 45
0.0
 46
0.0
 47
0.0
 48
0.0
140
0.18
141
0.09
142
0.0
143
25.3999999999999986
144
1.0
145
0.0
146
1.0
147
0.09
 71
     0
 72
     0
 73
     1
 74
     1
 75
     0
 76
     0
 77
     0
 78
     0
170
     0
171
     2
172
     0
173
     0
174
     0
175
     0
176
     0
177
     0
178
     0
  0
ENDTAB
  0
ENDSEC
  0
SECTION
  2
BLOCKS
  0
BLOCK
  8
0
  2
$MODEL_SPACE
 70
     0
 10
0.0
 20
0.0
 30
0.0
  3
$MODEL_SPACE
  1

  0
ENDBLK
  5
E8
  8
0
  0
BLOCK
 67
     1
  8
0
  2
$PAPER_SPACE
 70
     0
 10
0.0
 20
0.0
 30
0.0
  3
$PAPER_SPACE
  1

  0
ENDBLK
  5
E6
 67
     1
  8
0
  0
ENDSEC
  0
SECTION
  2
ENTITIES
  0
TEXT
  5
1AB
  8
0
 62
     3
 10
0.0
 20
0.0
 30
0.0
 40
10.0
  1
FTFB10
  7
STANDARD1
  0
LINE
  5
469
  8
2
 10
187.3120000000000118
 20
192.0
 30
0.0
 11
187.3120000000000118
 21
171.8120000000000118
 31
0.0
  0
LINE
  5
46A
  8
2
 10
195.6879999999999882
 20
171.8120000000000118
 30
0.0
 11
195.6879999999999882
 21
192.0
 31
0.0
  0
LINE
  5
46C
  8
2
 10
187.3120000000000118
 20
171.8120000000000118
 30
0.0
 11
186.5
 21
171.0
 31
0.0
  0
LINE
  5
46D
  8
2
 10
196.5
 20
171.0
 30
0.0
 11
195.6879999999999882
 21
171.8120000000000118
 31
0.0
  0
LINE
  5
46E
  8
2
 10
195.6879999999999882
 20
171.8120000000000118
 30
0.0
 11
187.3120000000000118
 21
171.8120000000000118
 31
0.0
  0
LINE
  5
46F
  8
0
 10
212.0
 20
178.5
 30
0.0
 11
227.0
 21
178.5
 31
0.0
  0
LINE
  5
470
  8
0
 10
226.210085014475311
 20
190.5
 30
0.0
 11
212.0
 21
190.5
 31
0.0
  0
ARC
  5
472
  8
0
 10
227.0
 20
184.500000000000199
 30
0.0
 40
6.0000000000001874
 50
270.0
 51
288.7742953209848906
  0
ARC
  5
475
  8
0
 10
227.7629992850893927
 20
184.7044450422714021
 30
0.0
 40
6.0000000000059952
 50
281.2257046790111872
 51
284.9999999999944862
  0
LINE
  5
478
  8
0
 10
229.3159135557056061
 20
178.9088900845310945
 30
0.0
 11
307.7424840687056076
 21
199.9232263186318903
 31
0.0
  0
LINE
  5
479
  8
0
 10
304.6366555274753978
 20
211.5143362341007958
 30
0.0
 11
226.210085014475311
 21
190.4999999999998863
 31
0.0
  0
LINE
  5
47E
  8
0
 10
182.0
 20
173.0
 30
0.0
 11
182.0
 21
171.0
 31
0.0
  0
LINE
  5
47F
  8
0
 10
201.0
 20
171.0
 30
0.0
 11
201.0
 21
173.0
 31
0.0
  0
LINE
  5
480
  8
0
 10
201.0
 20
171.0
 30
0.0
 11
182.0
 21
171.0
 31
0.0
  0
LINE
  5
481
  8
0
 10
304.1397531469816045
 20
213.3688011645054985
 30
0.0
 11
308.2393864491992872
 21
198.0687613882273013
 31
0.0
  0
ARC
  5
482
  8
0
 10
318.4942458863434922
 20
209.0158092973402972
 30
0.0
 40
15.0000000000000497
 50
226.8698976458474021
 51
163.1301023541554969
  0
LINE
  5
483
  8
0
 10
172.0999999999999943
 20
193.0
 30
0.0
 11
171.0
 21
191.9000000000000057
 31
0.0
  0
LINE
  5
484
  8
0
 10
212.0
 20
191.9000000000000057
 30
0.0
 11
210.9000000000000057
 21
193.0
 31
0.0
  0
LINE
  5
485
  8
0
 10
210.9000000000000057
 20
193.0
 30
0.0
 11
172.0999999999999943
 21
193.0
 31
0.0
  0
LINE
  5
486
  8
0
 10
211.7999999999998977
 20
173.0
 30
0.0
 11
212.0
 21
173.1999999999999886
 31
0.0
  0
LINE
  5
487
  8
0
 10
171.0
 20
173.1999999999999886
 30
0.0
 11
171.1999999999999886
 21
173.0
 31
0.0
  0
LINE
  5
488
  8
0
 10
211.7999999999998977
 20
173.0
 30
0.0
 11
171.1999999999999886
 21
173.0
 31
0.0
  0
LINE
  5
489
  8
0
 10
171.0
 20
191.9000000000000057
 30
0.0
 11
171.0
 21
173.1999999999999886
 31
0.0
  0
LINE
  5
48A
  8
0
 10
212.0
 20
173.1999999999999886
 30
0.0
 11
212.0
 21
178.4999999999998863
 31
0.0
  0
LINE
  5
48B
  8
0
 10
212.0
 20
190.4999999999994884
 30
0.0
 11
212.0
 21
191.9000000000000057
 31
0.0
  0
LINE
  5
48C
  8
0
 10
212.0
 20
173.1999999999999886
 30
0.0
 11
171.0
 21
173.1999999999999886
 31
0.0
  0
POLYLINE
  5
48D
  8
0
 66
     1
 10
0.0
 20
0.0
 30
0.0
  0
VERTEX
  5
9ED
  8
0
 10
211.9999999999990052
 20
190.4999999999963052
 30
0.0
  0
VERTEX
  5
9EE
  8
0
 10
211.9998747355093087
 20
190.4996076348203076
 30
0.0
  0
VERTEX
  5
9EF
  8
0
 10
211.9919715985730022
 20
190.4725120340372087
 30
0.0
  0
VERTEX
  5
9F0
  8
0
 10
211.9437760017821972
 20
190.3049958838097098
 30
0.0
  0
VERTEX
  5
9F1
  8
0
 10
211.8537367976358041
 20
189.9794709258677017
 30
0.0
  0
VERTEX
  5
9F2
  8
0
 10
211.7342317842486921
 20
189.5173833717084051
 30
0.0
  0
VERTEX
  5
9F3
  8
0
 10
211.592218396910198
 20
188.9099025056268886
 30
0.0
  0
VERTEX
  5
9F4
  8
0
 10
211.4441046862984876
 20
188.1765896885607106
 30
0.0
  0
VERTEX
  5
9F5
  8
0
 10
211.3712527010142139
 20
187.758258207898507
 30
0.0
  0
VERTEX
  5
9F6
  8
0
 10
211.3034689736063001
 20
187.3155609367564125
 30
0.0
  0
VERTEX
  5
9F7
  8
0
 10
211.2439987015885947
 20
186.8611080683419914
 30
0.0
  0
VERTEX
  5
9F8
  8
0
 10
211.1931184471009999
 20
186.3891570002390097
 30
0.0
  0
VERTEX
  5
9F9
  8
0
 10
211.1513674689643096
 20
185.8875280696493917
 30
0.0
  0
VERTEX
  5
9FA
  8
0
 10
211.1217984993992047
 20
185.3746292649028078
 30
0.0
  0
VERTEX
  5
9FB
  8
0
 10
211.1025549895315976
 20
184.3991926708470999
 30
0.0
  0
VERTEX
  5
9FC
  8
0
 10
211.111626734523611
 20
183.8959199586157069
 30
0.0
  0
VERTEX
  5
9FD
  8
0
 10
211.1332881054516974
 20
183.3972752693123027
 30
0.0
  0
VERTEX
  5
9FE
  8
0
 10
211.2063125327036062
 20
182.4779333253841003
 30
0.0
  0
VERTEX
  5
9FF
  8
0
 10
211.3172030003358088
 20
181.5894098954817082
 30
0.0
  0
VERTEX
  5
A00
  8
0
 10
211.4519262708188876
 20
180.7812149946259979
 30
0.0
  0
VERTEX
  5
A01
  8
0
 10
211.6002499375983916
 20
180.0536478373921909
 30
0.0
  0
VERTEX
  5
A02
  8
0
 10
211.6737561513585888
 20
179.7323546646047987
 30
0.0
  0
VERTEX
  5
A03
  8
0
 10
211.7438055365801972
 20
179.4441457098847081
 30
0.0
  0
VERTEX
  5
A04
  8
0
 10
211.8102709503727965
 20
179.1842413243298893
 30
0.0
  0
VERTEX
  5
A05
  8
0
 10
211.8691435857606962
 20
178.96357422000969
 30
0.0
  0
VERTEX
  5
A06
  8
0
 10
211.9169892287021071
 20
178.790031657902091
 30
0.0
  0
VERTEX
  5
A07
  8
0
 10
211.9548826498084111
 20
178.6560095638826056
 30
0.0
  0
VERTEX
  5
A08
  8
0
 10
211.982343180849
 20
178.5605714837248001
 30
0.0
  0
VERTEX
  5
A09
  8
0
 10
211.9972793456410898
 20
178.5093021630825092
 30
0.0
  0
VERTEX
  5
A0A
  8
0
 10
211.9999999999648992
 20
178.5000000001199965
 30
0.0
  0
SEQEND
  5
A0B
  8
0
  0
LINE
  5
48E
  8
0
 10
212.0
 20
191.9000000000000057
 30
0.0
 11
171.0
 21
191.9000000000000057
 31
0.0
  0
LINE
  5
48F
  8
2
 10
196.5
 20
171.0
 30
0.0
 11
196.5
 21
192.0
 31
0.0
  0
LINE
  5
491
  8
2
 10
186.5
 20
171.0
 30
0.0
 11
186.5
 21
192.0
 31
0.0
  0
LINE
  5
492
  8
2
 10
196.5
 20
192.0
 30
0.0
 11
186.5
 21
192.0
 31
0.0
  0
LINE
  5
493
  8
1
 10
191.5
 20
198.0
 30
0.0
 11
191.5000000000001137
 21
166.0
 31
0.0
  0
LINE
  5
494
  8
1
 10
191.5
 20
184.5
 30
0.0
 11
227.0000000000001137
 21
184.5
 31
0.0
  0
LINE
  5
495
  8
1
 10
227.0000000000001137
 20
184.5
 30
0.0
 11
337.8127624121249255
 21
214.1921901993906943
 31
0.0
  0
POLYLINE
  5
4AD
  8
0
 10
227.0000000000000284
 20
298.7131092048141454
 30
0.0
 66
     1
 70
     8
  0
VERTEX
  8
0
  5
A31
 10
227.000
 20
298.713
 30
0.00000
  70
    32
  0
VERTEX
  8
0
  5
A32
 10
227.003
 20
298.710
 30
0.00000
  70
    32
  0
VERTEX
  8
0
  5
A33
 10
227.005
 20
298.708
 30
0.00000
  70
    32
  0
VERTEX
  8
0
  5
A34
 10
227.008
 20
298.705
 30
0.00000
  70
    32
  0
VERTEX
  8
0
  5
A35
 10
227.011
 20
298.703
 30
0.00000
  70
    32
  0
VERTEX
  8
0
  5
A36
 10
227.014
 20
298.700
 30
0.00000
  70
    32
  0
VERTEX
  8
0
  5
A37
 10
227.016
 20
298.697
 30
0.00000
  70
    32
  0
VERTEX
  8
0
  5
A38
 10
227.019
 20
298.695
 30
0.00000
  70
    32
  0
VERTEX
  8
0
  5
A39
 10
227.022
 20
298.692
 30
0.00000
  70
    32
  0
VERTEX
  8
0
  5
A3A
 10
227.024
 20
298.690
 30
0.00000
  70
    32
  0
VERTEX
  8
0
  5
A3B
 10
227.027
 20
298.687
 30
0.00000
  70
    32
  0
VERTEX
  8
0
  5
A3C
 10
227.030
 20
298.685
 30
0.00000
  70
    32
  0
VERTEX
  8
0
  5
A3D
 10
227.033
 20
298.683
 30
0.00000
  70
    32
  0
VERTEX
  8
0
  5
A3E
 10
227.035
 20
298.680
 30
0.00000
  70
    32
  0
VERTEX
  8
0
  5
A3F
 10
227.038
 20
298.678
 30
0.00000
  70
    32
  0
VERTEX
  8
0
  5
A40
 10
227.041
 20
298.675
 30
0.00000
  70
    32
  0
VERTEX
  8
0
  5
A41
 10
227.044
 20
298.673
 30
0.00000
  70
    32
  0
VERTEX
  8
0
  5
A42
 10
227.046
 20
298.671
 30
0.00000
  70
    32
  0
VERTEX
  8
0
  5
A43
 10
227.049
 20
298.668
 30
0.00000
  70
    32
  0
VERTEX
  8
0
  5
A44
 10
227.052
 20
298.666
 30
0.00000
  70
    32
  0
VERTEX
  8
0
  5
A45
 10
227.054
 20
298.664
 30
0.00000
  70
    32
  0
VERTEX
  8
0
  5
A46
 10
227.057
 20
298.661
 30
0.00000
  70
    32
  0
VERTEX
  8
0
  5
A47
 10
227.060
 20
298.659
 30
0.00000
  70
    32
  0
VERTEX
  8
0
  5
A48
 10
227.063
 20
298.657
 30
0.00000
  70
    32
  0
VERTEX
  8
0
  5
A49
 10
227.065
 20
298.655
 30
0.00000
  70
    32
  0
VERTEX
  8
0
  5
A4A
 10
227.068
 20
298.653
 30
0.00000
  70
    32
  0
VERTEX
  8
0
  5
A4B
 10
227.071
 20
298.650
 30
0.00000
  70
    32
  0
VERTEX
  8
0
  5
A4C
 10
227.074
 20
298.648
 30
0.00000
  70
    32
  0
VERTEX
  8
0
  5
A4D
 10
227.076
 20
298.646
 30
0.00000
  70
    32
  0
VERTEX
  8
0
  5
A4E
 10
227.079
 20
298.644
 30
0.00000
  70
    32
  0
VERTEX
  8
0
  5
A4F
 10
227.082
 20
298.642
 30
0.00000
  70
    32
  0
VERTEX
  8
0
  5
A50
 10
227.085
 20
298.640
 30
0.00000
  70
    32
  0
VERTEX
  8
0
  5
A51
 10
227.087
 20
298.638
 30
0.00000
  70
    32
  0
VERTEX
  8
0
  5
A52
 10
227.090
 20
298.636
 30
0.00000
  70
    32
  0
VERTEX
  8
0
  5
A53
 10
227.093
 20
298.634
 30
0.00000
  70
    32
  0
VERTEX
  8
0
  5
A54
 10
227.096
 20
298.632
 30
0.00000
  70
    32
  0
VERTEX
  8
0
  5
A55
 10
227.098
 20
298.630
 30
0.00000
  70
    32
  0
VERTEX
  8
0
  5
A56
 10
227.101
 20
298.628
 30
0.00000
  70
    32
  0
VERTEX
  8
0
  5
A57
 10
227.104
 20
298.626
 30
0.00000
  70
    32
  0
VERTEX
  8
0
  5
A58
 10
227.107
 20
298.624
 30
0.00000
  70
    32
  0
VERTEX
  8
0
  5
A59
 10
227.109
 20
298.622
 30
0.00000
  70
    32
  0
VERTEX
  8
0
  5
A5A
 10
227.112
 20
298.620
 30
0.00000
  70
    32
  0
VERTEX
  8
0
  5
A5B
 10
227.115
 20
298.618
 30
0.00000
  70
    32
  0
VERTEX
  8
0
  5
A5C
 10
227.118
 20
298.616
 30
0.00000
  70
    32
  0
VERTEX
  8
0
  5
A5D
 10
227.120
 20
298.614
 30
0.00000
  70
    32
  0
VERTEX
  8
0
  5
A5E
 10
227.123
 20
298.613
 30
0.00000
  70
    32
  0
VERTEX
  8
0
  5
A5F
 10
227.126
 20
298.611
 30
0.00000
  70
    32
  0
VERTEX
  8
0
  5
A60
 10
227.129
 20
298.609
 30
0.00000
  70
    32
  0
VERTEX
  8
0
  5
A61
 10
227.131
 20
298.607
 30
0.00000
  70
    32
  0
VERTEX
  8
0
  5
A62
 10
227.134
 20
298.606
 30
0.00000
  70
    32
  0
VERTEX
  8
0
  5
A63
 10
227.137
 20
298.604
 30
0.00000
  70
    32
  0
VERTEX
  8
0
  5
A64
 10
227.140
 20
298.602
 30
0.00000
  70
    32
  0
VERTEX
  8
0
  5
A65
 10
227.142
 20
298.600
 30
0.00000
  70
    32
  0
VERTEX
  8
0
  5
A66
 10
227.145
 20
298.599
 30
0.00000
  70
    32
  0
VERTEX
  8
0
  5
A67
 10
227.148
 20
298.597
 30
0.00000
  70
    32
  0
VERTEX
  8
0
  5
A68
 10
227.151
 20
298.596
 30
0.00000
  70
    32
  0
VERTEX
  8
0
  5
A69
 10
227.154
 20
298.594
 30
0.00000
  70
    32
  0
VERTEX
  8
0
  5
A6A
 10
227.156
 20
298.592
 30
0.00000
  70
    32
  0
VERTEX
  8
0
  5
A6B
 10
227.159
 20
298.591
 30
0.00000
  70
    32
  0
VERTEX
  8
0
  5
A6C
 10
227.162
 20
298.589
 30
0.00000
  70
    32
  0
VERTEX
  8
0
  5
A6D
 10
227.165
 20
298.588
 30
0.00000
  70
    32
  0
VERTEX
  8
0
  5
A6E
 10
227.167
 20
298.586
 30
0.00000
  70
    32
  0
VERTEX
  8
0
  5
A6F
 10
227.170
 20
298.585
 30
0.00000
  70
    32
  0
VERTEX
  8
0
  5
A70
 10
227.173
 20
298.583
 30
0.00000
  70
    32
  0
VERTEX
  8
0
  5
A71
 10
227.176
 20
298.582
 30
0.00000
  70
    32
  0
VERTEX
  8
0
  5
A72
 10
227.178
 20
298.580
 30
0.00000
  70
    32
  0
VERTEX
  8
0
  5
A73
 10
227.181
 20
298.579
 30
0.00000
  70
    32
  0
VERTEX
  8
0
  5
A74
 10
227.184
 20
298.578
 30
0.00000
  70
    32
  0
VERTEX
  8
0
  5
A75
 10
227.187
 20
298.576
 30
0.00000
  70
    32
  0
VERTEX
  8
0
  5
A76
 10
227.190
 20
298.575
 30
0.00000
  70
    32
  0
VERTEX
  8
0
  5
A77
 10
227.192
 20
298.574
 30
0.00000
  70
    32
  0
VERTEX
  8
0
  5
A78
 10
227.195
 20
298.572
 30
0.00000
  70
    32
  0
VERTEX
  8
0
  5
A79
 10
227.198
 20
298.571
 30
0.00000
  70
    32
  0
VERTEX
  8
0
  5
A7A
 10
227.201
 20
298.570
 30
0.00000
  70
    32
  0
VERTEX
  8
0
  5
A7B
 10
227.203
 20
298.568
 30
0.00000
  70
    32
  0
VERTEX
  8
0
  5
A7C
 10
227.206
 20
298.567
 30
0.00000
  70
    32
  0
VERTEX
  8
0
  5
A7D
 10
227.209
 20
298.566
 30
0.00000
  70
    32
  0
VERTEX
  8
0
  5
A7E
 10
227.212
 20
298.565
 30
0.00000
  70
    32
  0
VERTEX
  8
0
  5
A7F
 10
227.215
 20
298.564
 30
0.00000
  70
    32
  0
VERTEX
  8
0
  5
A80
 10
227.217
 20
298.563
 30
0.00000
  70
    32
  0
VERTEX
  8
0
  5
A81
 10
227.220
 20
298.561
 30
0.00000
  70
    32
  0
VERTEX
  8
0
  5
A82
 10
227.223
 20
298.560
 30
0.00000
  70
    32
  0
VERTEX
  8
0
  5
A83
 10
227.226
 20
298.559
 30
0.00000
  70
    32
  0
VERTEX
  8
0
  5
A84
 10
227.228
 20
298.558
 30
0.00000
  70
    32
  0
VERTEX
  8
0
  5
A85
 10
227.231
 20
298.557
 30
0.00000
  70
    32
  0
VERTEX
  8
0
  5
A86
 10
227.234
 20
298.556
 30
0.00000
  70
    32
  0
VERTEX
  8
0
  5
A87
 10
227.237
 20
298.555
 30
0.00000
  70
    32
  0
VERTEX
  8
0
  5
A88
 10
227.240
 20
298.554
 30
0.00000
  70
    32
  0
VERTEX
  8
0
  5
A89
 10
227.242
 20
298.553
 30
0.00000
  70
    32
  0
VERTEX
  8
0
  5
A8A
 10
227.245
 20
298.552
 30
0.00000
  70
    32
  0
VERTEX
  8
0
  5
A8B
 10
227.248
 20
298.551
 30
0.00000
  70
    32
  0
VERTEX
  8
0
  5
A8C
 10
227.251
 20
298.550
 30
0.00000
  70
    32
  0
VERTEX
  8
0
  5
A8D
 10
227.254
 20
298.549
 30
0.00000
  70
    32
  0
VERTEX
  8
0
  5
A8E
 10
227.256
 20
298.548
 30
0.00000
  70
    32
  0
VERTEX
  8
0
  5
A8F
 10
227.259
 20
298.548
 30
0.00000
  70
    32
  0
VERTEX
  8
0
  5
A90
 10
227.262
 20
298.547
 30
0.00000
  70
    32
  0
VERTEX
  8
0
  5
A91
 10
227.265
 20
298.546
 30
0.00000
  70
    32
  0
VERTEX
  8
0
  5
A92
 10
227.267
 20
298.545
 30
0.00000
  70
    32
  0
VERTEX
  8
0
  5
A93
 10
227.270
 20
298.544
 30
0.00000
  70
    32
  0
VERTEX
  8
0
  5
A94
 10
227.273
 20
298.543
 30
0.00000
  70
    32
  0
VERTEX
  8
0
  5
A95
 10
227.276
 20
298.543
 30
0.00000
  70
    32
  0
VERTEX
  8
0
  5
A96
 10
227.279
 20
298.542
 30
0.00000
  70
    32
  0
VERTEX
  8
0
  5
A97
 10
227.281
 20
298.541
 30
0.00000
  70
    32
  0
VERTEX
  8
0
  5
A98
 10
227.284
 20
298.541
 30
0.00000
  70
    32
  0
VERTEX
  8
0
  5
A99
 10
227.287
 20
298.540
 30
0.00000
  70
    32
  0
VERTEX
  8
0
  5
A9A
 10
227.290
 20
298.539
 30
0.00000
  70
    32
  0
VERTEX
  8
0
  5
A9B
 10
227.293
 20
298.539
 30
0.00000
  70
    32
  0
VERTEX
  8
0
  5
A9C
 10
227.295
 20
298.538
 30
0.00000
  70
    32
  0
VERTEX
  8
0
  5
A9D
 10
227.298
 20
298.537
 30
0.00000
  70
    32
  0
VERTEX
  8
0
  5
A9E
 10
227.301
 20
298.537
 30
0.00000
  70
    32
  0
VERTEX
  8
0
  5
A9F
 10
227.304
 20
298.536
 30
0.00000
  70
    32
  0
VERTEX
  8
0
  5
AA0
 10
227.307
 20
298.536
 30
0.00000
  70
    32
  0
VERTEX
  8
0
  5
AA1
 10
227.309
 20
298.535
 30
0.00000
  70
    32
  0
VERTEX
  8
0
  5
AA2
 10
227.312
 20
298.535
 30
0.00000
  70
    32
  0
VERTEX
  8
0
  5
AA3
 10
227.315
 20
298.534
 30
0.00000
  70
    32
  0
VERTEX
  8
0
  5
AA4
 10
227.318
 20
298.534
 30
0.00000
  70
    32
  0
VERTEX
  8
0
  5
AA5
 10
227.321
 20
298.533
 30
0.00000
  70
    32
  0
VERTEX
  8
0
  5
AA6
 10
227.323
 20
298.533
 30
0.00000
  70
    32
  0
VERTEX
  8
0
  5
AA7
 10
227.326
 20
298.533
 30
0.00000
  70
    32
  0
VERTEX
  8
0
  5
AA8
 10
227.329
 20
298.532
 30
0.00000
  70
    32
  0
VERTEX
  8
0
  5
AA9
 10
227.332
 20
298.532
 30
0.00000
  70
    32
  0
VERTEX
  8
0
  5
AAA
 10
227.335
 20
298.532
 30
0.00000
  70
    32
  0
VERTEX
  8
0
  5
AAB
 10
227.337
 20
298.531
 30
0.00000
  70
    32
  0
VERTEX
  8
0
  5
AAC
 10
227.340
 20
298.531
 30
0.00000
  70
    32
  0
VERTEX
  8
0
  5
AAD
 10
227.343
 20
298.531
 30
0.00000
  70
    32
  0
VERTEX
  8
0
  5
AAE
 10
227.346
 20
298.530
 30
0.00000
  70
    32
  0
VERTEX
  8
0
  5
AAF
 10
227.349
 20
298.530
 30
0.00000
  70
    32
  0
VERTEX
  8
0
  5
AB0
 10
227.351
 20
298.530
 30
0.00000
  70
    32
  0
VERTEX
  8
0
  5
AB1
 10
227.354
 20
298.530
 30
0.00000
  70
    32
  0
SEQEND
  8
0
  5
AB2
  0
ARC
  5
4AE
  8
0
 10
227.7629992850908991
 20
304.5158092973351245
 30
0.0
 40
6.000000000005298
 50
90.0
 51
93.9076413204337967
  0
ARC
  5
4AF
  8
0
 10
227.7629992850908991
 20
304.5158092973454131
 30
0.0
 40
6.000000000004988
 50
266.092358679566189
 51
270.0
  0
POLYLINE
  5
4B0
  8
0
 10
227.3541092005594919
 20
310.5018604914727121
 30
0.0
 66
     1
 70
     8
  0
VERTEX
  8
0
  5
AB3
 10
227.354
 20
310.502
 30
0.00000
  70
    32
  0
VERTEX
  8
0
  5
AB4
 10
227.351
 20
310.502
 30
0.00000
  70
    32
  0
VERTEX
  8
0
  5
AB5
 10
227.349
 20
310.501
 30
0.00000
  70
    32
  0
VERTEX
  8
0
  5
AB6
 10
227.346
 20
310.501
 30
0.00000
  70
    32
  0
VERTEX
  8
0
  5
AB7
 10
227.343
 20
310.501
 30
0.00000
  70
    32
  0
VERTEX
  8
0
  5
AB8
 10
227.340
 20
310.501
 30
0.00000
  70
    32
  0
VERTEX
  8
0
  5
AB9
 10
227.337
 20
310.500
 30
0.00000
  70
    32
  0
VERTEX
  8
0
  5
ABA
 10
227.335
 20
310.500
 30
0.00000
  70
    32
  0
VERTEX
  8
0
  5
ABB
 10
227.332
 20
310.500
 30
0.00000
  70
    32
  0
VERTEX
  8
0
  5
ABC
 10
227.329
 20
310.499
 30
0.00000
  70
    32
  0
VERTEX
  8
0
  5
ABD
 10
227.326
 20
310.499
 30
0.00000
  70
    32
  0
VERTEX
  8
0
  5
ABE
 10
227.323
 20
310.499
 30
0.00000
  70
    32
  0
VERTEX
  8
0
  5
ABF
 10
227.321
 20
310.498
 30
0.00000
  70
    32
  0
VERTEX
  8
0
  5
AC0
 10
227.318
 20
310.498
 30
0.00000
  70
    32
  0
VERTEX
  8
0
  5
AC1
 10
227.315
 20
310.497
 30
0.00000
  70
    32
  0
VERTEX
  8
0
  5
AC2
 10
227.312
 20
310.497
 30
0.00000
  70
    32
  0
VERTEX
  8
0
  5
AC3
 10
227.309
 20
310.496
 30
0.00000
  70
    32
  0
VERTEX
  8
0
  5
AC4
 10
227.307
 20
310.496
 30
0.00000
  70
    32
  0
VERTEX
  8
0
  5
AC5
 10
227.304
 20
310.495
 30
0.00000
  70
    32
  0
VERTEX
  8
0
  5
AC6
 10
227.301
 20
310.495
 30
0.00000
  70
    32
  0
VERTEX
  8
0
  5
AC7
 10
227.298
 20
310.494
 30
0.00000
  70
    32
  0
VERTEX
  8
0
  5
AC8
 10
227.295
 20
310.494
 30
0.00000
  70
    32
  0
VERTEX
  8
0
  5
AC9
 10
227.293
 20
310.493
 30
0.00000
  70
    32
  0
VERTEX
  8
0
  5
ACA
 10
227.290
 20
310.492
 30
0.00000
  70
    32
  0
VERTEX
  8
0
  5
ACB
 10
227.287
 20
310.492
 30
0.00000
  70
    32
  0
VERTEX
  8
0
  5
ACC
 10
227.284
 20
310.491
 30
0.00000
  70
    32
  0
VERTEX
  8
0
  5
ACD
 10
227.281
 20
310.490
 30
0.00000
  70
    32
  0
VERTEX
  8
0
  5
ACE
 10
227.279
 20
310.490
 30
0.00000
  70
    32
  0
VERTEX
  8
0
  5
ACF
 10
227.276
 20
310.489
 30
0.00000
  70
    32
  0
VERTEX
  8
0
  5
AD0
 10
227.273
 20
310.488
 30
0.00000
  70
    32
  0
VERTEX
  8
0
  5
AD1
 10
227.270
 20
310.487
 30
0.00000
  70
    32
  0
VERTEX
  8
0
  5
AD2
 10
227.267
 20
310.487
 30
0.00000
  70
    32
  0
VERTEX
  8
0
  5
AD3
 10
227.265
 20
310.486
 30
0.00000
  70
    32
  0
VERTEX
  8
0
  5
AD4
 10
227.262
 20
310.485
 30
0.00000
  70
    32
  0
VERTEX
  8
0
  5
AD5
 10
227.259
 20
310.484
 30
0.00000
  70
    32
  0
VERTEX
  8
0
  5
AD6
 10
227.256
 20
310.483
 30
0.00000
  70
    32
  0
VERTEX
  8
0
  5
AD7
 10
227.254
 20
310.482
 30
0.00000
  70
    32
  0
VERTEX
  8
0
  5
AD8
 10
227.251
 20
310.481
 30
0.00000
  70
    32
  0
VERTEX
  8
0
  5
AD9
 10
227.248
 20
310.481
 30
0.00000
  70
    32
  0
VERTEX
  8
0
  5
ADA
 10
227.245
 20
310.480
 30
0.00000
  70
    32
  0
VERTEX
  8
0
  5
ADB
 10
227.242
 20
310.479
 30
0.00000
  70
    32
  0
VERTEX
  8
0
  5
ADC
 10
227.240
 20
310.478
 30
0.00000
  70
    32
  0
VERTEX
  8
0
  5
ADD
 10
227.237
 20
310.477
 30
0.00000
  70
    32
  0
VERTEX
  8
0
  5
ADE
 10
227.234
 20
310.476
 30
0.00000
  70
    32
  0
VERTEX
  8
0
  5
ADF
 10
227.231
 20
310.475
 30
0.00000
  70
    32
  0
VERTEX
  8
0
  5
AE0
 10
227.228
 20
310.474
 30
0.00000
  70
    32
  0
VERTEX
  8
0
  5
AE1
 10
227.226
 20
310.472
 30
0.00000
  70
    32
  0
VERTEX
  8
0
  5
AE2
 10
227.223
 20
310.471
 30
0.00000
  70
    32
  0
VERTEX
  8
0
  5
AE3
 10
227.220
 20
310.470
 30
0.00000
  70
    32
  0
VERTEX
  8
0
  5
AE4
 10
227.217
 20
310.469
 30
0.00000
  70
    32
  0
VERTEX
  8
0
  5
AE5
 10
227.215
 20
310.468
 30
0.00000
  70
    32
  0
VERTEX
  8
0
  5
AE6
 10
227.212
 20
310.467
 30
0.00000
  70
    32
  0
VERTEX
  8
0
  5
AE7
 10
227.209
 20
310.466
 30
0.00000
  70
    32
  0
VERTEX
  8
0
  5
AE8
 10
227.206
 20
310.464
 30
0.00000
  70
    32
  0
VERTEX
  8
0
  5
AE9
 10
227.203
 20
310.463
 30
0.00000
  70
    32
  0
VERTEX
  8
0
  5
AEA
 10
227.201
 20
310.462
 30
0.00000
  70
    32
  0
VERTEX
  8
0
  5
AEB
 10
227.198
 20
310.461
 30
0.00000
  70
    32
  0
VERTEX
  8
0
  5
AEC
 10
227.195
 20
310.459
 30
0.00000
  70
    32
  0
VERTEX
  8
0
  5
AED
 10
227.192
 20
310.458
 30
0.00000
  70
    32
  0
VERTEX
  8
0
  5
AEE
 10
227.190
 20
310.457
 30
0.00000
  70
    32
  0
VERTEX
  8
0
  5
AEF
 10
227.187
 20
310.455
 30
0.00000
  70
    32
  0
VERTEX
  8
0
  5
AF0
 10
227.184
 20
310.454
 30
0.00000
  70
    32
  0
VERTEX
  8
0
  5
AF1
 10
227.181
 20
310.453
 30
0.00000
  70
    32
  0
VERTEX
  8
0
  5
AF2
 10
227.178
 20
310.451
 30
0.00000
  70
    32
  0
VERTEX
  8
0
  5
AF3
 10
227.176
 20
310.450
 30
0.00000
  70
    32
  0
VERTEX
  8
0
  5
AF4
 10
227.173
 20
310.448
 30
0.00000
  70
    32
  0
VERTEX
  8
0
  5
AF5
 10
227.170
 20
310.447
 30
0.00000
  70
    32
  0
VERTEX
  8
0
  5
AF6
 10
227.167
 20
310.445
 30
0.00000
  70
    32
  0
VERTEX
  8
0
  5
AF7
 10
227.165
 20
310.444
 30
0.00000
  70
    32
  0
VERTEX
  8
0
  5
AF8
 10
227.162
 20
310.442
 30
0.00000
  70
    32
  0
VERTEX
  8
0
  5
AF9
 10
227.159
 20
310.441
 30
0.00000
  70
    32
  0
VERTEX
  8
0
  5
AFA
 10
227.156
 20
310.439
 30
0.00000
  70
    32
  0
VERTEX
  8
0
  5
AFB
 10
227.154
 20
310.438
 30
0.00000
  70
    32
  0
VERTEX
  8
0
  5
AFC
 10
227.151
 20
310.436
 30
0.00000
  70
    32
  0
VERTEX
  8
0
  5
AFD
 10
227.148
 20
310.434
 30
0.00000
  70
    32
  0
VERTEX
  8
0
  5
AFE
 10
227.145
 20
310.433
 30
0.00000
  70
    32
  0
VERTEX
  8
0
  5
AFF
 10
227.142
 20
310.431
 30
0.00000
  70
    32
  0
VERTEX
  8
0
  5
B00
 10
227.140
 20
310.429
 30
0.00000
  70
    32
  0
VERTEX
  8
0
  5
B01
 10
227.137
 20
310.428
 30
0.00000
  70
    32
  0
VERTEX
  8
0
  5
B02
 10
227.134
 20
310.426
 30
0.00000
  70
    32
  0
VERTEX
  8
0
  5
B03
 10
227.131
 20
310.424
 30
0.00000
  70
    32
  0
VERTEX
  8
0
  5
B04
 10
227.129
 20
310.423
 30
0.00000
  70
    32
  0
VERTEX
  8
0
  5
B05
 10
227.126
 20
310.421
 30
0.00000
  70
    32
  0
VERTEX
  8
0
  5
B06
 10
227.123
 20
310.419
 30
0.00000
  70
    32
  0
VERTEX
  8
0
  5
B07
 10
227.120
 20
310.417
 30
0.00000
  70
    32
  0
VERTEX
  8
0
  5
B08
 10
227.118
 20
310.415
 30
0.00000
  70
    32
  0
VERTEX
  8
0
  5
B09
 10
227.115
 20
310.413
 30
0.00000
  70
    32
  0
VERTEX
  8
0
  5
B0A
 10
227.112
 20
310.412
 30
0.00000
  70
    32
  0
VERTEX
  8
0
  5
B0B
 10
227.109
 20
310.410
 30
0.00000
  70
    32
  0
VERTEX
  8
0
  5
B0C
 10
227.107
 20
310.408
 30
0.00000
  70
    32
  0
VERTEX
  8
0
  5
B0D
 10
227.104
 20
310.406
 30
0.00000
  70
    32
  0
VERTEX
  8
0
  5
B0E
 10
227.101
 20
310.404
 30
0.00000
  70
    32
  0
VERTEX
  8
0
  5
B0F
 10
227.098
 20
310.402
 30
0.00000
  70
    32
  0
VERTEX
  8
0
  5
B10
 10
227.096
 20
310.400
 30
0.00000
  70
    32
  0
VERTEX
  8
0
  5
B11
 10
227.093
 20
310.398
 30
0.00000
  70
    32
  0
VERTEX
  8
0
  5
B12
 10
227.090
 20
310.396
 30
0.00000
  70
    32
  0
VERTEX
  8
0
  5
B13
 10
227.087
 20
310.394
 30
0.00000
  70
    32
  0
VERTEX
  8
0
  5
B14
 10
227.085
 20
310.392
 30
0.00000
  70
    32
  0
VERTEX
  8
0
  5
B15
 10
227.082
 20
310.390
 30
0.00000
  70
    32
  0
VERTEX
  8
0
  5
B16
 10
227.079
 20
310.388
 30
0.00000
  70
    32
  0
VERTEX
  8
0
  5
B17
 10
227.076
 20
310.386
 30
0.00000
  70
    32
  0
VERTEX
  8
0
  5
B18
 10
227.074
 20
310.383
 30
0.00000
  70
    32
  0
VERTEX
  8
0
  5
B19
 10
227.071
 20
310.381
 30
0.00000
  70
    32
  0
VERTEX
  8
0
  5
B1A
 10
227.068
 20
310.379
 30
0.00000
  70
    32
  0
VERTEX
  8
0
  5
B1B
 10
227.065
 20
310.377
 30
0.00000
  70
    32
  0
VERTEX
  8
0
  5
B1C
 10
227.063
 20
310.375
 30
0.00000
  70
    32
  0
VERTEX
  8
0
  5
B1D
 10
227.060
 20
310.372
 30
0.00000
  70
    32
  0
VERTEX
  8
0
  5
B1E
 10
227.057
 20
310.370
 30
0.00000
  70
    32
  0
VERTEX
  8
0
  5
B1F
 10
227.054
 20
310.368
 30
0.00000
  70
    32
  0
VERTEX
  8
0
  5
B20
 10
227.052
 20
310.366
 30
0.00000
  70
    32
  0
VERTEX
  8
0
  5
B21
 10
227.049
 20
310.363
 30
0.00000
  70
    32
  0
VERTEX
  8
0
  5
B22
 10
227.046
 20
310.361
 30
0.00000
  70
    32
  0
VERTEX
  8
0
  5
B23
 10
227.044
 20
310.359
 30
0.00000
  70
    32
  0
VERTEX
  8
0
  5
B24
 10
227.041
 20
310.356
 30
0.00000
  70
    32
  0
VERTEX
  8
0
  5
B25
 10
227.038
 20
310.354
 30
0.00000
  70
    32
  0
VERTEX
  8
0
  5
B26
 10
227.035
 20
310.352
 30
0.00000
  70
    32
  0
VERTEX
  8
0
  5
B27
 10
227.033
 20
310.349
 30
0.00000
  70
    32
  0
VERTEX
  8
0
  5
B28
 10
227.030
 20
310.347
 30
0.00000
  70
    32
  0
VERTEX
  8
0
  5
B29
 10
227.027
 20
310.344
 30
0.00000
  70
    32
  0
VERTEX
  8
0
  5
B2A
 10
227.024
 20
310.342
 30
0.00000
  70
    32
  0
VERTEX
  8
0
  5
B2B
 10
227.022
 20
310.339
 30
0.00000
  70
    32
  0
VERTEX
  8
0
  5
B2C
 10
227.019
 20
310.337
 30
0.00000
  70
    32
  0
VERTEX
  8
0
  5
B2D
 10
227.016
 20
310.334
 30
0.00000
  70
    32
  0
VERTEX
  8
0
  5
B2E
 10
227.014
 20
310.332
 30
0.00000
  70
    32
  0
VERTEX
  8
0
  5
B2F
 10
227.011
 20
310.329
 30
0.00000
  70
    32
  0
VERTEX
  8
0
  5
B30
 10
227.008
 20
310.326
 30
0.00000
  70
    32
  0
VERTEX
  8
0
  5
B31
 10
227.005
 20
310.324
 30
0.00000
  70
    32
  0
VERTEX
  8
0
  5
B32
 10
227.003
 20
310.321
 30
0.00000
  70
    32
  0
VERTEX
  8
0
  5
B33
 10
227.000
 20
310.319
 30
0.00000
  70
    32
  0
SEQEND
  8
0
  5
B34
  0
POLYLINE
  5
4B1
  8
0
 66
     1
 10
0.0
 20
0.0
 30
0.0
  0
VERTEX
  5
A0C
  8
0
 10
227.0
 20
298.7131092048140886
 30
0.0
  0
VERTEX
  5
A0D
  8
0
 10
226.8850817536124964
 20
298.8543127754974194
 30
0.0
  0
VERTEX
  5
A0E
  8
0
 10
226.7857746308712876
 20
299.0333421044780948
 30
0.0
  0
VERTEX
  5
A0F
  8
0
 10
226.6957978423533007
 20
299.2563311185264183
 30
0.0
  0
VERTEX
  5
A10
  8
0
 10
226.6162268006808915
 20
299.5170263376505204
 30
0.0
  0
VERTEX
  5
A11
  8
0
 10
226.5474560638589878
 20
299.8048604725544806
 30
0.0
  0
VERTEX
  5
A12
  8
0
 10
226.4862399438590046
 20
300.1248109702859779
 30
0.0
  0
VERTEX
  5
A13
  8
0
 10
226.4304844671443959
 20
300.4853629295341761
 30
0.0
  0
VERTEX
  5
A14
  8
0
 10
226.3815891191864864
 20
300.8751468959328008
 30
0.0
  0
VERTEX
  5
A15
  8
0
 10
226.3400858955671993
 20
301.2819066020878154
 30
0.0
  0
VERTEX
  5
A16
  8
0
 10
226.3045694438947066
 20
301.7111763584546793
 30
0.0
  0
VERTEX
  5
A17
  8
0
 10
226.2740850037262135
 20
302.1735024327817882
 30
0.0
  0
VERTEX
  5
A18
  8
0
 10
226.2496163224089969
 20
302.6531506705147763
 30
0.0
  0
VERTEX
  5
A19
  8
0
 10
226.2324738087559126
 20
303.1025410103031277
 30
0.0
  0
VERTEX
  5
A1A
  8
0
 10
226.2201916324447097
 20
303.5606360184112873
 30
0.0
  0
VERTEX
  5
A1B
  8
0
 10
226.2126119096043908
 20
304.0366687322176062
 30
0.0
  0
VERTEX
  5
A1C
  8
0
 10
226.210085014475311
 20
304.5158092973404109
 30
0.0
  0
SEQEND
  5
A1D
  8
0
  0
POLYLINE
  5
4B2
  8
0
 66
     1
 10
0.0
 20
0.0
 30
0.0
  0
VERTEX
  5
A1E
  8
0
 10
226.210085014475311
 20
304.5158092973404109
 30
0.0
  0
VERTEX
  5
A1F
  8
0
 10
226.2102400173978083
 20
304.6346633164087052
 30
0.0
  0
VERTEX
  5
A20
  8
0
 10
226.2142197337261109
 20
305.128321797791898
 30
0.0
  0
VERTEX
  5
A21
  8
0
 10
226.2235798752589915
 20
305.6177545264512219
 30
0.0
  0
VERTEX
  5
A22
  8
0
 10
226.2388713084291112
 20
306.1134176257183981
 30
0.0
  0
VERTEX
  5
A23
  8
0
 10
226.2599479923256922
 20
306.5974228797521164
 30
0.0
  0
VERTEX
  5
A24
  8
0
 10
226.2860617570972863
 20
307.0532563636904797
 30
0.0
  0
VERTEX
  5
A25
  8
0
 10
226.3178231803900928
 20
307.4916340263984011
 30
0.0
  0
VERTEX
  5
A26
  8
0
 10
226.3565541650797002
 20
307.921238937928706
 30
0.0
  0
VERTEX
  5
A27
  8
0
 10
226.4016279278035029
 20
308.3261233660778089
 30
0.0
  0
VERTEX
  5
A28
  8
0
 10
226.4519428638463978
 20
308.6941516754985741
 30
0.0
  0
VERTEX
  5
A29
  8
0
 10
226.508923868293607
 20
309.0334789944968179
 30
0.0
  0
VERTEX
  5
A2A
  8
0
 10
226.5750160495148009
 20
309.3501428287854083
 30
0.0
  0
VERTEX
  5
A2B
  8
0
 10
226.6494805272157009
 20
309.6318677184052035
 30
0.0
  0
VERTEX
  5
A2C
  8
0
 10
226.7216180507022045
 20
309.8462153180736891
 30
0.0
  0
VERTEX
  5
A2D
  8
0
 10
226.8019959609310092
 20
310.0318243285516928
 30
0.0
  0
VERTEX
  5
A2E
  8
0
 10
226.8943366917108904
 20
310.1909930064198875
 30
0.0
  0
VERTEX
  5
A2F
  8
0
 10
227.0
 20
310.3185093898666764
 30
0.0
  0
SEQEND
  5
A30
  8
0
  0
LINE
  5
4B6
  8
3
 10
227.0
 20
298.5158092973404109
 30
0.0
 11
227.0
 21
310.5158092973404109
 31
0.0
  0
CIRCLE
  5
4B9
  8
0
 10
191.5
 20
304.5158092973404109
 30
0.0
 40
20.5
  0
CIRCLE
  5
4BA
  8
0
 10
191.5
 20
304.5158092973404109
 30
0.0
 40
19.3999999999999986
  0
LINE
  5
4BD
  8
0
 10
211.1022957839126093
 20
298.5158092973404109
 30
0.0
 11
304.8515841586744841
 21
298.5158092973404109
 31
0.0
  0
LINE
  5
4BE
  8
0
 10
304.8515841586744841
 20
310.5158092973404109
 30
0.0
 11
211.1022957839126093
 21
310.5158092973404109
 31
0.0
  0
POLYLINE
  5
4C1
  8
0
 10
305.3061338024475617
 20
311.6623958715450158
 30
0.0
 66
     1
 70
     8
  0
VERTEX
  8
0
  5
B35
 10
305.306
 20
311.662
 30
0.00000
  70
    32
  0
VERTEX
  8
0
  5
B36
 10
305.274
 20
311.601
 30
0.00000
  70
    32
  0
VERTEX
  8
0
  5
B37
 10
305.242
 20
311.538
 30
0.00000
  70
    32
  0
VERTEX
  8
0
  5
B38
 10
305.210
 20
311.473
 30
0.00000
  70
    32
  0
VERTEX
  8
0
  5
B39
 10
305.178
 20
311.405
 30
0.00000
  70
    32
  0
VERTEX
  8
0
  5
B3A
 10
305.147
 20
311.335
 30
0.00000
  70
    32
  0
VERTEX
  8
0
  5
B3B
 10
305.116
 20
311.263
 30
0.00000
  70
    32
  0
VERTEX
  8
0
  5
B3C
 10
305.086
 20
311.189
 30
0.00000
  70
    32
  0
VERTEX
  8
0
  5
B3D
 10
305.056
 20
311.113
 30
0.00000
  70
    32
  0
VERTEX
  8
0
  5
B3E
 10
305.026
 20
311.035
 30
0.00000
  70
    32
  0
VERTEX
  8
0
  5
B3F
 10
304.996
 20
310.955
 30
0.00000
  70
    32
  0
VERTEX
  8
0
  5
B40
 10
304.967
 20
310.873
 30
0.00000
  70
    32
  0
VERTEX
  8
0
  5
B41
 10
304.938
 20
310.789
 30
0.00000
  70
    32
  0
VERTEX
  8
0
  5
B42
 10
304.910
 20
310.703
 30
0.00000
  70
    32
  0
VERTEX
  8
0
  5
B43
 10
304.882
 20
310.615
 30
0.00000
  70
    32
  0
VERTEX
  8
0
  5
B44
 10
304.855
 20
310.526
 30
0.00000
  70
    32
  0
VERTEX
  8
0
  5
B45
 10
304.827
 20
310.434
 30
0.00000
  70
    32
  0
VERTEX
  8
0
  5
B46
 10
304.801
 20
310.340
 30
0.00000
  70
    32
  0
VERTEX
  8
0
  5
B47
 10
304.774
 20
310.245
 30
0.00000
  70
    32
  0
VERTEX
  8
0
  5
B48
 10
304.749
 20
310.148
 30
0.00000
  70
    32
  0
VERTEX
  8
0
  5
B49
 10
304.723
 20
310.049
 30
0.00000
  70
    32
  0
VERTEX
  8
0
  5
B4A
 10
304.698
 20
309.949
 30
0.00000
  70
    32
  0
VERTEX
  8
0
  5
B4B
 10
304.674
 20
309.847
 30
0.00000
  70
    32
  0
VERTEX
  8
0
  5
B4C
 10
304.650
 20
309.743
 30
0.00000
  70
    32
  0
VERTEX
  8
0
  5
B4D
 10
304.626
 20
309.638
 30
0.00000
  70
    32
  0
VERTEX
  8
0
  5
B4E
 10
304.603
 20
309.531
 30
0.00000
  70
    32
  0
VERTEX
  8
0
  5
B4F
 10
304.580
 20
309.422
 30
0.00000
  70
    32
  0
VERTEX
  8
0
  5
B50
 10
304.558
 20
309.312
 30
0.00000
  70
    32
  0
VERTEX
  8
0
  5
B51
 10
304.537
 20
309.201
 30
0.00000
  70
    32
  0
VERTEX
  8
0
  5
B52
 10
304.516
 20
309.088
 30
0.00000
  70
    32
  0
VERTEX
  8
0
  5
B53
 10
304.495
 20
308.973
 30
0.00000
  70
    32
  0
VERTEX
  8
0
  5
B54
 10
304.475
 20
308.857
 30
0.00000
  70
    32
  0
VERTEX
  8
0
  5
B55
 10
304.456
 20
308.740
 30
0.00000
  70
    32
  0
VERTEX
  8
0
  5
B56
 10
304.437
 20
308.622
 30
0.00000
  70
    32
  0
VERTEX
  8
0
  5
B57
 10
304.418
 20
308.502
 30
0.00000
  70
    32
  0
VERTEX
  8
0
  5
B58
 10
304.400
 20
308.381
 30
0.00000
  70
    32
  0
VERTEX
  8
0
  5
B59
 10
304.383
 20
308.259
 30
0.00000
  70
    32
  0
VERTEX
  8
0
  5
B5A
 10
304.366
 20
308.136
 30
0.00000
  70
    32
  0
VERTEX
  8
0
  5
B5B
 10
304.350
 20
308.011
 30
0.00000
  70
    32
  0
VERTEX
  8
0
  5
B5C
 10
304.335
 20
307.886
 30
0.00000
  70
    32
  0
VERTEX
  8
0
  5
B5D
 10
304.320
 20
307.759
 30
0.00000
  70
    32
  0
VERTEX
  8
0
  5
B5E
 10
304.305
 20
307.632
 30
0.00000
  70
    32
  0
VERTEX
  8
0
  5
B5F
 10
304.291
 20
307.503
 30
0.00000
  70
    32
  0
VERTEX
  8
0
  5
B60
 10
304.278
 20
307.374
 30
0.00000
  70
    32
  0
VERTEX
  8
0
  5
B61
 10
304.265
 20
307.244
 30
0.00000
  70
    32
  0
VERTEX
  8
0
  5
B62
 10
304.253
 20
307.113
 30
0.00000
  70
    32
  0
VERTEX
  8
0
  5
B63
 10
304.242
 20
306.981
 30
0.00000
  70
    32
  0
VERTEX
  8
0
  5
B64
 10
304.231
 20
306.848
 30
0.00000
  70
    32
  0
VERTEX
  8
0
  5
B65
 10
304.220
 20
306.714
 30
0.00000
  70
    32
  0
VERTEX
  8
0
  5
B66
 10
304.211
 20
306.580
 30
0.00000
  70
    32
  0
VERTEX
  8
0
  5
B67
 10
304.202
 20
306.446
 30
0.00000
  70
    32
  0
VERTEX
  8
0
  5
B68
 10
304.193
 20
306.310
 30
0.00000
  70
    32
  0
VERTEX
  8
0
  5
B69
 10
304.185
 20
306.174
 30
0.00000
  70
    32
  0
VERTEX
  8
0
  5
B6A
 10
304.178
 20
306.038
 30
0.00000
  70
    32
  0
VERTEX
  8
0
  5
B6B
 10
304.171
 20
305.901
 30
0.00000
  70
    32
  0
VERTEX
  8
0
  5
B6C
 10
304.165
 20
305.764
 30
0.00000
  70
    32
  0
VERTEX
  8
0
  5
B6D
 10
304.160
 20
305.626
 30
0.00000
  70
    32
  0
VERTEX
  8
0
  5
B6E
 10
304.155
 20
305.488
 30
0.00000
  70
    32
  0
VERTEX
  8
0
  5
B6F
 10
304.151
 20
305.350
 30
0.00000
  70
    32
  0
VERTEX
  8
0
  5
B70
 10
304.148
 20
305.211
 30
0.00000
  70
    32
  0
VERTEX
  8
0
  5
B71
 10
304.145
 20
305.072
 30
0.00000
  70
    32
  0
VERTEX
  8
0
  5
B72
 10
304.143
 20
304.933
 30
0.00000
  70
    32
  0
VERTEX
  8
0
  5
B73
 10
304.141
 20
304.794
 30
0.00000
  70
    32
  0
VERTEX
  8
0
  5
B74
 10
304.140
 20
304.655
 30
0.00000
  70
    32
  0
VERTEX
  8
0
  5
B75
 10
304.140
 20
304.516
 30
0.00000
  70
    32
  0
VERTEX
  8
0
  5
B76
 10
304.140
 20
304.377
 30
0.00000
  70
    32
  0
VERTEX
  8
0
  5
B77
 10
304.141
 20
304.237
 30
0.00000
  70
    32
  0
VERTEX
  8
0
  5
B78
 10
304.143
 20
304.098
 30
0.00000
  70
    32
  0
VERTEX
  8
0
  5
B79
 10
304.145
 20
303.959
 30
0.00000
  70
    32
  0
VERTEX
  8
0
  5
B7A
 10
304.148
 20
303.820
 30
0.00000
  70
    32
  0
VERTEX
  8
0
  5
B7B
 10
304.151
 20
303.682
 30
0.00000
  70
    32
  0
VERTEX
  8
0
  5
B7C
 10
304.155
 20
303.544
 30
0.00000
  70
    32
  0
VERTEX
  8
0
  5
B7D
 10
304.160
 20
303.406
 30
0.00000
  70
    32
  0
VERTEX
  8
0
  5
B7E
 10
304.165
 20
303.268
 30
0.00000
  70
    32
  0
VERTEX
  8
0
  5
B7F
 10
304.171
 20
303.131
 30
0.00000
  70
    32
  0
VERTEX
  8
0
  5
B80
 10
304.178
 20
302.994
 30
0.00000
  70
    32
  0
VERTEX
  8
0
  5
B81
 10
304.185
 20
302.857
 30
0.00000
  70
    32
  0
VERTEX
  8
0
  5
B82
 10
304.193
 20
302.721
 30
0.00000
  70
    32
  0
VERTEX
  8
0
  5
B83
 10
304.202
 20
302.586
 30
0.00000
  70
    32
  0
VERTEX
  8
0
  5
B84
 10
304.211
 20
302.451
 30
0.00000
  70
    32
  0
VERTEX
  8
0
  5
B85
 10
304.220
 20
302.317
 30
0.00000
  70
    32
  0
VERTEX
  8
0
  5
B86
 10
304.231
 20
302.184
 30
0.00000
  70
    32
  0
VERTEX
  8
0
  5
B87
 10
304.242
 20
302.051
 30
0.00000
  70
    32
  0
VERTEX
  8
0
  5
B88
 10
304.253
 20
301.919
 30
0.00000
  70
    32
  0
VERTEX
  8
0
  5
B89
 10
304.265
 20
301.788
 30
0.00000
  70
    32
  0
VERTEX
  8
0
  5
B8A
 10
304.278
 20
301.658
 30
0.00000
  70
    32
  0
VERTEX
  8
0
  5
B8B
 10
304.291
 20
301.528
 30
0.00000
  70
    32
  0
VERTEX
  8
0
  5
B8C
 10
304.305
 20
301.400
 30
0.00000
  70
    32
  0
VERTEX
  8
0
  5
B8D
 10
304.320
 20
301.272
 30
0.00000
  70
    32
  0
VERTEX
  8
0
  5
B8E
 10
304.335
 20
301.146
 30
0.00000
  70
    32
  0
VERTEX
  8
0
  5
B8F
 10
304.350
 20
301.020
 30
0.00000
  70
    32
  0
VERTEX
  8
0
  5
B90
 10
304.366
 20
300.896
 30
0.00000
  70
    32
  0
VERTEX
  8
0
  5
B91
 10
304.383
 20
300.773
 30
0.00000
  70
    32
  0
VERTEX
  8
0
  5
B92
 10
304.400
 20
300.650
 30
0.00000
  70
    32
  0
VERTEX
  8
0
  5
B93
 10
304.418
 20
300.530
 30
0.00000
  70
    32
  0
VERTEX
  8
0
  5
B94
 10
304.437
 20
300.410
 30
0.00000
  70
    32
  0
VERTEX
  8
0
  5
B95
 10
304.456
 20
300.291
 30
0.00000
  70
    32
  0
VERTEX
  8
0
  5
B96
 10
304.475
 20
300.174
 30
0.00000
  70
    32
  0
VERTEX
  8
0
  5
B97
 10
304.495
 20
300.058
 30
0.00000
  70
    32
  0
VERTEX
  8
0
  5
B98
 10
304.516
 20
299.944
 30
0.00000
  70
    32
  0
VERTEX
  8
0
  5
B99
 10
304.537
 20
299.831
 30
0.00000
  70
    32
  0
VERTEX
  8
0
  5
B9A
 10
304.558
 20
299.720
 30
0.00000
  70
    32
  0
VERTEX
  8
0
  5
B9B
 10
304.580
 20
299.610
 30
0.00000
  70
    32
  0
VERTEX
  8
0
  5
B9C
 10
304.603
 20
299.501
 30
0.00000
  70
    32
  0
VERTEX
  8
0
  5
B9D
 10
304.626
 20
299.394
 30
0.00000
  70
    32
  0
VERTEX
  8
0
  5
B9E
 10
304.650
 20
299.289
 30
0.00000
  70
    32
  0
VERTEX
  8
0
  5
B9F
 10
304.674
 20
299.185
 30
0.00000
  70
    32
  0
VERTEX
  8
0
  5
BA0
 10
304.698
 20
299.083
 30
0.00000
  70
    32
  0
VERTEX
  8
0
  5
BA1
 10
304.723
 20
298.982
 30
0.00000
  70
    32
  0
VERTEX
  8
0
  5
BA2
 10
304.749
 20
298.883
 30
0.00000
  70
    32
  0
VERTEX
  8
0
  5
BA3
 10
304.774
 20
298.786
 30
0.00000
  70
    32
  0
VERTEX
  8
0
  5
BA4
 10
304.801
 20
298.691
 30
0.00000
  70
    32
  0
VERTEX
  8
0
  5
BA5
 10
304.827
 20
298.598
 30
0.00000
  70
    32
  0
VERTEX
  8
0
  5
BA6
 10
304.855
 20
298.506
 30
0.00000
  70
    32
  0
VERTEX
  8
0
  5
BA7
 10
304.882
 20
298.416
 30
0.00000
  70
    32
  0
VERTEX
  8
0
  5
BA8
 10
304.910
 20
298.328
 30
0.00000
  70
    32
  0
VERTEX
  8
0
  5
BA9
 10
304.938
 20
298.242
 30
0.00000
  70
    32
  0
VERTEX
  8
0
  5
BAA
 10
304.967
 20
298.158
 30
0.00000
  70
    32
  0
VERTEX
  8
0
  5
BAB
 10
304.996
 20
298.076
 30
0.00000
  70
    32
  0
VERTEX
  8
0
  5
BAC
 10
305.026
 20
297.996
 30
0.00000
  70
    32
  0
VERTEX
  8
0
  5
BAD
 10
305.056
 20
297.918
 30
0.00000
  70
    32
  0
VERTEX
  8
0
  5
BAE
 10
305.086
 20
297.842
 30
0.00000
  70
    32
  0
VERTEX
  8
0
  5
BAF
 10
305.116
 20
297.768
 30
0.00000
  70
    32
  0
VERTEX
  8
0
  5
BB0
 10
305.147
 20
297.696
 30
0.00000
  70
    32
  0
VERTEX
  8
0
  5
BB1
 10
305.178
 20
297.627
 30
0.00000
  70
    32
  0
VERTEX
  8
0
  5
BB2
 10
305.210
 20
297.559
 30
0.00000
  70
    32
  0
VERTEX
  8
0
  5
BB3
 10
305.242
 20
297.494
 30
0.00000
  70
    32
  0
VERTEX
  8
0
  5
BB4
 10
305.274
 20
297.430
 30
0.00000
  70
    32
  0
VERTEX
  8
0
  5
BB5
 10
305.306
 20
297.369
 30
0.00000
  70
    32
  0
SEQEND
  8
0
  5
BB6
  0
ARC
  5
4C2
  8
0
 10
318.4942458863433785
 20
304.5158092973404109
 30
0.0
 40
14.9999999999999893
 50
208.4530914298132984
 51
151.5469085701865879
  0
LINE
  5
4C5
  8
1
 10
166.0
 20
304.5158092973404109
 30
0.0
 11
338.4942458863433785
 21
304.5158092973404109
 31
0.0
  0
LINE
  5
4C6
  8
1
 10
191.5
 20
279.0158092973404109
 30
0.0
 11
191.5
 21
330.0158092973404109
 31
0.0
  0
LINE
  5
4C8
  8
1
 10
318.4942458863433785
 20
284.5158092973404109
 30
0.0
 11
318.4942458863433785
 21
324.5158092973404109
 31
0.0
  0
LINE
  5
4D3
  8
0
 10
423.4942458863433785
 20
171.0
 30
0.0
 11
404.4942458863434922
 21
171.0
 31
0.0
  0
LINE
  5
4D4
  8
0
 10
404.4942458863434922
 20
173.0
 30
0.0
 11
404.4942458863434922
 21
171.0
 31
0.0
  0
LINE
  5
4D5
  8
0
 10
423.4942458863433785
 20
171.0
 30
0.0
 11
423.4942458863433785
 21
173.0
 31
0.0
  0
LINE
  5
4D6
  8
0
 10
407.9942458863434922
 20
193.0
 30
0.0
 11
394.5942458863435149
 21
193.0
 31
0.0
  0
LINE
  5
4D8
  8
0
 10
433.3942458863434126
 20
193.0
 30
0.0
 11
419.9942458863434922
 21
193.0
 31
0.0
  0
LINE
  5
4D9
  8
0
 10
394.5942458863435149
 20
193.0
 30
0.0
 11
393.4942458863434922
 21
191.9000000000000057
 31
0.0
  0
LINE
  5
4DA
  8
0
 10
434.4942458863433785
 20
191.9000000000000057
 30
0.0
 11
433.3942458863434126
 21
193.0
 31
0.0
  0
LINE
  5
4DB
  8
0
 10
434.2942458863435036
 20
173.0
 30
0.0
 11
393.694245886343424
 21
173.0
 31
0.0
  0
LINE
  5
4DC
  8
0
 10
434.2942458863435036
 20
173.0
 30
0.0
 11
434.4942458863433785
 21
173.1999999999999886
 31
0.0
  0
LINE
  5
4DD
  8
0
 10
393.4942458863434922
 20
173.1999999999999886
 30
0.0
 11
393.694245886343424
 21
173.0
 31
0.0
  0
LINE
  5
4DE
  8
0
 10
434.4942458863433785
 20
173.1999999999999886
 30
0.0
 11
393.4942458863434922
 21
173.1999999999999886
 31
0.0
  0
LINE
  5
4DF
  8
0
 10
407.9942458863434922
 20
191.9000000000000057
 30
0.0
 11
393.4942458863434922
 21
191.9000000000000057
 31
0.0
  0
LINE
  5
4E1
  8
0
 10
434.4942458863433785
 20
191.9000000000000057
 30
0.0
 11
419.9942458863434922
 21
191.9000000000000057
 31
0.0
  0
LINE
  5
4E2
  8
0
 10
393.4942458863434922
 20
191.9000000000000057
 30
0.0
 11
393.4942458863434922
 21
173.1999999999999886
 31
0.0
  0
LINE
  5
4E3
  8
0
 10
434.4942458863433785
 20
173.1999999999999886
 30
0.0
 11
434.4942458863433785
 21
191.9000000000000057
 31
0.0
  0
ARC
  5
4E4
  8
0
 10
413.9942458863433785
 20
184.5
 30
0.0
 40
5.9999999999999991
 50
179.0237995983275141
 51
0.9762004016724593
  0
ARC
  5
4EA
  8
0
 10
413.9942458863434922
 20
184.7044450422656041
 30
0.0
 40
6.0000000000001421
 50
180.0000000000015916
 51
180.9762004016093897
  0
ARC
  5
4EB
  8
0
 10
413.9942458863433217
 20
184.7044450422656041
 30
0.0
 40
6.000000000000111
 50
359.0237995983995916
 51
359.9999999999984084
  0
LINE
  5
4F1
  8
0
 10
419.9942458863434922
 20
184.7044450422654904
 30
0.0
 11
419.9942458863434922
 21
195.2680822124727911
 31
0.0
  0
LINE
  5
4F2
  8
0
 10
407.9942458863434922
 20
195.2680822124727911
 30
0.0
 11
407.9942458863434922
 21
184.7044450422654904
 31
0.0
  0
CIRCLE
  5
4F7
  8
0
 10
413.9942458863433785
 20
209.0158092973402972
 30
0.0
 40
15.0
  0
LINE
  5
4FC
  8
1
 10
393.9942458863434922
 20
209.0158092973402972
 30
0.0
 11
433.9942458863433785
 21
209.0158092973402972
 31
0.0
  0
LINE
  5
4FD
  8
1
 10
413.9942458863433785
 20
166.0
 30
0.0
 11
413.9942458863433785
 21
229.0158092973404109
 31
0.0
  0
LINE
  5
4FE
  8
1
 10
402.9942458863434922
 20
184.5
 30
0.0
 11
424.9942458863434922
 21
184.5
 31
0.0
  0
CIRCLE
  5
616
  8
3
 10
191.5
 20
90.5
 30
0.0
 40
5.0
  0
CIRCLE
  5
617
  8
0
 10
191.5
 20
90.5
 30
0.0
 40
9.5000000000000018
  0
CIRCLE
  5
618
  8
0
 10
191.5
 20
90.5
 30
0.0
 40
20.3000000000000007
  0
LINE
  5
627
  8
0
 10
227.0
 20
84.5000000000000142
 30
0.0
 11
227.0
 21
96.5
 31
0.0
  0
CIRCLE
  5
629
  8
0
 10
191.5
 20
90.5
 30
0.0
 40
4.1879999999999988
  0
CIRCLE
  5
62A
  8
0
 10
191.5
 20
90.5
 30
0.0
 40
20.5
  0
LINE
  5
62E
  8
0
 10
211.1022957839126093
 20
84.5000000000000142
 30
0.0
 11
306.3518144564072827
 21
84.5000000000000142
 31
0.0
  0
LINE
  5
62F
  8
0
 10
306.3518144564072827
 20
96.5
 30
0.0
 11
211.1022957839126093
 21
96.5
 31
0.0
  0
POLYLINE
  5
632
  8
0
 10
305.3061338024475617
 20
97.6465865742046191
 30
0.0
 66
     1
 70
     8
  0
VERTEX
  8
0
  5
BB7
 10
305.306
 20
97.6466
 30
0.00000
  70
    32
  0
VERTEX
  8
0
  5
BB8
 10
305.302
 20
97.6395
 30
0.00000
  70
    32
  0
VERTEX
  8
0
  5
BB9
 10
305.298
 20
97.6324
 30
0.00000
  70
    32
  0
VERTEX
  8
0
  5
BBA
 10
305.295
 20
97.6252
 30
0.00000
  70
    32
  0
VERTEX
  8
0
  5
BBB
 10
305.291
 20
97.6180
 30
0.00000
  70
    32
  0
VERTEX
  8
0
  5
BBC
 10
305.287
 20
97.6108
 30
0.00000
  70
    32
  0
VERTEX
  8
0
  5
BBD
 10
305.283
 20
97.6035
 30
0.00000
  70
    32
  0
VERTEX
  8
0
  5
BBE
 10
305.279
 20
97.5963
 30
0.00000
  70
    32
  0
VERTEX
  8
0
  5
BBF
 10
305.276
 20
97.5889
 30
0.00000
  70
    32
  0
VERTEX
  8
0
  5
BC0
 10
305.272
 20
97.5816
 30
0.00000
  70
    32
  0
VERTEX
  8
0
  5
BC1
 10
305.268
 20
97.5742
 30
0.00000
  70
    32
  0
VERTEX
  8
0
  5
BC2
 10
305.264
 20
97.5668
 30
0.00000
  70
    32
  0
VERTEX
  8
0
  5
BC3
 10
305.260
 20
97.5594
 30
0.00000
  70
    32
  0
VERTEX
  8
0
  5
BC4
 10
305.257
 20
97.5519
 30
0.00000
  70
    32
  0
VERTEX
  8
0
  5
BC5
 10
305.253
 20
97.5444
 30
0.00000
  70
    32
  0
VERTEX
  8
0
  5
BC6
 10
305.249
 20
97.5369
 30
0.00000
  70
    32
  0
VERTEX
  8
0
  5
BC7
 10
305.245
 20
97.5293
 30
0.00000
  70
    32
  0
VERTEX
  8
0
  5
BC8
 10
305.241
 20
97.5218
 30
0.00000
  70
    32
  0
VERTEX
  8
0
  5
BC9
 10
305.238
 20
97.5141
 30
0.00000
  70
    32
  0
VERTEX
  8
0
  5
BCA
 10
305.234
 20
97.5065
 30
0.00000
  70
    32
  0
VERTEX
  8
0
  5
BCB
 10
305.230
 20
97.4988
 30
0.00000
  70
    32
  0
VERTEX
  8
0
  5
BCC
 10
305.226
 20
97.4911
 30
0.00000
  70
    32
  0
VERTEX
  8
0
  5
BCD
 10
305.223
 20
97.4834
 30
0.00000
  70
    32
  0
VERTEX
  8
0
  5
BCE
 10
305.219
 20
97.4756
 30
0.00000
  70
    32
  0
VERTEX
  8
0
  5
BCF
 10
305.215
 20
97.4678
 30
0.00000
  70
    32
  0
VERTEX
  8
0
  5
BD0
 10
305.211
 20
97.4600
 30
0.00000
  70
    32
  0
VERTEX
  8
0
  5
BD1
 10
305.208
 20
97.4521
 30
0.00000
  70
    32
  0
VERTEX
  8
0
  5
BD2
 10
305.204
 20
97.4442
 30
0.00000
  70
    32
  0
VERTEX
  8
0
  5
BD3
 10
305.200
 20
97.4363
 30
0.00000
  70
    32
  0
VERTEX
  8
0
  5
BD4
 10
305.196
 20
97.4284
 30
0.00000
  70
    32
  0
VERTEX
  8
0
  5
BD5
 10
305.193
 20
97.4204
 30
0.00000
  70
    32
  0
VERTEX
  8
0
  5
BD6
 10
305.189
 20
97.4124
 30
0.00000
  70
    32
  0
VERTEX
  8
0
  5
BD7
 10
305.185
 20
97.4044
 30
0.00000
  70
    32
  0
VERTEX
  8
0
  5
BD8
 10
305.182
 20
97.3963
 30
0.00000
  70
    32
  0
VERTEX
  8
0
  5
BD9
 10
305.178
 20
97.3882
 30
0.00000
  70
    32
  0
VERTEX
  8
0
  5
BDA
 10
305.174
 20
97.3801
 30
0.00000
  70
    32
  0
VERTEX
  8
0
  5
BDB
 10
305.171
 20
97.3719
 30
0.00000
  70
    32
  0
VERTEX
  8
0
  5
BDC
 10
305.167
 20
97.3637
 30
0.00000
  70
    32
  0
VERTEX
  8
0
  5
BDD
 10
305.163
 20
97.3555
 30
0.00000
  70
    32
  0
VERTEX
  8
0
  5
BDE
 10
305.160
 20
97.3473
 30
0.00000
  70
    32
  0
VERTEX
  8
0
  5
BDF
 10
305.156
 20
97.3390
 30
0.00000
  70
    32
  0
VERTEX
  8
0
  5
BE0
 10
305.152
 20
97.3307
 30
0.00000
  70
    32
  0
VERTEX
  8
0
  5
BE1
 10
305.148
 20
97.3224
 30
0.00000
  70
    32
  0
VERTEX
  8
0
  5
BE2
 10
305.145
 20
97.3140
 30
0.00000
  70
    32
  0
VERTEX
  8
0
  5
BE3
 10
305.141
 20
97.3056
 30
0.00000
  70
    32
  0
VERTEX
  8
0
  5
BE4
 10
305.138
 20
97.2972
 30
0.00000
  70
    32
  0
VERTEX
  8
0
  5
BE5
 10
305.134
 20
97.2887
 30
0.00000
  70
    32
  0
VERTEX
  8
0
  5
BE6
 10
305.130
 20
97.2803
 30
0.00000
  70
    32
  0
VERTEX
  8
0
  5
BE7
 10
305.127
 20
97.2718
 30
0.00000
  70
    32
  0
VERTEX
  8
0
  5
BE8
 10
305.123
 20
97.2632
 30
0.00000
  70
    32
  0
VERTEX
  8
0
  5
BE9
 10
305.119
 20
97.2546
 30
0.00000
  70
    32
  0
VERTEX
  8
0
  5
BEA
 10
305.116
 20
97.2461
 30
0.00000
  70
    32
  0
VERTEX
  8
0
  5
BEB
 10
305.112
 20
97.2374
 30
0.00000
  70
    32
  0
VERTEX
  8
0
  5
BEC
 10
305.108
 20
97.2288
 30
0.00000
  70
    32
  0
VERTEX
  8
0
  5
BED
 10
305.105
 20
97.2201
 30
0.00000
  70
    32
  0
VERTEX
  8
0
  5
BEE
 10
305.101
 20
97.2114
 30
0.00000
  70
    32
  0
VERTEX
  8
0
  5
BEF
 10
305.098
 20
97.2026
 30
0.00000
  70
    32
  0
VERTEX
  8
0
  5
BF0
 10
305.094
 20
97.1939
 30
0.00000
  70
    32
  0
VERTEX
  8
0
  5
BF1
 10
305.090
 20
97.1851
 30
0.00000
  70
    32
  0
VERTEX
  8
0
  5
BF2
 10
305.087
 20
97.1763
 30
0.00000
  70
    32
  0
VERTEX
  8
0
  5
BF3
 10
305.083
 20
97.1674
 30
0.00000
  70
    32
  0
VERTEX
  8
0
  5
BF4
 10
305.080
 20
97.1585
 30
0.00000
  70
    32
  0
VERTEX
  8
0
  5
BF5
 10
305.076
 20
97.1496
 30
0.00000
  70
    32
  0
VERTEX
  8
0
  5
BF6
 10
305.073
 20
97.1407
 30
0.00000
  70
    32
  0
VERTEX
  8
0
  5
BF7
 10
305.069
 20
97.1317
 30
0.00000
  70
    32
  0
VERTEX
  8
0
  5
BF8
 10
305.065
 20
97.1227
 30
0.00000
  70
    32
  0
VERTEX
  8
0
  5
BF9
 10
305.062
 20
97.1137
 30
0.00000
  70
    32
  0
VERTEX
  8
0
  5
BFA
 10
305.058
 20
97.1046
 30
0.00000
  70
    32
  0
VERTEX
  8
0
  5
BFB
 10
305.055
 20
97.0955
 30
0.00000
  70
    32
  0
VERTEX
  8
0
  5
BFC
 10
305.051
 20
97.0864
 30
0.00000
  70
    32
  0
VERTEX
  8
0
  5
BFD
 10
305.048
 20
97.0773
 30
0.00000
  70
    32
  0
VERTEX
  8
0
  5
BFE
 10
305.044
 20
97.0681
 30
0.00000
  70
    32
  0
VERTEX
  8
0
  5
BFF
 10
305.041
 20
97.0589
 30
0.00000
  70
    32
  0
VERTEX
  8
0
  5
C00
 10
305.037
 20
97.0497
 30
0.00000
  70
    32
  0
VERTEX
  8
0
  5
C01
 10
305.034
 20
97.0404
 30
0.00000
  70
    32
  0
VERTEX
  8
0
  5
C02
 10
305.030
 20
97.0311
 30
0.00000
  70
    32
  0
VERTEX
  8
0
  5
C03
 10
305.027
 20
97.0218
 30
0.00000
  70
    32
  0
VERTEX
  8
0
  5
C04
 10
305.023
 20
97.0125
 30
0.00000
  70
    32
  0
VERTEX
  8
0
  5
C05
 10
305.020
 20
97.0031
 30
0.00000
  70
    32
  0
VERTEX
  8
0
  5
C06
 10
305.016
 20
96.9937
 30
0.00000
  70
    32
  0
VERTEX
  8
0
  5
C07
 10
305.013
 20
96.9843
 30
0.00000
  70
    32
  0
VERTEX
  8
0
  5
C08
 10
305.009
 20
96.9749
 30
0.00000
  70
    32
  0
VERTEX
  8
0
  5
C09
 10
305.006
 20
96.9654
 30
0.00000
  70
    32
  0
VERTEX
  8
0
  5
C0A
 10
305.002
 20
96.9559
 30
0.00000
  70
    32
  0
VERTEX
  8
0
  5
C0B
 10
304.999
 20
96.9463
 30
0.00000
  70
    32
  0
VERTEX
  8
0
  5
C0C
 10
304.995
 20
96.9368
 30
0.00000
  70
    32
  0
VERTEX
  8
0
  5
C0D
 10
304.992
 20
96.9272
 30
0.00000
  70
    32
  0
VERTEX
  8
0
  5
C0E
 10
304.988
 20
96.9176
 30
0.00000
  70
    32
  0
VERTEX
  8
0
  5
C0F
 10
304.985
 20
96.9079
 30
0.00000
  70
    32
  0
VERTEX
  8
0
  5
C10
 10
304.981
 20
96.8983
 30
0.00000
  70
    32
  0
VERTEX
  8
0
  5
C11
 10
304.978
 20
96.8886
 30
0.00000
  70
    32
  0
VERTEX
  8
0
  5
C12
 10
304.975
 20
96.8788
 30
0.00000
  70
    32
  0
VERTEX
  8
0
  5
C13
 10
304.971
 20
96.8691
 30
0.00000
  70
    32
  0
VERTEX
  8
0
  5
C14
 10
304.968
 20
96.8593
 30
0.00000
  70
    32
  0
VERTEX
  8
0
  5
C15
 10
304.964
 20
96.8495
 30
0.00000
  70
    32
  0
VERTEX
  8
0
  5
C16
 10
304.961
 20
96.8397
 30
0.00000
  70
    32
  0
VERTEX
  8
0
  5
C17
 10
304.958
 20
96.8298
 30
0.00000
  70
    32
  0
VERTEX
  8
0
  5
C18
 10
304.954
 20
96.8199
 30
0.00000
  70
    32
  0
VERTEX
  8
0
  5
C19
 10
304.951
 20
96.8100
 30
0.00000
  70
    32
  0
VERTEX
  8
0
  5
C1A
 10
304.947
 20
96.8000
 30
0.00000
  70
    32
  0
VERTEX
  8
0
  5
C1B
 10
304.944
 20
96.7901
 30
0.00000
  70
    32
  0
VERTEX
  8
0
  5
C1C
 10
304.941
 20
96.7801
 30
0.00000
  70
    32
  0
VERTEX
  8
0
  5
C1D
 10
304.937
 20
96.7700
 30
0.00000
  70
    32
  0
VERTEX
  8
0
  5
C1E
 10
304.934
 20
96.7600
 30
0.00000
  70
    32
  0
VERTEX
  8
0
  5
C1F
 10
304.931
 20
96.7499
 30
0.00000
  70
    32
  0
VERTEX
  8
0
  5
C20
 10
304.927
 20
96.7398
 30
0.00000
  70
    32
  0
VERTEX
  8
0
  5
C21
 10
304.924
 20
96.7297
 30
0.00000
  70
    32
  0
VERTEX
  8
0
  5
C22
 10
304.921
 20
96.7195
 30
0.00000
  70
    32
  0
VERTEX
  8
0
  5
C23
 10
304.917
 20
96.7093
 30
0.00000
  70
    32
  0
VERTEX
  8
0
  5
C24
 10
304.914
 20
96.6991
 30
0.00000
  70
    32
  0
VERTEX
  8
0
  5
C25
 10
304.911
 20
96.6889
 30
0.00000
  70
    32
  0
VERTEX
  8
0
  5
C26
 10
304.907
 20
96.6786
 30
0.00000
  70
    32
  0
VERTEX
  8
0
  5
C27
 10
304.904
 20
96.6683
 30
0.00000
  70
    32
  0
VERTEX
  8
0
  5
C28
 10
304.901
 20
96.6580
 30
0.00000
  70
    32
  0
VERTEX
  8
0
  5
C29
 10
304.897
 20
96.6476
 30
0.00000
  70
    32
  0
VERTEX
  8
0
  5
C2A
 10
304.894
 20
96.6373
 30
0.00000
  70
    32
  0
VERTEX
  8
0
  5
C2B
 10
304.891
 20
96.6269
 30
0.00000
  70
    32
  0
VERTEX
  8
0
  5
C2C
 10
304.887
 20
96.6164
 30
0.00000
  70
    32
  0
VERTEX
  8
0
  5
C2D
 10
304.884
 20
96.6060
 30
0.00000
  70
    32
  0
VERTEX
  8
0
  5
C2E
 10
304.881
 20
96.5955
 30
0.00000
  70
    32
  0
VERTEX
  8
0
  5
C2F
 10
304.878
 20
96.5850
 30
0.00000
  70
    32
  0
VERTEX
  8
0
  5
C30
 10
304.874
 20
96.5745
 30
0.00000
  70
    32
  0
VERTEX
  8
0
  5
C31
 10
304.871
 20
96.5639
 30
0.00000
  70
    32
  0
VERTEX
  8
0
  5
C32
 10
304.868
 20
96.5533
 30
0.00000
  70
    32
  0
VERTEX
  8
0
  5
C33
 10
304.865
 20
96.5427
 30
0.00000
  70
    32
  0
VERTEX
  8
0
  5
C34
 10
304.861
 20
96.5321
 30
0.00000
  70
    32
  0
VERTEX
  8
0
  5
C35
 10
304.858
 20
96.5214
 30
0.00000
  70
    32
  0
VERTEX
  8
0
  5
C36
 10
304.855
 20
96.5107
 30
0.00000
  70
    32
  0
VERTEX
  8
0
  5
C37
 10
304.852
 20
96.5000
 30
0.00000
  70
    32
  0
SEQEND
  8
0
  5
C38
  0
ARC
  5
633
  8
0
 10
318.4942458863433785
 20
90.5
 30
0.0
 40
14.9999999999999893
 50
208.4530914298132984
 51
151.5469085701865879
  0
POLYLINE
  5
634
  8
0
 10
305.3061338024475049
 20
83.3534134257953525
 30
0.0
 66
     1
 70
     8
  0
VERTEX
  8
0
  5
C39
 10
305.306
 20
83.3534
 30
0.00000
  70
    32
  0
VERTEX
  8
0
  5
C3A
 10
305.365
 20
83.2494
 30
0.00000
  70
    32
  0
VERTEX
  8
0
  5
C3B
 10
305.424
 20
83.1527
 30
0.00000
  70
    32
  0
VERTEX
  8
0
  5
C3C
 10
305.485
 20
83.0632
 30
0.00000
  70
    32
  0
VERTEX
  8
0
  5
C3D
 10
305.546
 20
82.9811
 30
0.00000
  70
    32
  0
VERTEX
  8
0
  5
C3E
 10
305.607
 20
82.9064
 30
0.00000
  70
    32
  0
VERTEX
  8
0
  5
C3F
 10
305.669
 20
82.8393
 30
0.00000
  70
    32
  0
VERTEX
  8
0
  5
C40
 10
305.732
 20
82.7798
 30
0.00000
  70
    32
  0
VERTEX
  8
0
  5
C41
 10
305.795
 20
82.7280
 30
0.00000
  70
    32
  0
VERTEX
  8
0
  5
C42
 10
305.859
 20
82.6839
 30
0.00000
  70
    32
  0
VERTEX
  8
0
  5
C43
 10
305.923
 20
82.6475
 30
0.00000
  70
    32
  0
VERTEX
  8
0
  5
C44
 10
305.987
 20
82.6189
 30
0.00000
  70
    32
  0
VERTEX
  8
0
  5
C45
 10
306.051
 20
82.5982
 30
0.00000
  70
    32
  0
VERTEX
  8
0
  5
C46
 10
306.116
 20
82.5852
 30
0.00000
  70
    32
  0
VERTEX
  8
0
  5
C47
 10
306.180
 20
82.5802
 30
0.00000
  70
    32
  0
VERTEX
  8
0
  5
C48
 10
306.245
 20
82.5830
 30
0.00000
  70
    32
  0
VERTEX
  8
0
  5
C49
 10
306.309
 20
82.5937
 30
0.00000
  70
    32
  0
VERTEX
  8
0
  5
C4A
 10
306.374
 20
82.6122
 30
0.00000
  70
    32
  0
VERTEX
  8
0
  5
C4B
 10
306.438
 20
82.6385
 30
0.00000
  70
    32
  0
VERTEX
  8
0
  5
C4C
 10
306.502
 20
82.6727
 30
0.00000
  70
    32
  0
VERTEX
  8
0
  5
C4D
 10
306.566
 20
82.7146
 30
0.00000
  70
    32
  0
VERTEX
  8
0
  5
C4E
 10
306.629
 20
82.7642
 30
0.00000
  70
    32
  0
VERTEX
  8
0
  5
C4F
 10
306.692
 20
82.8215
 30
0.00000
  70
    32
  0
VERTEX
  8
0
  5
C50
 10
306.754
 20
82.8865
 30
0.00000
  70
    32
  0
VERTEX
  8
0
  5
C51
 10
306.816
 20
82.9590
 30
0.00000
  70
    32
  0
VERTEX
  8
0
  5
C52
 10
306.877
 20
83.0390
 30
0.00000
  70
    32
  0
VERTEX
  8
0
  5
C53
 10
306.938
 20
83.1264
 30
0.00000
  70
    32
  0
VERTEX
  8
0
  5
C54
 10
306.997
 20
83.2211
 30
0.00000
  70
    32
  0
VERTEX
  8
0
  5
C55
 10
307.056
 20
83.3230
 30
0.00000
  70
    32
  0
VERTEX
  8
0
  5
C56
 10
307.114
 20
83.4320
 30
0.00000
  70
    32
  0
VERTEX
  8
0
  5
C57
 10
307.172
 20
83.5481
 30
0.00000
  70
    32
  0
VERTEX
  8
0
  5
C58
 10
307.228
 20
83.6711
 30
0.00000
  70
    32
  0
VERTEX
  8
0
  5
C59
 10
307.283
 20
83.8008
 30
0.00000
  70
    32
  0
VERTEX
  8
0
  5
C5A
 10
307.337
 20
83.9372
 30
0.00000
  70
    32
  0
VERTEX
  8
0
  5
C5B
 10
307.390
 20
84.0801
 30
0.00000
  70
    32
  0
VERTEX
  8
0
  5
C5C
 10
307.442
 20
84.2294
 30
0.00000
  70
    32
  0
VERTEX
  8
0
  5
C5D
 10
307.492
 20
84.3849
 30
0.00000
  70
    32
  0
VERTEX
  8
0
  5
C5E
 10
307.541
 20
84.5465
 30
0.00000
  70
    32
  0
VERTEX
  8
0
  5
C5F
 10
307.589
 20
84.7140
 30
0.00000
  70
    32
  0
VERTEX
  8
0
  5
C60
 10
307.636
 20
84.8872
 30
0.00000
  70
    32
  0
VERTEX
  8
0
  5
C61
 10
307.681
 20
85.0660
 30
0.00000
  70
    32
  0
VERTEX
  8
0
  5
C62
 10
307.724
 20
85.2502
 30
0.00000
  70
    32
  0
VERTEX
  8
0
  5
C63
 10
307.766
 20
85.4396
 30
0.00000
  70
    32
  0
VERTEX
  8
0
  5
C64
 10
307.807
 20
85.6340
 30
0.00000
  70
    32
  0
VERTEX
  8
0
  5
C65
 10
307.846
 20
85.8333
 30
0.00000
  70
    32
  0
VERTEX
  8
0
  5
C66
 10
307.883
 20
86.0372
 30
0.00000
  70
    32
  0
VERTEX
  8
0
  5
C67
 10
307.919
 20
86.2455
 30
0.00000
  70
    32
  0
VERTEX
  8
0
  5
C68
 10
307.952
 20
86.4580
 30
0.00000
  70
    32
  0
VERTEX
  8
0
  5
C69
 10
307.984
 20
86.6746
 30
0.00000
  70
    32
  0
VERTEX
  8
0
  5
C6A
 10
308.015
 20
86.8949
 30
0.00000
  70
    32
  0
VERTEX
  8
0
  5
C6B
 10
308.043
 20
87.1189
 30
0.00000
  70
    32
  0
VERTEX
  8
0
  5
C6C
 10
308.070
 20
87.3461
 30
0.00000
  70
    32
  0
VERTEX
  8
0
  5
C6D
 10
308.095
 20
87.5765
 30
0.00000
  70
    32
  0
VERTEX
  8
0
  5
C6E
 10
308.118
 20
87.8099
 30
0.00000
  70
    32
  0
VERTEX
  8
0
  5
C6F
 10
308.138
 20
88.0458
 30
0.00000
  70
    32
  0
VERTEX
  8
0
  5
C70
 10
308.158
 20
88.2843
 30
0.00000
  70
    32
  0
VERTEX
  8
0
  5
C71
 10
308.175
 20
88.5249
 30
0.00000
  70
    32
  0
VERTEX
  8
0
  5
C72
 10
308.190
 20
88.7675
 30
0.00000
  70
    32
  0
VERTEX
  8
0
  5
C73
 10
308.203
 20
89.0118
 30
0.00000
  70
    32
  0
VERTEX
  8
0
  5
C74
 10
308.214
 20
89.2575
 30
0.00000
  70
    32
  0
VERTEX
  8
0
  5
C75
 10
308.223
 20
89.5045
 30
0.00000
  70
    32
  0
VERTEX
  8
0
  5
C76
 10
308.230
 20
89.7525
 30
0.00000
  70
    32
  0
VERTEX
  8
0
  5
C77
 10
308.235
 20
90.0013
 30
0.00000
  70
    32
  0
VERTEX
  8
0
  5
C78
 10
308.238
 20
90.2505
 30
0.00000
  70
    32
  0
VERTEX
  8
0
  5
C79
 10
308.239
 20
90.5000
 30
0.00000
  70
    32
  0
VERTEX
  8
0
  5
C7A
 10
308.238
 20
90.7495
 30
0.00000
  70
    32
  0
VERTEX
  8
0
  5
C7B
 10
308.235
 20
90.9987
 30
0.00000
  70
    32
  0
VERTEX
  8
0
  5
C7C
 10
308.230
 20
91.2475
 30
0.00000
  70
    32
  0
VERTEX
  8
0
  5
C7D
 10
308.223
 20
91.4955
 30
0.00000
  70
    32
  0
VERTEX
  8
0
  5
C7E
 10
308.214
 20
91.7425
 30
0.00000
  70
    32
  0
VERTEX
  8
0
  5
C7F
 10
308.203
 20
91.9882
 30
0.00000
  70
    32
  0
VERTEX
  8
0
  5
C80
 10
308.190
 20
92.2325
 30
0.00000
  70
    32
  0
VERTEX
  8
0
  5
C81
 10
308.175
 20
92.4751
 30
0.00000
  70
    32
  0
VERTEX
  8
0
  5
C82
 10
308.158
 20
92.7157
 30
0.00000
  70
    32
  0
VERTEX
  8
0
  5
C83
 10
308.138
 20
92.9542
 30
0.00000
  70
    32
  0
VERTEX
  8
0
  5
C84
 10
308.118
 20
93.1901
 30
0.00000
  70
    32
  0
VERTEX
  8
0
  5
C85
 10
308.095
 20
93.4235
 30
0.00000
  70
    32
  0
VERTEX
  8
0
  5
C86
 10
308.070
 20
93.6539
 30
0.00000
  70
    32
  0
VERTEX
  8
0
  5
C87
 10
308.043
 20
93.8811
 30
0.00000
  70
    32
  0
VERTEX
  8
0
  5
C88
 10
308.015
 20
94.1051
 30
0.00000
  70
    32
  0
VERTEX
  8
0
  5
C89
 10
307.984
 20
94.3254
 30
0.00000
  70
    32
  0
VERTEX
  8
0
  5
C8A
 10
307.952
 20
94.5420
 30
0.00000
  70
    32
  0
VERTEX
  8
0
  5
C8B
 10
307.919
 20
94.7545
 30
0.00000
  70
    32
  0
VERTEX
  8
0
  5
C8C
 10
307.883
 20
94.9628
 30
0.00000
  70
    32
  0
VERTEX
  8
0
  5
C8D
 10
307.846
 20
95.1667
 30
0.00000
  70
    32
  0
VERTEX
  8
0
  5
C8E
 10
307.807
 20
95.3660
 30
0.00000
  70
    32
  0
VERTEX
  8
0
  5
C8F
 10
307.766
 20
95.5604
 30
0.00000
  70
    32
  0
VERTEX
  8
0
  5
C90
 10
307.724
 20
95.7498
 30
0.00000
  70
    32
  0
VERTEX
  8
0
  5
C91
 10
307.681
 20
95.9340
 30
0.00000
  70
    32
  0
VERTEX
  8
0
  5
C92
 10
307.636
 20
96.1128
 30
0.00000
  70
    32
  0
VERTEX
  8
0
  5
C93
 10
307.589
 20
96.2860
 30
0.00000
  70
    32
  0
VERTEX
  8
0
  5
C94
 10
307.541
 20
96.4535
 30
0.00000
  70
    32
  0
VERTEX
  8
0
  5
C95
 10
307.492
 20
96.6151
 30
0.00000
  70
    32
  0
VERTEX
  8
0
  5
C96
 10
307.442
 20
96.7706
 30
0.00000
  70
    32
  0
VERTEX
  8
0
  5
C97
 10
307.390
 20
96.9199
 30
0.00000
  70
    32
  0
VERTEX
  8
0
  5
C98
 10
307.337
 20
97.0628
 30
0.00000
  70
    32
  0
VERTEX
  8
0
  5
C99
 10
307.283
 20
97.1992
 30
0.00000
  70
    32
  0
VERTEX
  8
0
  5
C9A
 10
307.228
 20
97.3289
 30
0.00000
  70
    32
  0
VERTEX
  8
0
  5
C9B
 10
307.172
 20
97.4519
 30
0.00000
  70
    32
  0
VERTEX
  8
0
  5
C9C
 10
307.114
 20
97.5680
 30
0.00000
  70
    32
  0
VERTEX
  8
0
  5
C9D
 10
307.056
 20
97.6770
 30
0.00000
  70
    32
  0
VERTEX
  8
0
  5
C9E
 10
306.997
 20
97.7789
 30
0.00000
  70
    32
  0
VERTEX
  8
0
  5
C9F
 10
306.938
 20
97.8736
 30
0.00000
  70
    32
  0
VERTEX
  8
0
  5
CA0
 10
306.877
 20
97.9610
 30
0.00000
  70
    32
  0
VERTEX
  8
0
  5
CA1
 10
306.816
 20
98.0410
 30
0.00000
  70
    32
  0
VERTEX
  8
0
  5
CA2
 10
306.754
 20
98.1135
 30
0.00000
  70
    32
  0
VERTEX
  8
0
  5
CA3
 10
306.692
 20
98.1785
 30
0.00000
  70
    32
  0
VERTEX
  8
0
  5
CA4
 10
306.629
 20
98.2358
 30
0.00000
  70
    32
  0
VERTEX
  8
0
  5
CA5
 10
306.566
 20
98.2854
 30
0.00000
  70
    32
  0
VERTEX
  8
0
  5
CA6
 10
306.502
 20
98.3273
 30
0.00000
  70
    32
  0
VERTEX
  8
0
  5
CA7
 10
306.438
 20
98.3615
 30
0.00000
  70
    32
  0
VERTEX
  8
0
  5
CA8
 10
306.374
 20
98.3878
 30
0.00000
  70
    32
  0
VERTEX
  8
0
  5
CA9
 10
306.309
 20
98.4063
 30
0.00000
  70
    32
  0
VERTEX
  8
0
  5
CAA
 10
306.245
 20
98.4170
 30
0.00000
  70
    32
  0
VERTEX
  8
0
  5
CAB
 10
306.180
 20
98.4198
 30
0.00000
  70
    32
  0
VERTEX
  8
0
  5
CAC
 10
306.116
 20
98.4148
 30
0.00000
  70
    32
  0
VERTEX
  8
0
  5
CAD
 10
306.051
 20
98.4018
 30
0.00000
  70
    32
  0
VERTEX
  8
0
  5
CAE
 10
305.987
 20
98.3811
 30
0.00000
  70
    32
  0
VERTEX
  8
0
  5
CAF
 10
305.923
 20
98.3525
 30
0.00000
  70
    32
  0
VERTEX
  8
0
  5
CB0
 10
305.859
 20
98.3161
 30
0.00000
  70
    32
  0
VERTEX
  8
0
  5
CB1
 10
305.795
 20
98.2720
 30
0.00000
  70
    32
  0
VERTEX
  8
0
  5
CB2
 10
305.732
 20
98.2202
 30
0.00000
  70
    32
  0
VERTEX
  8
0
  5
CB3
 10
305.669
 20
98.1607
 30
0.00000
  70
    32
  0
VERTEX
  8
0
  5
CB4
 10
305.607
 20
98.0936
 30
0.00000
  70
    32
  0
VERTEX
  8
0
  5
CB5
 10
305.546
 20
98.0189
 30
0.00000
  70
    32
  0
VERTEX
  8
0
  5
CB6
 10
305.485
 20
97.9368
 30
0.00000
  70
    32
  0
VERTEX
  8
0
  5
CB7
 10
305.424
 20
97.8473
 30
0.00000
  70
    32
  0
VERTEX
  8
0
  5
CB8
 10
305.365
 20
97.7506
 30
0.00000
  70
    32
  0
VERTEX
  8
0
  5
CB9
 10
305.306
 20
97.6466
 30
0.00000
  70
    32
  0
SEQEND
  8
0
  5
CBA
  0
LINE
  5
636
  8
1
 10
166.0
 20
90.5
 30
0.0
 11
338.4942458863433785
 21
90.5
 31
0.0
  0
LINE
  5
637
  8
1
 10
191.5
 20
65.0
 30
0.0
 11
191.5
 21
116.0
 31
0.0
  0
LINE
  5
639
  8
1
 10
318.4942458863433785
 20
70.5
 30
0.0
 11
318.4942458863433785
 21
110.5
 31
0.0
  0
POLYLINE
  5
63A
  8
0
 10
306.3518144564072827
 20
84.4999999999999858
 30
0.0
 66
     1
 70
     8
  0
VERTEX
  8
0
  5
CBB
 10
306.352
 20
84.5000
 30
0.00000
  70
    32
  0
VERTEX
  8
0
  5
CBC
 10
306.390
 20
84.5018
 30
0.00000
  70
    32
  0
VERTEX
  8
0
  5
CBD
 10
306.428
 20
84.5072
 30
0.00000
  70
    32
  0
VERTEX
  8
0
  5
CBE
 10
306.466
 20
84.5163
 30
0.00000
  70
    32
  0
VERTEX
  8
0
  5
CBF
 10
306.504
 20
84.5289
 30
0.00000
  70
    32
  0
VERTEX
  8
0
  5
CC0
 10
306.542
 20
84.5451
 30
0.00000
  70
    32
  0
VERTEX
  8
0
  5
CC1
 10
306.580
 20
84.5649
 30
0.00000
  70
    32
  0
VERTEX
  8
0
  5
CC2
 10
306.617
 20
84.5883
 30
0.00000
  70
    32
  0
VERTEX
  8
0
  5
CC3
 10
306.655
 20
84.6153
 30
0.00000
  70
    32
  0
VERTEX
  8
0
  5
CC4
 10
306.692
 20
84.6458
 30
0.00000
  70
    32
  0
VERTEX
  8
0
  5
CC5
 10
306.729
 20
84.6798
 30
0.00000
  70
    32
  0
VERTEX
  8
0
  5
CC6
 10
306.766
 20
84.7173
 30
0.00000
  70
    32
  0
VERTEX
  8
0
  5
CC7
 10
306.803
 20
84.7584
 30
0.00000
  70
    32
  0
VERTEX
  8
0
  5
CC8
 10
306.839
 20
84.8028
 30
0.00000
  70
    32
  0
VERTEX
  8
0
  5
CC9
 10
306.875
 20
84.8507
 30
0.00000
  70
    32
  0
VERTEX
  8
0
  5
CCA
 10
306.911
 20
84.9020
 30
0.00000
  70
    32
  0
VERTEX
  8
0
  5
CCB
 10
306.946
 20
84.9567
 30
0.00000
  70
    32
  0
VERTEX
  8
0
  5
CCC
 10
306.981
 20
85.0147
 30
0.00000
  70
    32
  0
VERTEX
  8
0
  5
CCD
 10
307.016
 20
85.0761
 30
0.00000
  70
    32
  0
VERTEX
  8
0
  5
CCE
 10
307.050
 20
85.1407
 30
0.00000
  70
    32
  0
VERTEX
  8
0
  5
CCF
 10
307.084
 20
85.2085
 30
0.00000
  70
    32
  0
VERTEX
  8
0
  5
CD0
 10
307.117
 20
85.2795
 30
0.00000
  70
    32
  0
VERTEX
  8
0
  5
CD1
 10
307.150
 20
85.3536
 30
0.00000
  70
    32
  0
VERTEX
  8
0
  5
CD2
 10
307.183
 20
85.4309
 30
0.00000
  70
    32
  0
VERTEX
  8
0
  5
CD3
 10
307.215
 20
85.5112
 30
0.00000
  70
    32
  0
VERTEX
  8
0
  5
CD4
 10
307.246
 20
85.5945
 30
0.00000
  70
    32
  0
VERTEX
  8
0
  5
CD5
 10
307.277
 20
85.6808
 30
0.00000
  70
    32
  0
VERTEX
  8
0
  5
CD6
 10
307.307
 20
85.7699
 30
0.00000
  70
    32
  0
VERTEX
  8
0
  5
CD7
 10
307.337
 20
85.8619
 30
0.00000
  70
    32
  0
VERTEX
  8
0
  5
CD8
 10
307.366
 20
85.9567
 30
0.00000
  70
    32
  0
VERTEX
  8
0
  5
CD9
 10
307.395
 20
86.0543
 30
0.00000
  70
    32
  0
VERTEX
  8
0
  5
CDA
 10
307.423
 20
86.1545
 30
0.00000
  70
    32
  0
VERTEX
  8
0
  5
CDB
 10
307.450
 20
86.2574
 30
0.00000
  70
    32
  0
VERTEX
  8
0
  5
CDC
 10
307.477
 20
86.3628
 30
0.00000
  70
    32
  0
VERTEX
  8
0
  5
CDD
 10
307.502
 20
86.4706
 30
0.00000
  70
    32
  0
VERTEX
  8
0
  5
CDE
 10
307.528
 20
86.5810
 30
0.00000
  70
    32
  0
VERTEX
  8
0
  5
CDF
 10
307.552
 20
86.6936
 30
0.00000
  70
    32
  0
VERTEX
  8
0
  5
CE0
 10
307.576
 20
86.8086
 30
0.00000
  70
    32
  0
VERTEX
  8
0
  5
CE1
 10
307.599
 20
86.9258
 30
0.00000
  70
    32
  0
VERTEX
  8
0
  5
CE2
 10
307.621
 20
87.0452
 30
0.00000
  70
    32
  0
VERTEX
  8
0
  5
CE3
 10
307.643
 20
87.1666
 30
0.00000
  70
    32
  0
VERTEX
  8
0
  5
CE4
 10
307.664
 20
87.2900
 30
0.00000
  70
    32
  0
VERTEX
  8
0
  5
CE5
 10
307.684
 20
87.4154
 30
0.00000
  70
    32
  0
VERTEX
  8
0
  5
CE6
 10
307.703
 20
87.5426
 30
0.00000
  70
    32
  0
VERTEX
  8
0
  5
CE7
 10
307.721
 20
87.6716
 30
0.00000
  70
    32
  0
VERTEX
  8
0
  5
CE8
 10
307.739
 20
87.8023
 30
0.00000
  70
    32
  0
VERTEX
  8
0
  5
CE9
 10
307.756
 20
87.9347
 30
0.00000
  70
    32
  0
VERTEX
  8
0
  5
CEA
 10
307.772
 20
88.0686
 30
0.00000
  70
    32
  0
VERTEX
  8
0
  5
CEB
 10
307.787
 20
88.2039
 30
0.00000
  70
    32
  0
VERTEX
  8
0
  5
CEC
 10
307.801
 20
88.3406
 30
0.00000
  70
    32
  0
VERTEX
  8
0
  5
CED
 10
307.814
 20
88.4787
 30
0.00000
  70
    32
  0
VERTEX
  8
0
  5
CEE
 10
307.826
 20
88.6179
 30
0.00000
  70
    32
  0
VERTEX
  8
0
  5
CEF
 10
307.838
 20
88.7583
 30
0.00000
  70
    32
  0
VERTEX
  8
0
  5
CF0
 10
307.848
 20
88.8997
 30
0.00000
  70
    32
  0
VERTEX
  8
0
  5
CF1
 10
307.858
 20
89.0421
 30
0.00000
  70
    32
  0
VERTEX
  8
0
  5
CF2
 10
307.867
 20
89.1854
 30
0.00000
  70
    32
  0
VERTEX
  8
0
  5
CF3
 10
307.875
 20
89.3295
 30
0.00000
  70
    32
  0
VERTEX
  8
0
  5
CF4
 10
307.882
 20
89.4742
 30
0.00000
  70
    32
  0
VERTEX
  8
0
  5
CF5
 10
307.888
 20
89.6196
 30
0.00000
  70
    32
  0
VERTEX
  8
0
  5
CF6
 10
307.893
 20
89.7655
 30
0.00000
  70
    32
  0
VERTEX
  8
0
  5
CF7
 10
307.897
 20
89.9119
 30
0.00000
  70
    32
  0
VERTEX
  8
0
  5
CF8
 10
307.901
 20
90.0586
 30
0.00000
  70
    32
  0
VERTEX
  8
0
  5
CF9
 10
307.903
 20
90.2056
 30
0.00000
  70
    32
  0
VERTEX
  8
0
  5
CFA
 10
307.904
 20
90.3528
 30
0.00000
  70
    32
  0
VERTEX
  8
0
  5
CFB
 10
307.905
 20
90.5000
 30
0.00000
  70
    32
  0
VERTEX
  8
0
  5
CFC
 10
307.904
 20
90.6472
 30
0.00000
  70
    32
  0
VERTEX
  8
0
  5
CFD
 10
307.903
 20
90.7944
 30
0.00000
  70
    32
  0
VERTEX
  8
0
  5
CFE
 10
307.901
 20
90.9414
 30
0.00000
  70
    32
  0
VERTEX
  8
0
  5
CFF
 10
307.897
 20
91.0881
 30
0.00000
  70
    32
  0
VERTEX
  8
0
  5
D00
 10
307.893
 20
91.2345
 30
0.00000
  70
    32
  0
VERTEX
  8
0
  5
D01
 10
307.888
 20
91.3804
 30
0.00000
  70
    32
  0
VERTEX
  8
0
  5
D02
 10
307.882
 20
91.5258
 30
0.00000
  70
    32
  0
VERTEX
  8
0
  5
D03
 10
307.875
 20
91.6705
 30
0.00000
  70
    32
  0
VERTEX
  8
0
  5
D04
 10
307.867
 20
91.8146
 30
0.00000
  70
    32
  0
VERTEX
  8
0
  5
D05
 10
307.858
 20
91.9579
 30
0.00000
  70
    32
  0
VERTEX
  8
0
  5
D06
 10
307.848
 20
92.1003
 30
0.00000
  70
    32
  0
VERTEX
  8
0
  5
D07
 10
307.838
 20
92.2417
 30
0.00000
  70
    32
  0
VERTEX
  8
0
  5
D08
 10
307.826
 20
92.3821
 30
0.00000
  70
    32
  0
VERTEX
  8
0
  5
D09
 10
307.814
 20
92.5213
 30
0.00000
  70
    32
  0
VERTEX
  8
0
  5
D0A
 10
307.801
 20
92.6594
 30
0.00000
  70
    32
  0
VERTEX
  8
0
  5
D0B
 10
307.787
 20
92.7961
 30
0.00000
  70
    32
  0
VERTEX
  8
0
  5
D0C
 10
307.772
 20
92.9314
 30
0.00000
  70
    32
  0
VERTEX
  8
0
  5
D0D
 10
307.756
 20
93.0653
 30
0.00000
  70
    32
  0
VERTEX
  8
0
  5
D0E
 10
307.739
 20
93.1977
 30
0.00000
  70
    32
  0
VERTEX
  8
0
  5
D0F
 10
307.721
 20
93.3284
 30
0.00000
  70
    32
  0
VERTEX
  8
0
  5
D10
 10
307.703
 20
93.4574
 30
0.00000
  70
    32
  0
VERTEX
  8
0
  5
D11
 10
307.684
 20
93.5846
 30
0.00000
  70
    32
  0
VERTEX
  8
0
  5
D12
 10
307.664
 20
93.7100
 30
0.00000
  70
    32
  0
VERTEX
  8
0
  5
D13
 10
307.643
 20
93.8334
 30
0.00000
  70
    32
  0
VERTEX
  8
0
  5
D14
 10
307.621
 20
93.9548
 30
0.00000
  70
    32
  0
VERTEX
  8
0
  5
D15
 10
307.599
 20
94.0742
 30
0.00000
  70
    32
  0
VERTEX
  8
0
  5
D16
 10
307.576
 20
94.1914
 30
0.00000
  70
    32
  0
VERTEX
  8
0
  5
D17
 10
307.552
 20
94.3064
 30
0.00000
  70
    32
  0
VERTEX
  8
0
  5
D18
 10
307.528
 20
94.4190
 30
0.00000
  70
    32
  0
VERTEX
  8
0
  5
D19
 10
307.502
 20
94.5294
 30
0.00000
  70
    32
  0
VERTEX
  8
0
  5
D1A
 10
307.477
 20
94.6372
 30
0.00000
  70
    32
  0
VERTEX
  8
0
  5
D1B
 10
307.450
 20
94.7426
 30
0.00000
  70
    32
  0
VERTEX
  8
0
  5
D1C
 10
307.423
 20
94.8455
 30
0.00000
  70
    32
  0
VERTEX
  8
0
  5
D1D
 10
307.395
 20
94.9457
 30
0.00000
  70
    32
  0
VERTEX
  8
0
  5
D1E
 10
307.366
 20
95.0433
 30
0.00000
  70
    32
  0
VERTEX
  8
0
  5
D1F
 10
307.337
 20
95.1381
 30
0.00000
  70
    32
  0
VERTEX
  8
0
  5
D20
 10
307.307
 20
95.2301
 30
0.00000
  70
    32
  0
VERTEX
  8
0
  5
D21
 10
307.277
 20
95.3192
 30
0.00000
  70
    32
  0
VERTEX
  8
0
  5
D22
 10
307.246
 20
95.4055
 30
0.00000
  70
    32
  0
VERTEX
  8
0
  5
D23
 10
307.215
 20
95.4888
 30
0.00000
  70
    32
  0
VERTEX
  8
0
  5
D24
 10
307.183
 20
95.5691
 30
0.00000
  70
    32
  0
VERTEX
  8
0
  5
D25
 10
307.150
 20
95.6464
 30
0.00000
  70
    32
  0
VERTEX
  8
0
  5
D26
 10
307.117
 20
95.7205
 30
0.00000
  70
    32
  0
VERTEX
  8
0
  5
D27
 10
307.084
 20
95.7915
 30
0.00000
  70
    32
  0
VERTEX
  8
0
  5
D28
 10
307.050
 20
95.8593
 30
0.00000
  70
    32
  0
VERTEX
  8
0
  5
D29
 10
307.016
 20
95.9239
 30
0.00000
  70
    32
  0
VERTEX
  8
0
  5
D2A
 10
306.981
 20
95.9853
 30
0.00000
  70
    32
  0
VERTEX
  8
0
  5
D2B
 10
306.946
 20
96.0433
 30
0.00000
  70
    32
  0
VERTEX
  8
0
  5
D2C
 10
306.911
 20
96.0980
 30
0.00000
  70
    32
  0
VERTEX
  8
0
  5
D2D
 10
306.875
 20
96.1493
 30
0.00000
  70
    32
  0
VERTEX
  8
0
  5
D2E
 10
306.839
 20
96.1972
 30
0.00000
  70
    32
  0
VERTEX
  8
0
  5
D2F
 10
306.803
 20
96.2416
 30
0.00000
  70
    32
  0
VERTEX
  8
0
  5
D30
 10
306.766
 20
96.2827
 30
0.00000
  70
    32
  0
VERTEX
  8
0
  5
D31
 10
306.729
 20
96.3202
 30
0.00000
  70
    32
  0
VERTEX
  8
0
  5
D32
 10
306.692
 20
96.3542
 30
0.00000
  70
    32
  0
VERTEX
  8
0
  5
D33
 10
306.655
 20
96.3847
 30
0.00000
  70
    32
  0
VERTEX
  8
0
  5
D34
 10
306.617
 20
96.4117
 30
0.00000
  70
    32
  0
VERTEX
  8
0
  5
D35
 10
306.580
 20
96.4351
 30
0.00000
  70
    32
  0
VERTEX
  8
0
  5
D36
 10
306.542
 20
96.4549
 30
0.00000
  70
    32
  0
VERTEX
  8
0
  5
D37
 10
306.504
 20
96.4711
 30
0.00000
  70
    32
  0
VERTEX
  8
0
  5
D38
 10
306.466
 20
96.4837
 30
0.00000
  70
    32
  0
VERTEX
  8
0
  5
D39
 10
306.428
 20
96.4928
 30
0.00000
  70
    32
  0
VERTEX
  8
0
  5
D3A
 10
306.390
 20
96.4982
 30
0.00000
  70
    32
  0
VERTEX
  8
0
  5
D3B
 10
306.352
 20
96.5000
 30
0.00000
  70
    32
  0
SEQEND
  8
0
  5
D3C
  0
LINE
  5
63F
  8
2
 10
86.3120000000000118
 20
192.0
 30
0.0
 11
86.3120000000000118
 21
171.8120000000000118
 31
0.0
  0
LINE
  5
640
  8
2
 10
94.6879999999999882
 20
171.8120000000000118
 30
0.0
 11
94.6879999999999882
 21
192.0
 31
0.0
  0
LINE
  5
641
  8
2
 10
94.6879999999999882
 20
171.8120000000000118
 30
0.0
 11
86.3120000000000118
 21
171.8120000000000118
 31
0.0
  0
LINE
  5
642
  8
2
 10
86.3120000000000118
 20
171.8120000000000118
 30
0.0
 11
85.5
 21
171.0
 31
0.0
  0
LINE
  5
643
  8
2
 10
95.5
 20
171.0
 30
0.0
 11
94.6879999999999882
 21
171.8120000000000118
 31
0.0
  0
LINE
  5
644
  8
0
 10
100.0
 20
171.0
 30
0.0
 11
81.0
 21
171.0
 31
0.0
  0
LINE
  5
645
  8
0
 10
81.0
 20
173.0
 30
0.0
 11
81.0
 21
171.0
 31
0.0
  0
LINE
  5
646
  8
0
 10
100.0
 20
171.0
 30
0.0
 11
100.0
 21
173.0
 31
0.0
  0
LINE
  5
649
  8
0
 10
109.8999999999999062
 20
193.0
 30
0.0
 11
71.1000000000000796
 21
193.0
 31
0.0
  0
LINE
  5
64A
  8
0
 10
71.1000000000000227
 20
193.0
 30
0.0
 11
70.0
 21
191.9000000000000057
 31
0.0
  0
LINE
  5
64B
  8
0
 10
111.0
 20
191.9000000000000057
 30
0.0
 11
109.8999999999999062
 21
193.0
 31
0.0
  0
LINE
  5
64C
  8
0
 10
110.7999999999999972
 20
173.0
 30
0.0
 11
70.1999999999999318
 21
173.0
 31
0.0
  0
LINE
  5
64D
  8
0
 10
110.7999999999999972
 20
173.0
 30
0.0
 11
111.0
 21
173.1999999999999886
 31
0.0
  0
LINE
  5
64E
  8
0
 10
70.0
 20
173.1999999999999886
 30
0.0
 11
70.1999999999999318
 21
173.0
 31
0.0
  0
LINE
  5
64F
  8
0
 10
111.0
 20
173.1999999999999886
 30
0.0
 11
70.0
 21
173.1999999999999886
 31
0.0
  0
LINE
  5
652
  8
0
 10
111.0
 20
191.9000000000000057
 30
0.0
 11
70.0
 21
191.9000000000000057
 31
0.0
  0
LINE
  5
653
  8
0
 10
70.0
 20
191.9000000000000057
 30
0.0
 11
70.0
 21
173.1999999999999886
 31
0.0
  0
LINE
  5
654
  8
0
 10
111.0
 20
173.1999999999999886
 30
0.0
 11
111.0
 21
191.9000000000000057
 31
0.0
  0
POLYLINE
  5
65F
  8
0
 10
90.5000000000000995
 20
211.5578095592730108
 30
0.0
 66
     1
 70
     8
  0
VERTEX
  8
0
  5
D3D
 10
90.5000
 20
211.558
 30
0.00000
  70
    32
  0
VERTEX
  8
0
  5
D3E
 10
90.4264
 20
211.557
 30
0.00000
  70
    32
  0
VERTEX
  8
0
  5
D3F
 10
90.3528
 20
211.556
 30
0.00000
  70
    32
  0
VERTEX
  8
0
  5
D40
 10
90.2792
 20
211.554
 30
0.00000
  70
    32
  0
VERTEX
  8
0
  5
D41
 10
90.2056
 20
211.551
 30
0.00000
  70
    32
  0
VERTEX
  8
0
  5
D42
 10
90.1321
 20
211.547
 30
0.00000
  70
    32
  0
VERTEX
  8
0
  5
D43
 10
90.0586
 20
211.542
 30
0.00000
  70
    32
  0
VERTEX
  8
0
  5
D44
 10
89.9852
 20
211.536
 30
0.00000
  70
    32
  0
VERTEX
  8
0
  5
D45
 10
89.9119
 20
211.530
 30
0.00000
  70
    32
  0
VERTEX
  8
0
  5
D46
 10
89.8387
 20
211.522
 30
0.00000
  70
    32
  0
VERTEX
  8
0
  5
D47
 10
89.7655
 20
211.514
 30
0.00000
  70
    32
  0
VERTEX
  8
0
  5
D48
 10
89.6925
 20
211.505
 30
0.00000
  70
    32
  0
VERTEX
  8
0
  5
D49
 10
89.6196
 20
211.495
 30
0.00000
  70
    32
  0
VERTEX
  8
0
  5
D4A
 10
89.5469
 20
211.484
 30
0.00000
  70
    32
  0
VERTEX
  8
0
  5
D4B
 10
89.4742
 20
211.472
 30
0.00000
  70
    32
  0
VERTEX
  8
0
  5
D4C
 10
89.4018
 20
211.460
 30
0.00000
  70
    32
  0
VERTEX
  8
0
  5
D4D
 10
89.3295
 20
211.446
 30
0.00000
  70
    32
  0
VERTEX
  8
0
  5
D4E
 10
89.2573
 20
211.432
 30
0.00000
  70
    32
  0
VERTEX
  8
0
  5
D4F
 10
89.1854
 20
211.417
 30
0.00000
  70
    32
  0
VERTEX
  8
0
  5
D50
 10
89.1137
 20
211.401
 30
0.00000
  70
    32
  0
VERTEX
  8
0
  5
D51
 10
89.0421
 20
211.384
 30
0.00000
  70
    32
  0
VERTEX
  8
0
  5
D52
 10
88.9708
 20
211.366
 30
0.00000
  70
    32
  0
VERTEX
  8
0
  5
D53
 10
88.8997
 20
211.348
 30
0.00000
  70
    32
  0
VERTEX
  8
0
  5
D54
 10
88.8289
 20
211.328
 30
0.00000
  70
    32
  0
VERTEX
  8
0
  5
D55
 10
88.7583
 20
211.308
 30
0.00000
  70
    32
  0
VERTEX
  8
0
  5
D56
 10
88.6880
 20
211.287
 30
0.00000
  70
    32
  0
VERTEX
  8
0
  5
D57
 10
88.6179
 20
211.265
 30
0.00000
  70
    32
  0
VERTEX
  8
0
  5
D58
 10
88.5481
 20
211.243
 30
0.00000
  70
    32
  0
VERTEX
  8
0
  5
D59
 10
88.4787
 20
211.219
 30
0.00000
  70
    32
  0
VERTEX
  8
0
  5
D5A
 10
88.4095
 20
211.195
 30
0.00000
  70
    32
  0
VERTEX
  8
0
  5
D5B
 10
88.3406
 20
211.169
 30
0.00000
  70
    32
  0
VERTEX
  8
0
  5
D5C
 10
88.2721
 20
211.143
 30
0.00000
  70
    32
  0
VERTEX
  8
0
  5
D5D
 10
88.2039
 20
211.117
 30
0.00000
  70
    32
  0
VERTEX
  8
0
  5
D5E
 10
88.1360
 20
211.089
 30
0.00000
  70
    32
  0
VERTEX
  8
0
  5
D5F
 10
88.0686
 20
211.061
 30
0.00000
  70
    32
  0
VERTEX
  8
0
  5
D60
 10
88.0014
 20
211.031
 30
0.00000
  70
    32
  0
VERTEX
  8
0
  5
D61
 10
87.9347
 20
211.001
 30
0.00000
  70
    32
  0
VERTEX
  8
0
  5
D62
 10
87.8683
 20
210.971
 30
0.00000
  70
    32
  0
VERTEX
  8
0
  5
D63
 10
87.8023
 20
210.939
 30
0.00000
  70
    32
  0
VERTEX
  8
0
  5
D64
 10
87.7368
 20
210.907
 30
0.00000
  70
    32
  0
VERTEX
  8
0
  5
D65
 10
87.6716
 20
210.873
 30
0.00000
  70
    32
  0
VERTEX
  8
0
  5
D66
 10
87.6069
 20
210.840
 30
0.00000
  70
    32
  0
VERTEX
  8
0
  5
D67
 10
87.5426
 20
210.805
 30
0.00000
  70
    32
  0
VERTEX
  8
0
  5
D68
 10
87.4788
 20
210.769
 30
0.00000
  70
    32
  0
VERTEX
  8
0
  5
D69
 10
87.4154
 20
210.733
 30
0.00000
  70
    32
  0
VERTEX
  8
0
  5
D6A
 10
87.3525
 20
210.696
 30
0.00000
  70
    32
  0
VERTEX
  8
0
  5
D6B
 10
87.2900
 20
210.659
 30
0.00000
  70
    32
  0
VERTEX
  8
0
  5
D6C
 10
87.2281
 20
210.620
 30
0.00000
  70
    32
  0
VERTEX
  8
0
  5
D6D
 10
87.1666
 20
210.581
 30
0.00000
  70
    32
  0
VERTEX
  8
0
  5
D6E
 10
87.1056
 20
210.541
 30
0.00000
  70
    32
  0
VERTEX
  8
0
  5
D6F
 10
87.0452
 20
210.501
 30
0.00000
  70
    32
  0
VERTEX
  8
0
  5
D70
 10
86.9852
 20
210.459
 30
0.00000
  70
    32
  0
VERTEX
  8
0
  5
D71
 10
86.9258
 20
210.417
 30
0.00000
  70
    32
  0
VERTEX
  8
0
  5
D72
 10
86.8669
 20
210.375
 30
0.00000
  70
    32
  0
VERTEX
  8
0
  5
D73
 10
86.8086
 20
210.331
 30
0.00000
  70
    32
  0
VERTEX
  8
0
  5
D74
 10
86.7508
 20
210.287
 30
0.00000
  70
    32
  0
VERTEX
  8
0
  5
D75
 10
86.6936
 20
210.242
 30
0.00000
  70
    32
  0
VERTEX
  8
0
  5
D76
 10
86.6370
 20
210.197
 30
0.00000
  70
    32
  0
VERTEX
  8
0
  5
D77
 10
86.5810
 20
210.151
 30
0.00000
  70
    32
  0
VERTEX
  8
0
  5
D78
 10
86.5255
 20
210.104
 30
0.00000
  70
    32
  0
VERTEX
  8
0
  5
D79
 10
86.4706
 20
210.056
 30
0.00000
  70
    32
  0
VERTEX
  8
0
  5
D7A
 10
86.4164
 20
210.008
 30
0.00000
  70
    32
  0
VERTEX
  8
0
  5
D7B
 10
86.3628
 20
209.960
 30
0.00000
  70
    32
  0
VERTEX
  8
0
  5
D7C
 10
86.3097
 20
209.910
 30
0.00000
  70
    32
  0
VERTEX
  8
0
  5
D7D
 10
86.2574
 20
209.860
 30
0.00000
  70
    32
  0
VERTEX
  8
0
  5
D7E
 10
86.2056
 20
209.810
 30
0.00000
  70
    32
  0
VERTEX
  8
0
  5
D7F
 10
86.1545
 20
209.759
 30
0.00000
  70
    32
  0
VERTEX
  8
0
  5
D80
 10
86.1041
 20
209.707
 30
0.00000
  70
    32
  0
VERTEX
  8
0
  5
D81
 10
86.0543
 20
209.654
 30
0.00000
  70
    32
  0
VERTEX
  8
0
  5
D82
 10
86.0052
 20
209.601
 30
0.00000
  70
    32
  0
VERTEX
  8
0
  5
D83
 10
85.9567
 20
209.548
 30
0.00000
  70
    32
  0
VERTEX
  8
0
  5
D84
 10
85.9090
 20
209.494
 30
0.00000
  70
    32
  0
VERTEX
  8
0
  5
D85
 10
85.8619
 20
209.439
 30
0.00000
  70
    32
  0
VERTEX
  8
0
  5
D86
 10
85.8156
 20
209.384
 30
0.00000
  70
    32
  0
VERTEX
  8
0
  5
D87
 10
85.7699
 20
209.328
 30
0.00000
  70
    32
  0
VERTEX
  8
0
  5
D88
 10
85.7250
 20
209.272
 30
0.00000
  70
    32
  0
VERTEX
  8
0
  5
D89
 10
85.6808
 20
209.215
 30
0.00000
  70
    32
  0
VERTEX
  8
0
  5
D8A
 10
85.6373
 20
209.157
 30
0.00000
  70
    32
  0
VERTEX
  8
0
  5
D8B
 10
85.5945
 20
209.099
 30
0.00000
  70
    32
  0
VERTEX
  8
0
  5
D8C
 10
85.5525
 20
209.041
 30
0.00000
  70
    32
  0
VERTEX
  8
0
  5
D8D
 10
85.5112
 20
208.982
 30
0.00000
  70
    32
  0
VERTEX
  8
0
  5
D8E
 10
85.4707
 20
208.923
 30
0.00000
  70
    32
  0
VERTEX
  8
0
  5
D8F
 10
85.4309
 20
208.863
 30
0.00000
  70
    32
  0
VERTEX
  8
0
  5
D90
 10
85.3919
 20
208.803
 30
0.00000
  70
    32
  0
VERTEX
  8
0
  5
D91
 10
85.3536
 20
208.742
 30
0.00000
  70
    32
  0
VERTEX
  8
0
  5
D92
 10
85.3162
 20
208.681
 30
0.00000
  70
    32
  0
VERTEX
  8
0
  5
D93
 10
85.2795
 20
208.619
 30
0.00000
  70
    32
  0
VERTEX
  8
0
  5
D94
 10
85.2436
 20
208.557
 30
0.00000
  70
    32
  0
VERTEX
  8
0
  5
D95
 10
85.2085
 20
208.494
 30
0.00000
  70
    32
  0
VERTEX
  8
0
  5
D96
 10
85.1742
 20
208.431
 30
0.00000
  70
    32
  0
VERTEX
  8
0
  5
D97
 10
85.1407
 20
208.368
 30
0.00000
  70
    32
  0
VERTEX
  8
0
  5
D98
 10
85.1080
 20
208.304
 30
0.00000
  70
    32
  0
VERTEX
  8
0
  5
D99
 10
85.0761
 20
208.240
 30
0.00000
  70
    32
  0
VERTEX
  8
0
  5
D9A
 10
85.0450
 20
208.176
 30
0.00000
  70
    32
  0
VERTEX
  8
0
  5
D9B
 10
85.0147
 20
208.111
 30
0.00000
  70
    32
  0
VERTEX
  8
0
  5
D9C
 10
84.9853
 20
208.046
 30
0.00000
  70
    32
  0
VERTEX
  8
0
  5
D9D
 10
84.9567
 20
207.980
 30
0.00000
  70
    32
  0
VERTEX
  8
0
  5
D9E
 10
84.9290
 20
207.914
 30
0.00000
  70
    32
  0
VERTEX
  8
0
  5
D9F
 10
84.9020
 20
207.848
 30
0.00000
  70
    32
  0
VERTEX
  8
0
  5
DA0
 10
84.8760
 20
207.782
 30
0.00000
  70
    32
  0
VERTEX
  8
0
  5
DA1
 10
84.8507
 20
207.715
 30
0.00000
  70
    32
  0
VERTEX
  8
0
  5
DA2
 10
84.8264
 20
207.648
 30
0.00000
  70
    32
  0
VERTEX
  8
0
  5
DA3
 10
84.8028
 20
207.580
 30
0.00000
  70
    32
  0
VERTEX
  8
0
  5
DA4
 10
84.7802
 20
207.513
 30
0.00000
  70
    32
  0
VERTEX
  8
0
  5
DA5
 10
84.7584
 20
207.445
 30
0.00000
  70
    32
  0
VERTEX
  8
0
  5
DA6
 10
84.7374
 20
207.376
 30
0.00000
  70
    32
  0
VERTEX
  8
0
  5
DA7
 10
84.7173
 20
207.308
 30
0.00000
  70
    32
  0
VERTEX
  8
0
  5
DA8
 10
84.6981
 20
207.239
 30
0.00000
  70
    32
  0
VERTEX
  8
0
  5
DA9
 10
84.6798
 20
207.170
 30
0.00000
  70
    32
  0
VERTEX
  8
0
  5
DAA
 10
84.6624
 20
207.101
 30
0.00000
  70
    32
  0
VERTEX
  8
0
  5
DAB
 10
84.6458
 20
207.032
 30
0.00000
  70
    32
  0
VERTEX
  8
0
  5
DAC
 10
84.6301
 20
206.963
 30
0.00000
  70
    32
  0
VERTEX
  8
0
  5
DAD
 10
84.6153
 20
206.893
 30
0.00000
  70
    32
  0
VERTEX
  8
0
  5
DAE
 10
84.6014
 20
206.823
 30
0.00000
  70
    32
  0
VERTEX
  8
0
  5
DAF
 10
84.5883
 20
206.753
 30
0.00000
  70
    32
  0
VERTEX
  8
0
  5
DB0
 10
84.5762
 20
206.683
 30
0.00000
  70
    32
  0
VERTEX
  8
0
  5
DB1
 10
84.5649
 20
206.613
 30
0.00000
  70
    32
  0
VERTEX
  8
0
  5
DB2
 10
84.5546
 20
206.542
 30
0.00000
  70
    32
  0
VERTEX
  8
0
  5
DB3
 10
84.5451
 20
206.472
 30
0.00000
  70
    32
  0
VERTEX
  8
0
  5
DB4
 10
84.5366
 20
206.401
 30
0.00000
  70
    32
  0
VERTEX
  8
0
  5
DB5
 10
84.5289
 20
206.330
 30
0.00000
  70
    32
  0
VERTEX
  8
0
  5
DB6
 10
84.5221
 20
206.259
 30
0.00000
  70
    32
  0
VERTEX
  8
0
  5
DB7
 10
84.5163
 20
206.189
 30
0.00000
  70
    32
  0
VERTEX
  8
0
  5
DB8
 10
84.5113
 20
206.118
 30
0.00000
  70
    32
  0
VERTEX
  8
0
  5
DB9
 10
84.5072
 20
206.047
 30
0.00000
  70
    32
  0
VERTEX
  8
0
  5
DBA
 10
84.5041
 20
205.976
 30
0.00000
  70
    32
  0
VERTEX
  8
0
  5
DBB
 10
84.5018
 20
205.904
 30
0.00000
  70
    32
  0
VERTEX
  8
0
  5
DBC
 10
84.5005
 20
205.833
 30
0.00000
  70
    32
  0
VERTEX
  8
0
  5
DBD
 10
84.5000
 20
205.762
 30
0.00000
  70
    32
  0
SEQEND
  8
0
  5
DBE
  0
LINE
  5
661
  8
0
 10
96.5000000000001137
 20
193.0
 30
0.0
 11
96.5
 21
205.7622546015385865
 31
0.0
  0
LINE
  5
664
  8
0
 10
84.5000000000000142
 20
205.7622546015385865
 30
0.0
 11
84.5000000000000142
 21
193.0
 31
0.0
  0
POLYLINE
  5
665
  8
0
 10
96.5000000000000142
 20
205.7622546015385865
 30
0.0
 66
     1
 70
     8
  0
VERTEX
  8
0
  5
DBF
 10
96.5000
 20
205.762
 30
0.00000
  70
    32
  0
VERTEX
  8
0
  5
DC0
 10
96.4995
 20
205.833
 30
0.00000
  70
    32
  0
VERTEX
  8
0
  5
DC1
 10
96.4982
 20
205.904
 30
0.00000
  70
    32
  0
VERTEX
  8
0
  5
DC2
 10
96.4959
 20
205.976
 30
0.00000
  70
    32
  0
VERTEX
  8
0
  5
DC3
 10
96.4928
 20
206.047
 30
0.00000
  70
    32
  0
VERTEX
  8
0
  5
DC4
 10
96.4887
 20
206.118
 30
0.00000
  70
    32
  0
VERTEX
  8
0
  5
DC5
 10
96.4837
 20
206.189
 30
0.00000
  70
    32
  0
VERTEX
  8
0
  5
DC6
 10
96.4779
 20
206.259
 30
0.00000
  70
    32
  0
VERTEX
  8
0
  5
DC7
 10
96.4711
 20
206.330
 30
0.00000
  70
    32
  0
VERTEX
  8
0
  5
DC8
 10
96.4634
 20
206.401
 30
0.00000
  70
    32
  0
VERTEX
  8
0
  5
DC9
 10
96.4549
 20
206.472
 30
0.00000
  70
    32
  0
VERTEX
  8
0
  5
DCA
 10
96.4454
 20
206.542
 30
0.00000
  70
    32
  0
VERTEX
  8
0
  5
DCB
 10
96.4351
 20
206.613
 30
0.00000
  70
    32
  0
VERTEX
  8
0
  5
DCC
 10
96.4238
 20
206.683
 30
0.00000
  70
    32
  0
VERTEX
  8
0
  5
DCD
 10
96.4117
 20
206.753
 30
0.00000
  70
    32
  0
VERTEX
  8
0
  5
DCE
 10
96.3986
 20
206.823
 30
0.00000
  70
    32
  0
VERTEX
  8
0
  5
DCF
 10
96.3847
 20
206.893
 30
0.00000
  70
    32
  0
VERTEX
  8
0
  5
DD0
 10
96.3699
 20
206.963
 30
0.00000
  70
    32
  0
VERTEX
  8
0
  5
DD1
 10
96.3542
 20
207.032
 30
0.00000
  70
    32
  0
VERTEX
  8
0
  5
DD2
 10
96.3376
 20
207.101
 30
0.00000
  70
    32
  0
VERTEX
  8
0
  5
DD3
 10
96.3202
 20
207.170
 30
0.00000
  70
    32
  0
VERTEX
  8
0
  5
DD4
 10
96.3019
 20
207.239
 30
0.00000
  70
    32
  0
VERTEX
  8
0
  5
DD5
 10
96.2827
 20
207.308
 30
0.00000
  70
    32
  0
VERTEX
  8
0
  5
DD6
 10
96.2626
 20
207.376
 30
0.00000
  70
    32
  0
VERTEX
  8
0
  5
DD7
 10
96.2416
 20
207.445
 30
0.00000
  70
    32
  0
VERTEX
  8
0
  5
DD8
 10
96.2198
 20
207.513
 30
0.00000
  70
    32
  0
VERTEX
  8
0
  5
DD9
 10
96.1972
 20
207.580
 30
0.00000
  70
    32
  0
VERTEX
  8
0
  5
DDA
 10
96.1736
 20
207.648
 30
0.00000
  70
    32
  0
VERTEX
  8
0
  5
DDB
 10
96.1493
 20
207.715
 30
0.00000
  70
    32
  0
VERTEX
  8
0
  5
DDC
 10
96.1240
 20
207.782
 30
0.00000
  70
    32
  0
VERTEX
  8
0
  5
DDD
 10
96.0980
 20
207.848
 30
0.00000
  70
    32
  0
VERTEX
  8
0
  5
DDE
 10
96.0710
 20
207.914
 30
0.00000
  70
    32
  0
VERTEX
  8
0
  5
DDF
 10
96.0433
 20
207.980
 30
0.00000
  70
    32
  0
VERTEX
  8
0
  5
DE0
 10
96.0147
 20
208.046
 30
0.00000
  70
    32
  0
VERTEX
  8
0
  5
DE1
 10
95.9853
 20
208.111
 30
0.00000
  70
    32
  0
VERTEX
  8
0
  5
DE2
 10
95.9550
 20
208.176
 30
0.00000
  70
    32
  0
VERTEX
  8
0
  5
DE3
 10
95.9239
 20
208.240
 30
0.00000
  70
    32
  0
VERTEX
  8
0
  5
DE4
 10
95.8920
 20
208.304
 30
0.00000
  70
    32
  0
VERTEX
  8
0
  5
DE5
 10
95.8593
 20
208.368
 30
0.00000
  70
    32
  0
VERTEX
  8
0
  5
DE6
 10
95.8258
 20
208.431
 30
0.00000
  70
    32
  0
VERTEX
  8
0
  5
DE7
 10
95.7915
 20
208.494
 30
0.00000
  70
    32
  0
VERTEX
  8
0
  5
DE8
 10
95.7564
 20
208.557
 30
0.00000
  70
    32
  0
VERTEX
  8
0
  5
DE9
 10
95.7205
 20
208.619
 30
0.00000
  70
    32
  0
VERTEX
  8
0
  5
DEA
 10
95.6838
 20
208.681
 30
0.00000
  70
    32
  0
VERTEX
  8
0
  5
DEB
 10
95.6464
 20
208.742
 30
0.00000
  70
    32
  0
VERTEX
  8
0
  5
DEC
 10
95.6081
 20
208.803
 30
0.00000
  70
    32
  0
VERTEX
  8
0
  5
DED
 10
95.5691
 20
208.863
 30
0.00000
  70
    32
  0
VERTEX
  8
0
  5
DEE
 10
95.5293
 20
208.923
 30
0.00000
  70
    32
  0
VERTEX
  8
0
  5
DEF
 10
95.4888
 20
208.982
 30
0.00000
  70
    32
  0
VERTEX
  8
0
  5
DF0
 10
95.4475
 20
209.041
 30
0.00000
  70
    32
  0
VERTEX
  8
0
  5
DF1
 10
95.4055
 20
209.099
 30
0.00000
  70
    32
  0
VERTEX
  8
0
  5
DF2
 10
95.3627
 20
209.157
 30
0.00000
  70
    32
  0
VERTEX
  8
0
  5
DF3
 10
95.3192
 20
209.215
 30
0.00000
  70
    32
  0
VERTEX
  8
0
  5
DF4
 10
95.2750
 20
209.272
 30
0.00000
  70
    32
  0
VERTEX
  8
0
  5
DF5
 10
95.2301
 20
209.328
 30
0.00000
  70
    32
  0
VERTEX
  8
0
  5
DF6
 10
95.1844
 20
209.384
 30
0.00000
  70
    32
  0
VERTEX
  8
0
  5
DF7
 10
95.1381
 20
209.439
 30
0.00000
  70
    32
  0
VERTEX
  8
0
  5
DF8
 10
95.0910
 20
209.494
 30
0.00000
  70
    32
  0
VERTEX
  8
0
  5
DF9
 10
95.0433
 20
209.548
 30
0.00000
  70
    32
  0
VERTEX
  8
0
  5
DFA
 10
94.9948
 20
209.601
 30
0.00000
  70
    32
  0
VERTEX
  8
0
  5
DFB
 10
94.9457
 20
209.654
 30
0.00000
  70
    32
  0
VERTEX
  8
0
  5
DFC
 10
94.8959
 20
209.707
 30
0.00000
  70
    32
  0
VERTEX
  8
0
  5
DFD
 10
94.8455
 20
209.759
 30
0.00000
  70
    32
  0
VERTEX
  8
0
  5
DFE
 10
94.7944
 20
209.810
 30
0.00000
  70
    32
  0
VERTEX
  8
0
  5
DFF
 10
94.7426
 20
209.860
 30
0.00000
  70
    32
  0
VERTEX
  8
0
  5
E00
 10
94.6903
 20
209.910
 30
0.00000
  70
    32
  0
VERTEX
  8
0
  5
E01
 10
94.6372
 20
209.960
 30
0.00000
  70
    32
  0
VERTEX
  8
0
  5
E02
 10
94.5836
 20
210.008
 30
0.00000
  70
    32
  0
VERTEX
  8
0
  5
E03
 10
94.5294
 20
210.056
 30
0.00000
  70
    32
  0
VERTEX
  8
0
  5
E04
 10
94.4745
 20
210.104
 30
0.00000
  70
    32
  0
VERTEX
  8
0
  5
E05
 10
94.4190
 20
210.151
 30
0.00000
  70
    32
  0
VERTEX
  8
0
  5
E06
 10
94.3630
 20
210.197
 30
0.00000
  70
    32
  0
VERTEX
  8
0
  5
E07
 10
94.3064
 20
210.242
 30
0.00000
  70
    32
  0
VERTEX
  8
0
  5
E08
 10
94.2492
 20
210.287
 30
0.00000
  70
    32
  0
VERTEX
  8
0
  5
E09
 10
94.1914
 20
210.331
 30
0.00000
  70
    32
  0
VERTEX
  8
0
  5
E0A
 10
94.1331
 20
210.375
 30
0.00000
  70
    32
  0
VERTEX
  8
0
  5
E0B
 10
94.0742
 20
210.417
 30
0.00000
  70
    32
  0
VERTEX
  8
0
  5
E0C
 10
94.0148
 20
210.459
 30
0.00000
  70
    32
  0
VERTEX
  8
0
  5
E0D
 10
93.9548
 20
210.501
 30
0.00000
  70
    32
  0
VERTEX
  8
0
  5
E0E
 10
93.8944
 20
210.541
 30
0.00000
  70
    32
  0
VERTEX
  8
0
  5
E0F
 10
93.8334
 20
210.581
 30
0.00000
  70
    32
  0
VERTEX
  8
0
  5
E10
 10
93.7719
 20
210.620
 30
0.00000
  70
    32
  0
VERTEX
  8
0
  5
E11
 10
93.7100
 20
210.659
 30
0.00000
  70
    32
  0
VERTEX
  8
0
  5
E12
 10
93.6475
 20
210.696
 30
0.00000
  70
    32
  0
VERTEX
  8
0
  5
E13
 10
93.5846
 20
210.733
 30
0.00000
  70
    32
  0
VERTEX
  8
0
  5
E14
 10
93.5212
 20
210.769
 30
0.00000
  70
    32
  0
VERTEX
  8
0
  5
E15
 10
93.4574
 20
210.805
 30
0.00000
  70
    32
  0
VERTEX
  8
0
  5
E16
 10
93.3931
 20
210.840
 30
0.00000
  70
    32
  0
VERTEX
  8
0
  5
E17
 10
93.3284
 20
210.873
 30
0.00000
  70
    32
  0
VERTEX
  8
0
  5
E18
 10
93.2632
 20
210.907
 30
0.00000
  70
    32
  0
VERTEX
  8
0
  5
E19
 10
93.1977
 20
210.939
 30
0.00000
  70
    32
  0
VERTEX
  8
0
  5
E1A
 10
93.1317
 20
210.971
 30
0.00000
  70
    32
  0
VERTEX
  8
0
  5
E1B
 10
93.0653
 20
211.001
 30
0.00000
  70
    32
  0
VERTEX
  8
0
  5
E1C
 10
92.9986
 20
211.031
 30
0.00000
  70
    32
  0
VERTEX
  8
0
  5
E1D
 10
92.9314
 20
211.061
 30
0.00000
  70
    32
  0
VERTEX
  8
0
  5
E1E
 10
92.8640
 20
211.089
 30
0.00000
  70
    32
  0
VERTEX
  8
0
  5
E1F
 10
92.7961
 20
211.117
 30
0.00000
  70
    32
  0
VERTEX
  8
0
  5
E20
 10
92.7279
 20
211.143
 30
0.00000
  70
    32
  0
VERTEX
  8
0
  5
E21
 10
92.6594
 20
211.169
 30
0.00000
  70
    32
  0
VERTEX
  8
0
  5
E22
 10
92.5905
 20
211.195
 30
0.00000
  70
    32
  0
VERTEX
  8
0
  5
E23
 10
92.5213
 20
211.219
 30
0.00000
  70
    32
  0
VERTEX
  8
0
  5
E24
 10
92.4519
 20
211.243
 30
0.00000
  70
    32
  0
VERTEX
  8
0
  5
E25
 10
92.3821
 20
211.265
 30
0.00000
  70
    32
  0
VERTEX
  8
0
  5
E26
 10
92.3120
 20
211.287
 30
0.00000
  70
    32
  0
VERTEX
  8
0
  5
E27
 10
92.2417
 20
211.308
 30
0.00000
  70
    32
  0
VERTEX
  8
0
  5
E28
 10
92.1711
 20
211.328
 30
0.00000
  70
    32
  0
VERTEX
  8
0
  5
E29
 10
92.1003
 20
211.348
 30
0.00000
  70
    32
  0
VERTEX
  8
0
  5
E2A
 10
92.0292
 20
211.366
 30
0.00000
  70
    32
  0
VERTEX
  8
0
  5
E2B
 10
91.9579
 20
211.384
 30
0.00000
  70
    32
  0
VERTEX
  8
0
  5
E2C
 10
91.8863
 20
211.401
 30
0.00000
  70
    32
  0
VERTEX
  8
0
  5
E2D
 10
91.8146
 20
211.417
 30
0.00000
  70
    32
  0
VERTEX
  8
0
  5
E2E
 10
91.7427
 20
211.432
 30
0.00000
  70
    32
  0
VERTEX
  8
0
  5
E2F
 10
91.6705
 20
211.446
 30
0.00000
  70
    32
  0
VERTEX
  8
0
  5
E30
 10
91.5982
 20
211.460
 30
0.00000
  70
    32
  0
VERTEX
  8
0
  5
E31
 10
91.5258
 20
211.472
 30
0.00000
  70
    32
  0
VERTEX
  8
0
  5
E32
 10
91.4531
 20
211.484
 30
0.00000
  70
    32
  0
VERTEX
  8
0
  5
E33
 10
91.3804
 20
211.495
 30
0.00000
  70
    32
  0
VERTEX
  8
0
  5
E34
 10
91.3075
 20
211.505
 30
0.00000
  70
    32
  0
VERTEX
  8
0
  5
E35
 10
91.2345
 20
211.514
 30
0.00000
  70
    32
  0
VERTEX
  8
0
  5
E36
 10
91.1613
 20
211.522
 30
0.00000
  70
    32
  0
VERTEX
  8
0
  5
E37
 10
91.0881
 20
211.530
 30
0.00000
  70
    32
  0
VERTEX
  8
0
  5
E38
 10
91.0148
 20
211.536
 30
0.00000
  70
    32
  0
VERTEX
  8
0
  5
E39
 10
90.9414
 20
211.542
 30
0.00000
  70
    32
  0
VERTEX
  8
0
  5
E3A
 10
90.8679
 20
211.547
 30
0.00000
  70
    32
  0
VERTEX
  8
0
  5
E3B
 10
90.7944
 20
211.551
 30
0.00000
  70
    32
  0
VERTEX
  8
0
  5
E3C
 10
90.7208
 20
211.554
 30
0.00000
  70
    32
  0
VERTEX
  8
0
  5
E3D
 10
90.6472
 20
211.556
 30
0.00000
  70
    32
  0
VERTEX
  8
0
  5
E3E
 10
90.5736
 20
211.557
 30
0.00000
  70
    32
  0
VERTEX
  8
0
  5
E3F
 10
90.5000
 20
211.558
 30
0.00000
  70
    32
  0
SEQEND
  8
0
  5
E40
  0
POLYLINE
  5
667
  8
0
 10
96.5000000000000284
 20
200.7253508902685724
 30
0.0
 66
     1
 70
     8
  0
VERTEX
  8
0
  5
E41
 10
96.5000
 20
200.725
 30
0.00000
  70
    32
  0
VERTEX
  8
0
  5
E42
 10
96.6805
 20
200.935
 30
0.00000
  70
    32
  0
VERTEX
  8
0
  5
E43
 10
96.8531
 20
201.151
 30
0.00000
  70
    32
  0
VERTEX
  8
0
  5
E44
 10
97.0176
 20
201.373
 30
0.00000
  70
    32
  0
VERTEX
  8
0
  5
E45
 10
97.1739
 20
201.600
 30
0.00000
  70
    32
  0
VERTEX
  8
0
  5
E46
 10
97.3217
 20
201.832
 30
0.00000
  70
    32
  0
VERTEX
  8
0
  5
E47
 10
97.4608
 20
202.070
 30
0.00000
  70
    32
  0
VERTEX
  8
0
  5
E48
 10
97.5910
 20
202.312
 30
0.00000
  70
    32
  0
VERTEX
  8
0
  5
E49
 10
97.7122
 20
202.558
 30
0.00000
  70
    32
  0
VERTEX
  8
0
  5
E4A
 10
97.8243
 20
202.808
 30
0.00000
  70
    32
  0
VERTEX
  8
0
  5
E4B
 10
97.9271
 20
203.062
 30
0.00000
  70
    32
  0
VERTEX
  8
0
  5
E4C
 10
98.0204
 20
203.320
 30
0.00000
  70
    32
  0
VERTEX
  8
0
  5
E4D
 10
98.1041
 20
203.580
 30
0.00000
  70
    32
  0
VERTEX
  8
0
  5
E4E
 10
98.1782
 20
203.843
 30
0.00000
  70
    32
  0
VERTEX
  8
0
  5
E4F
 10
98.2426
 20
204.109
 30
0.00000
  70
    32
  0
VERTEX
  8
0
  5
E50
 10
98.2971
 20
204.377
 30
0.00000
  70
    32
  0
VERTEX
  8
0
  5
E51
 10
98.3416
 20
204.646
 30
0.00000
  70
    32
  0
VERTEX
  8
0
  5
E52
 10
98.3762
 20
204.917
 30
0.00000
  70
    32
  0
VERTEX
  8
0
  5
E53
 10
98.4008
 20
205.188
 30
0.00000
  70
    32
  0
VERTEX
  8
0
  5
E54
 10
98.4154
 20
205.461
 30
0.00000
  70
    32
  0
VERTEX
  8
0
  5
E55
 10
98.4199
 20
205.734
 30
0.00000
  70
    32
  0
VERTEX
  8
0
  5
E56
 10
98.4143
 20
206.006
 30
0.00000
  70
    32
  0
VERTEX
  8
0
  5
E57
 10
98.3986
 20
206.279
 30
0.00000
  70
    32
  0
VERTEX
  8
0
  5
E58
 10
98.3730
 20
206.550
 30
0.00000
  70
    32
  0
VERTEX
  8
0
  5
E59
 10
98.3373
 20
206.821
 30
0.00000
  70
    32
  0
VERTEX
  8
0
  5
E5A
 10
98.2916
 20
207.090
 30
0.00000
  70
    32
  0
VERTEX
  8
0
  5
E5B
 10
98.2361
 20
207.357
 30
0.00000
  70
    32
  0
VERTEX
  8
0
  5
E5C
 10
98.1707
 20
207.623
 30
0.00000
  70
    32
  0
VERTEX
  8
0
  5
E5D
 10
98.0955
 20
207.886
 30
0.00000
  70
    32
  0
VERTEX
  8
0
  5
E5E
 10
98.0107
 20
208.146
 30
0.00000
  70
    32
  0
VERTEX
  8
0
  5
E5F
 10
97.9164
 20
208.403
 30
0.00000
  70
    32
  0
VERTEX
  8
0
  5
E60
 10
97.8126
 20
208.657
 30
0.00000
  70
    32
  0
VERTEX
  8
0
  5
E61
 10
97.6995
 20
208.906
 30
0.00000
  70
    32
  0
VERTEX
  8
0
  5
E62
 10
97.5773
 20
209.152
 30
0.00000
  70
    32
  0
VERTEX
  8
0
  5
E63
 10
97.4461
 20
209.394
 30
0.00000
  70
    32
  0
VERTEX
  8
0
  5
E64
 10
97.3061
 20
209.631
 30
0.00000
  70
    32
  0
VERTEX
  8
0
  5
E65
 10
97.1574
 20
209.863
 30
0.00000
  70
    32
  0
VERTEX
  8
0
  5
E66
 10
97.0002
 20
210.089
 30
0.00000
  70
    32
  0
VERTEX
  8
0
  5
E67
 10
96.8348
 20
210.310
 30
0.00000
  70
    32
  0
VERTEX
  8
0
  5
E68
 10
96.6613
 20
210.525
 30
0.00000
  70
    32
  0
VERTEX
  8
0
  5
E69
 10
96.4800
 20
210.735
 30
0.00000
  70
    32
  0
VERTEX
  8
0
  5
E6A
 10
96.2911
 20
210.937
 30
0.00000
  70
    32
  0
VERTEX
  8
0
  5
E6B
 10
96.0948
 20
211.133
 30
0.00000
  70
    32
  0
VERTEX
  8
0
  5
E6C
 10
95.8914
 20
211.323
 30
0.00000
  70
    32
  0
VERTEX
  8
0
  5
E6D
 10
95.6812
 20
211.505
 30
0.00000
  70
    32
  0
VERTEX
  8
0
  5
E6E
 10
95.4643
 20
211.679
 30
0.00000
  70
    32
  0
VERTEX
  8
0
  5
E6F
 10
95.2412
 20
211.847
 30
0.00000
  70
    32
  0
VERTEX
  8
0
  5
E70
 10
95.0120
 20
212.006
 30
0.00000
  70
    32
  0
VERTEX
  8
0
  5
E71
 10
94.7771
 20
212.157
 30
0.00000
  70
    32
  0
VERTEX
  8
0
  5
E72
 10
94.5368
 20
212.300
 30
0.00000
  70
    32
  0
VERTEX
  8
0
  5
E73
 10
94.2913
 20
212.435
 30
0.00000
  70
    32
  0
VERTEX
  8
0
  5
E74
 10
94.0410
 20
212.562
 30
0.00000
  70
    32
  0
VERTEX
  8
0
  5
E75
 10
93.7862
 20
212.679
 30
0.00000
  70
    32
  0
VERTEX
  8
0
  5
E76
 10
93.5273
 20
212.788
 30
0.00000
  70
    32
  0
VERTEX
  8
0
  5
E77
 10
93.2645
 20
212.888
 30
0.00000
  70
    32
  0
VERTEX
  8
0
  5
E78
 10
92.9981
 20
212.978
 30
0.00000
  70
    32
  0
VERTEX
  8
0
  5
E79
 10
92.7286
 20
213.060
 30
0.00000
  70
    32
  0
VERTEX
  8
0
  5
E7A
 10
92.4563
 20
213.132
 30
0.00000
  70
    32
  0
VERTEX
  8
0
  5
E7B
 10
92.1815
 20
213.194
 30
0.00000
  70
    32
  0
VERTEX
  8
0
  5
E7C
 10
91.9045
 20
213.248
 30
0.00000
  70
    32
  0
VERTEX
  8
0
  5
E7D
 10
91.6257
 20
213.291
 30
0.00000
  70
    32
  0
VERTEX
  8
0
  5
E7E
 10
91.3456
 20
213.325
 30
0.00000
  70
    32
  0
VERTEX
  8
0
  5
E7F
 10
91.0643
 20
213.349
 30
0.00000
  70
    32
  0
VERTEX
  8
0
  5
E80
 10
90.7823
 20
213.364
 30
0.00000
  70
    32
  0
VERTEX
  8
0
  5
E81
 10
90.5000
 20
213.369
 30
0.00000
  70
    32
  0
VERTEX
  8
0
  5
E82
 10
90.2177
 20
213.364
 30
0.00000
  70
    32
  0
VERTEX
  8
0
  5
E83
 10
89.9357
 20
213.349
 30
0.00000
  70
    32
  0
VERTEX
  8
0
  5
E84
 10
89.6544
 20
213.325
 30
0.00000
  70
    32
  0
VERTEX
  8
0
  5
E85
 10
89.3743
 20
213.291
 30
0.00000
  70
    32
  0
VERTEX
  8
0
  5
E86
 10
89.0955
 20
213.248
 30
0.00000
  70
    32
  0
VERTEX
  8
0
  5
E87
 10
88.8185
 20
213.194
 30
0.00000
  70
    32
  0
VERTEX
  8
0
  5
E88
 10
88.5437
 20
213.132
 30
0.00000
  70
    32
  0
VERTEX
  8
0
  5
E89
 10
88.2714
 20
213.060
 30
0.00000
  70
    32
  0
VERTEX
  8
0
  5
E8A
 10
88.0019
 20
212.978
 30
0.00000
  70
    32
  0
VERTEX
  8
0
  5
E8B
 10
87.7355
 20
212.888
 30
0.00000
  70
    32
  0
VERTEX
  8
0
  5
E8C
 10
87.4727
 20
212.788
 30
0.00000
  70
    32
  0
VERTEX
  8
0
  5
E8D
 10
87.2138
 20
212.679
 30
0.00000
  70
    32
  0
VERTEX
  8
0
  5
E8E
 10
86.9590
 20
212.562
 30
0.00000
  70
    32
  0
VERTEX
  8
0
  5
E8F
 10
86.7087
 20
212.435
 30
0.00000
  70
    32
  0
VERTEX
  8
0
  5
E90
 10
86.4632
 20
212.300
 30
0.00000
  70
    32
  0
VERTEX
  8
0
  5
E91
 10
86.2229
 20
212.157
 30
0.00000
  70
    32
  0
VERTEX
  8
0
  5
E92
 10
85.9880
 20
212.006
 30
0.00000
  70
    32
  0
VERTEX
  8
0
  5
E93
 10
85.7588
 20
211.847
 30
0.00000
  70
    32
  0
VERTEX
  8
0
  5
E94
 10
85.5357
 20
211.679
 30
0.00000
  70
    32
  0
VERTEX
  8
0
  5
E95
 10
85.3188
 20
211.505
 30
0.00000
  70
    32
  0
VERTEX
  8
0
  5
E96
 10
85.1086
 20
211.323
 30
0.00000
  70
    32
  0
VERTEX
  8
0
  5
E97
 10
84.9052
 20
211.133
 30
0.00000
  70
    32
  0
VERTEX
  8
0
  5
E98
 10
84.7089
 20
210.937
 30
0.00000
  70
    32
  0
VERTEX
  8
0
  5
E99
 10
84.5200
 20
210.735
 30
0.00000
  70
    32
  0
VERTEX
  8
0
  5
E9A
 10
84.3387
 20
210.525
 30
0.00000
  70
    32
  0
VERTEX
  8
0
  5
E9B
 10
84.1652
 20
210.310
 30
0.00000
  70
    32
  0
VERTEX
  8
0
  5
E9C
 10
83.9998
 20
210.089
 30
0.00000
  70
    32
  0
VERTEX
  8
0
  5
E9D
 10
83.8426
 20
209.863
 30
0.00000
  70
    32
  0
VERTEX
  8
0
  5
E9E
 10
83.6939
 20
209.631
 30
0.00000
  70
    32
  0
VERTEX
  8
0
  5
E9F
 10
83.5539
 20
209.394
 30
0.00000
  70
    32
  0
VERTEX
  8
0
  5
EA0
 10
83.4227
 20
209.152
 30
0.00000
  70
    32
  0
VERTEX
  8
0
  5
EA1
 10
83.3005
 20
208.906
 30
0.00000
  70
    32
  0
VERTEX
  8
0
  5
EA2
 10
83.1874
 20
208.657
 30
0.00000
  70
    32
  0
VERTEX
  8
0
  5
EA3
 10
83.0836
 20
208.403
 30
0.00000
  70
    32
  0
VERTEX
  8
0
  5
EA4
 10
82.9893
 20
208.146
 30
0.00000
  70
    32
  0
VERTEX
  8
0
  5
EA5
 10
82.9045
 20
207.886
 30
0.00000
  70
    32
  0
VERTEX
  8
0
  5
EA6
 10
82.8293
 20
207.623
 30
0.00000
  70
    32
  0
VERTEX
  8
0
  5
EA7
 10
82.7639
 20
207.357
 30
0.00000
  70
    32
  0
VERTEX
  8
0
  5
EA8
 10
82.7084
 20
207.090
 30
0.00000
  70
    32
  0
VERTEX
  8
0
  5
EA9
 10
82.6627
 20
206.821
 30
0.00000
  70
    32
  0
VERTEX
  8
0
  5
EAA
 10
82.6270
 20
206.550
 30
0.00000
  70
    32
  0
VERTEX
  8
0
  5
EAB
 10
82.6014
 20
206.279
 30
0.00000
  70
    32
  0
VERTEX
  8
0
  5
EAC
 10
82.5857
 20
206.006
 30
0.00000
  70
    32
  0
VERTEX
  8
0
  5
EAD
 10
82.5801
 20
205.734
 30
0.00000
  70
    32
  0
VERTEX
  8
0
  5
EAE
 10
82.5846
 20
205.461
 30
0.00000
  70
    32
  0
VERTEX
  8
0
  5
EAF
 10
82.5992
 20
205.188
 30
0.00000
  70
    32
  0
VERTEX
  8
0
  5
EB0
 10
82.6238
 20
204.917
 30
0.00000
  70
    32
  0
VERTEX
  8
0
  5
EB1
 10
82.6584
 20
204.646
 30
0.00000
  70
    32
  0
VERTEX
  8
0
  5
EB2
 10
82.7029
 20
204.377
 30
0.00000
  70
    32
  0
VERTEX
  8
0
  5
EB3
 10
82.7574
 20
204.109
 30
0.00000
  70
    32
  0
VERTEX
  8
0
  5
EB4
 10
82.8218
 20
203.843
 30
0.00000
  70
    32
  0
VERTEX
  8
0
  5
EB5
 10
82.8959
 20
203.580
 30
0.00000
  70
    32
  0
VERTEX
  8
0
  5
EB6
 10
82.9796
 20
203.320
 30
0.00000
  70
    32
  0
VERTEX
  8
0
  5
EB7
 10
83.0729
 20
203.062
 30
0.00000
  70
    32
  0
VERTEX
  8
0
  5
EB8
 10
83.1757
 20
202.808
 30
0.00000
  70
    32
  0
VERTEX
  8
0
  5
EB9
 10
83.2878
 20
202.558
 30
0.00000
  70
    32
  0
VERTEX
  8
0
  5
EBA
 10
83.4090
 20
202.312
 30
0.00000
  70
    32
  0
VERTEX
  8
0
  5
EBB
 10
83.5392
 20
202.070
 30
0.00000
  70
    32
  0
VERTEX
  8
0
  5
EBC
 10
83.6783
 20
201.832
 30
0.00000
  70
    32
  0
VERTEX
  8
0
  5
EBD
 10
83.8261
 20
201.600
 30
0.00000
  70
    32
  0
VERTEX
  8
0
  5
EBE
 10
83.9824
 20
201.373
 30
0.00000
  70
    32
  0
VERTEX
  8
0
  5
EBF
 10
84.1469
 20
201.151
 30
0.00000
  70
    32
  0
VERTEX
  8
0
  5
EC0
 10
84.3195
 20
200.935
 30
0.00000
  70
    32
  0
VERTEX
  8
0
  5
EC1
 10
84.5000
 20
200.725
 30
0.00000
  70
    32
  0
SEQEND
  8
0
  5
EC2
  0
ARC
  5
668
  8
0
 10
90.5
 20
209.0158092973402972
 30
0.0
 40
15.0
 50
293.578178478200698
 51
246.421821521799302
  0
LINE
  5
669
  8
2
 10
85.5
 20
171.0
 30
0.0
 11
85.5
 21
192.0
 31
0.0
  0
LINE
  5
66B
  8
2
 10
95.5
 20
171.0
 30
0.0
 11
95.5
 21
192.0
 31
0.0
  0
LINE
  5
66C
  8
2
 10
85.4999999999999432
 20
192.0
 30
0.0
 11
95.5
 21
192.0
 31
0.0
  0
LINE
  5
66D
  8
1
 10
70.5
 20
209.0158092973402972
 30
0.0
 11
110.5
 21
209.0158092973402972
 31
0.0
  0
LINE
  5
66E
  8
1
 10
90.5
 20
166.0
 30
0.0
 11
90.5
 21
229.0158092973404109
 31
0.0
  0
CIRCLE
  5
71D
  8
0
 10
191.5
 20
304.5158092973404109
 30
0.0
 40
11.0
  0
CIRCLE
  5
71E
  8
0
 10
191.5
 20
304.5158092973404109
 30
0.0
 40
7.5
  0
TEXT
  5
723
  8
0
 10
189.1666666666666003
 20
303.0158092973404109
 30
0.0
 40
3.5
  1
Kipp
 41
0.4
  7
COMPLEX
 72
     1
 11
191.5
 21
303.0158092973404109
 31
0.0
  0
POLYLINE
  5
75B
  8
0
 10
304.8515841586744273
 20
84.5
 30
0.0
 66
     1
 70
     8
  0
VERTEX
  8
0
  5
EC3
 10
304.852
 20
84.5000
 30
0.00000
  70
    32
  0
VERTEX
  8
0
  5
EC4
 10
304.855
 20
84.4893
 30
0.00000
  70
    32
  0
VERTEX
  8
0
  5
EC5
 10
304.858
 20
84.4786
 30
0.00000
  70
    32
  0
VERTEX
  8
0
  5
EC6
 10
304.861
 20
84.4679
 30
0.00000
  70
    32
  0
VERTEX
  8
0
  5
EC7
 10
304.865
 20
84.4573
 30
0.00000
  70
    32
  0
VERTEX
  8
0
  5
EC8
 10
304.868
 20
84.4467
 30
0.00000
  70
    32
  0
VERTEX
  8
0
  5
EC9
 10
304.871
 20
84.4361
 30
0.00000
  70
    32
  0
VERTEX
  8
0
  5
ECA
 10
304.874
 20
84.4255
 30
0.00000
  70
    32
  0
VERTEX
  8
0
  5
ECB
 10
304.878
 20
84.4150
 30
0.00000
  70
    32
  0
VERTEX
  8
0
  5
ECC
 10
304.881
 20
84.4045
 30
0.00000
  70
    32
  0
VERTEX
  8
0
  5
ECD
 10
304.884
 20
84.3940
 30
0.00000
  70
    32
  0
VERTEX
  8
0
  5
ECE
 10
304.887
 20
84.3836
 30
0.00000
  70
    32
  0
VERTEX
  8
0
  5
ECF
 10
304.891
 20
84.3731
 30
0.00000
  70
    32
  0
VERTEX
  8
0
  5
ED0
 10
304.894
 20
84.3627
 30
0.00000
  70
    32
  0
VERTEX
  8
0
  5
ED1
 10
304.897
 20
84.3524
 30
0.00000
  70
    32
  0
VERTEX
  8
0
  5
ED2
 10
304.901
 20
84.3420
 30
0.00000
  70
    32
  0
VERTEX
  8
0
  5
ED3
 10
304.904
 20
84.3317
 30
0.00000
  70
    32
  0
VERTEX
  8
0
  5
ED4
 10
304.907
 20
84.3214
 30
0.00000
  70
    32
  0
VERTEX
  8
0
  5
ED5
 10
304.911
 20
84.3111
 30
0.00000
  70
    32
  0
VERTEX
  8
0
  5
ED6
 10
304.914
 20
84.3009
 30
0.00000
  70
    32
  0
VERTEX
  8
0
  5
ED7
 10
304.917
 20
84.2907
 30
0.00000
  70
    32
  0
VERTEX
  8
0
  5
ED8
 10
304.921
 20
84.2805
 30
0.00000
  70
    32
  0
VERTEX
  8
0
  5
ED9
 10
304.924
 20
84.2703
 30
0.00000
  70
    32
  0
VERTEX
  8
0
  5
EDA
 10
304.927
 20
84.2602
 30
0.00000
  70
    32
  0
VERTEX
  8
0
  5
EDB
 10
304.931
 20
84.2501
 30
0.00000
  70
    32
  0
VERTEX
  8
0
  5
EDC
 10
304.934
 20
84.2400
 30
0.00000
  70
    32
  0
VERTEX
  8
0
  5
EDD
 10
304.937
 20
84.2300
 30
0.00000
  70
    32
  0
VERTEX
  8
0
  5
EDE
 10
304.941
 20
84.2199
 30
0.00000
  70
    32
  0
VERTEX
  8
0
  5
EDF
 10
304.944
 20
84.2099
 30
0.00000
  70
    32
  0
VERTEX
  8
0
  5
EE0
 10
304.947
 20
84.2000
 30
0.00000
  70
    32
  0
VERTEX
  8
0
  5
EE1
 10
304.951
 20
84.1900
 30
0.00000
  70
    32
  0
VERTEX
  8
0
  5
EE2
 10
304.954
 20
84.1801
 30
0.00000
  70
    32
  0
VERTEX
  8
0
  5
EE3
 10
304.958
 20
84.1702
 30
0.00000
  70
    32
  0
VERTEX
  8
0
  5
EE4
 10
304.961
 20
84.1603
 30
0.00000
  70
    32
  0
VERTEX
  8
0
  5
EE5
 10
304.964
 20
84.1505
 30
0.00000
  70
    32
  0
VERTEX
  8
0
  5
EE6
 10
304.968
 20
84.1407
 30
0.00000
  70
    32
  0
VERTEX
  8
0
  5
EE7
 10
304.971
 20
84.1309
 30
0.00000
  70
    32
  0
VERTEX
  8
0
  5
EE8
 10
304.975
 20
84.1212
 30
0.00000
  70
    32
  0
VERTEX
  8
0
  5
EE9
 10
304.978
 20
84.1114
 30
0.00000
  70
    32
  0
VERTEX
  8
0
  5
EEA
 10
304.981
 20
84.1017
 30
0.00000
  70
    32
  0
VERTEX
  8
0
  5
EEB
 10
304.985
 20
84.0921
 30
0.00000
  70
    32
  0
VERTEX
  8
0
  5
EEC
 10
304.988
 20
84.0824
 30
0.00000
  70
    32
  0
VERTEX
  8
0
  5
EED
 10
304.992
 20
84.0728
 30
0.00000
  70
    32
  0
VERTEX
  8
0
  5
EEE
 10
304.995
 20
84.0632
 30
0.00000
  70
    32
  0
VERTEX
  8
0
  5
EEF
 10
304.999
 20
84.0537
 30
0.00000
  70
    32
  0
VERTEX
  8
0
  5
EF0
 10
305.002
 20
84.0441
 30
0.00000
  70
    32
  0
VERTEX
  8
0
  5
EF1
 10
305.006
 20
84.0346
 30
0.00000
  70
    32
  0
VERTEX
  8
0
  5
EF2
 10
305.009
 20
84.0251
 30
0.00000
  70
    32
  0
VERTEX
  8
0
  5
EF3
 10
305.013
 20
84.0157
 30
0.00000
  70
    32
  0
VERTEX
  8
0
  5
EF4
 10
305.016
 20
84.0063
 30
0.00000
  70
    32
  0
VERTEX
  8
0
  5
EF5
 10
305.020
 20
83.9969
 30
0.00000
  70
    32
  0
VERTEX
  8
0
  5
EF6
 10
305.023
 20
83.9875
 30
0.00000
  70
    32
  0
VERTEX
  8
0
  5
EF7
 10
305.027
 20
83.9782
 30
0.00000
  70
    32
  0
VERTEX
  8
0
  5
EF8
 10
305.030
 20
83.9689
 30
0.00000
  70
    32
  0
VERTEX
  8
0
  5
EF9
 10
305.034
 20
83.9596
 30
0.00000
  70
    32
  0
VERTEX
  8
0
  5
EFA
 10
305.037
 20
83.9503
 30
0.00000
  70
    32
  0
VERTEX
  8
0
  5
EFB
 10
305.041
 20
83.9411
 30
0.00000
  70
    32
  0
VERTEX
  8
0
  5
EFC
 10
305.044
 20
83.9319
 30
0.00000
  70
    32
  0
VERTEX
  8
0
  5
EFD
 10
305.048
 20
83.9227
 30
0.00000
  70
    32
  0
VERTEX
  8
0
  5
EFE
 10
305.051
 20
83.9136
 30
0.00000
  70
    32
  0
VERTEX
  8
0
  5
EFF
 10
305.055
 20
83.9045
 30
0.00000
  70
    32
  0
VERTEX
  8
0
  5
F00
 10
305.058
 20
83.8954
 30
0.00000
  70
    32
  0
VERTEX
  8
0
  5
F01
 10
305.062
 20
83.8863
 30
0.00000
  70
    32
  0
VERTEX
  8
0
  5
F02
 10
305.065
 20
83.8773
 30
0.00000
  70
    32
  0
VERTEX
  8
0
  5
F03
 10
305.069
 20
83.8683
 30
0.00000
  70
    32
  0
VERTEX
  8
0
  5
F04
 10
305.073
 20
83.8593
 30
0.00000
  70
    32
  0
VERTEX
  8
0
  5
F05
 10
305.076
 20
83.8504
 30
0.00000
  70
    32
  0
VERTEX
  8
0
  5
F06
 10
305.080
 20
83.8415
 30
0.00000
  70
    32
  0
VERTEX
  8
0
  5
F07
 10
305.083
 20
83.8326
 30
0.00000
  70
    32
  0
VERTEX
  8
0
  5
F08
 10
305.087
 20
83.8237
 30
0.00000
  70
    32
  0
VERTEX
  8
0
  5
F09
 10
305.090
 20
83.8149
 30
0.00000
  70
    32
  0
VERTEX
  8
0
  5
F0A
 10
305.094
 20
83.8061
 30
0.00000
  70
    32
  0
VERTEX
  8
0
  5
F0B
 10
305.098
 20
83.7974
 30
0.00000
  70
    32
  0
VERTEX
  8
0
  5
F0C
 10
305.101
 20
83.7886
 30
0.00000
  70
    32
  0
VERTEX
  8
0
  5
F0D
 10
305.105
 20
83.7799
 30
0.00000
  70
    32
  0
VERTEX
  8
0
  5
F0E
 10
305.108
 20
83.7712
 30
0.00000
  70
    32
  0
VERTEX
  8
0
  5
F0F
 10
305.112
 20
83.7626
 30
0.00000
  70
    32
  0
VERTEX
  8
0
  5
F10
 10
305.116
 20
83.7539
 30
0.00000
  70
    32
  0
VERTEX
  8
0
  5
F11
 10
305.119
 20
83.7454
 30
0.00000
  70
    32
  0
VERTEX
  8
0
  5
F12
 10
305.123
 20
83.7368
 30
0.00000
  70
    32
  0
VERTEX
  8
0
  5
F13
 10
305.127
 20
83.7282
 30
0.00000
  70
    32
  0
VERTEX
  8
0
  5
F14
 10
305.130
 20
83.7197
 30
0.00000
  70
    32
  0
VERTEX
  8
0
  5
F15
 10
305.134
 20
83.7113
 30
0.00000
  70
    32
  0
VERTEX
  8
0
  5
F16
 10
305.138
 20
83.7028
 30
0.00000
  70
    32
  0
VERTEX
  8
0
  5
F17
 10
305.141
 20
83.6944
 30
0.00000
  70
    32
  0
VERTEX
  8
0
  5
F18
 10
305.145
 20
83.6860
 30
0.00000
  70
    32
  0
VERTEX
  8
0
  5
F19
 10
305.148
 20
83.6776
 30
0.00000
  70
    32
  0
VERTEX
  8
0
  5
F1A
 10
305.152
 20
83.6693
 30
0.00000
  70
    32
  0
VERTEX
  8
0
  5
F1B
 10
305.156
 20
83.6610
 30
0.00000
  70
    32
  0
VERTEX
  8
0
  5
F1C
 10
305.160
 20
83.6527
 30
0.00000
  70
    32
  0
VERTEX
  8
0
  5
F1D
 10
305.163
 20
83.6445
 30
0.00000
  70
    32
  0
VERTEX
  8
0
  5
F1E
 10
305.167
 20
83.6363
 30
0.00000
  70
    32
  0
VERTEX
  8
0
  5
F1F
 10
305.171
 20
83.6281
 30
0.00000
  70
    32
  0
VERTEX
  8
0
  5
F20
 10
305.174
 20
83.6199
 30
0.00000
  70
    32
  0
VERTEX
  8
0
  5
F21
 10
305.178
 20
83.6118
 30
0.00000
  70
    32
  0
VERTEX
  8
0
  5
F22
 10
305.182
 20
83.6037
 30
0.00000
  70
    32
  0
VERTEX
  8
0
  5
F23
 10
305.185
 20
83.5956
 30
0.00000
  70
    32
  0
VERTEX
  8
0
  5
F24
 10
305.189
 20
83.5876
 30
0.00000
  70
    32
  0
VERTEX
  8
0
  5
F25
 10
305.193
 20
83.5796
 30
0.00000
  70
    32
  0
VERTEX
  8
0
  5
F26
 10
305.196
 20
83.5716
 30
0.00000
  70
    32
  0
VERTEX
  8
0
  5
F27
 10
305.200
 20
83.5637
 30
0.00000
  70
    32
  0
VERTEX
  8
0
  5
F28
 10
305.204
 20
83.5558
 30
0.00000
  70
    32
  0
VERTEX
  8
0
  5
F29
 10
305.208
 20
83.5479
 30
0.00000
  70
    32
  0
VERTEX
  8
0
  5
F2A
 10
305.211
 20
83.5400
 30
0.00000
  70
    32
  0
VERTEX
  8
0
  5
F2B
 10
305.215
 20
83.5322
 30
0.00000
  70
    32
  0
VERTEX
  8
0
  5
F2C
 10
305.219
 20
83.5244
 30
0.00000
  70
    32
  0
VERTEX
  8
0
  5
F2D
 10
305.223
 20
83.5166
 30
0.00000
  70
    32
  0
VERTEX
  8
0
  5
F2E
 10
305.226
 20
83.5089
 30
0.00000
  70
    32
  0
VERTEX
  8
0
  5
F2F
 10
305.230
 20
83.5012
 30
0.00000
  70
    32
  0
VERTEX
  8
0
  5
F30
 10
305.234
 20
83.4935
 30
0.00000
  70
    32
  0
VERTEX
  8
0
  5
F31
 10
305.238
 20
83.4859
 30
0.00000
  70
    32
  0
VERTEX
  8
0
  5
F32
 10
305.241
 20
83.4782
 30
0.00000
  70
    32
  0
VERTEX
  8
0
  5
F33
 10
305.245
 20
83.4707
 30
0.00000
  70
    32
  0
VERTEX
  8
0
  5
F34
 10
305.249
 20
83.4631
 30
0.00000
  70
    32
  0
VERTEX
  8
0
  5
F35
 10
305.253
 20
83.4556
 30
0.00000
  70
    32
  0
VERTEX
  8
0
  5
F36
 10
305.257
 20
83.4481
 30
0.00000
  70
    32
  0
VERTEX
  8
0
  5
F37
 10
305.260
 20
83.4406
 30
0.00000
  70
    32
  0
VERTEX
  8
0
  5
F38
 10
305.264
 20
83.4332
 30
0.00000
  70
    32
  0
VERTEX
  8
0
  5
F39
 10
305.268
 20
83.4258
 30
0.00000
  70
    32
  0
VERTEX
  8
0
  5
F3A
 10
305.272
 20
83.4184
 30
0.00000
  70
    32
  0
VERTEX
  8
0
  5
F3B
 10
305.276
 20
83.4111
 30
0.00000
  70
    32
  0
VERTEX
  8
0
  5
F3C
 10
305.279
 20
83.4037
 30
0.00000
  70
    32
  0
VERTEX
  8
0
  5
F3D
 10
305.283
 20
83.3965
 30
0.00000
  70
    32
  0
VERTEX
  8
0
  5
F3E
 10
305.287
 20
83.3892
 30
0.00000
  70
    32
  0
VERTEX
  8
0
  5
F3F
 10
305.291
 20
83.3820
 30
0.00000
  70
    32
  0
VERTEX
  8
0
  5
F40
 10
305.295
 20
83.3748
 30
0.00000
  70
    32
  0
VERTEX
  8
0
  5
F41
 10
305.298
 20
83.3676
 30
0.00000
  70
    32
  0
VERTEX
  8
0
  5
F42
 10
305.302
 20
83.3605
 30
0.00000
  70
    32
  0
VERTEX
  8
0
  5
F43
 10
305.306
 20
83.3534
 30
0.00000
  70
    32
  0
SEQEND
  8
0
  5
F44
  0
LINE
  5
7A9
  8
1
 10
313.3178649842930099
 20
228.3343258231217874
 30
0.0
 11
323.670626788393804
 21
189.6972927715588924
 31
0.0
  0
ENDSEC
  0
EOF
