  0
SECTION
  2
HEADER
  9
$ACADVER
  1
AC1009
  9
$INSBASE
 10
0.0
 20
0.0
 30
0.0
  9
$EXTMIN
 10
0.0
 20
-2.960436562073669
 30
0.0
  9
$EXTMAX
 10
388.3198274061388133
 20
286.9065325950888905
 30
0.0
  9
$LIMMIN
 10
0.0
 20
0.0
  9
$LIMMAX
 10
375.0
 20
270.0
  9
$ORTHOMODE
 70
     1
  9
$REGENMODE
 70
     1
  9
$FILLMODE
 70
     1
  9
$QTEXTMODE
 70
     0
  9
$MIRRTEXT
 70
     0
  9
$DRAGMODE
 70
     2
  9
$LTSCALE
 40
10.0
  9
$OSMODE
 70
    37
  9
$ATTMODE
 70
     1
  9
$TEXTSIZE
 40
0.2
  9
$TRACEWID
 40
0.05
  9
$TEXTSTYLE
  7
STANDARD
  9
$CLAYER
  8
0
  9
$CELTYPE
  6
BYLAYER
  9
$CECOLOR
 62
   256
  9
$DIMSCALE
 40
1.0
  9
$DIMASZ
 40
3.0
  9
$DIMEXO
 40
2.0
  9
$DIMDLI
 40
10.0
  9
$DIMRND
 40
0.0
  9
$DIMDLE
 40
0.0
  9
$DIMEXE
 40
2.0
  9
$DIMTP
 40
0.0
  9
$DIMTM
 40
0.0
  9
$DIMTXT
 40
3.2000000000000002
  9
$DIMCEN
 40
0.09
  9
$DIMTSZ
 40
0.0
  9
$DIMTOL
 70
     0
  9
$DIMLIM
 70
     0
  9
$DIMTIH
 70
     0
  9
$DIMTOH
 70
     0
  9
$DIMSE1
 70
     0
  9
$DIMSE2
 70
     0
  9
$DIMTAD
 70
     1
  9
$DIMZIN
 70
     0
  9
$DIMBLK
  1

  9
$DIMASO
 70
     0
  9
$DIMSHO
 70
     0
  9
$DIMPOST
  1

  9
$DIMAPOST
  1

  9
$DIMALT
 70
     0
  9
$DIMALTD
 70
     2
  9
$DIMALTF
 40
25.3999999999999986
  9
$DIMLFAC
 40
1.0
  9
$DIMTOFL
 70
     1
  9
$DIMTVP
 40
1.6000000000000001
  9
$DIMTIX
 70
     0
  9
$DIMSOXD
 70
     0
  9
$DIMSAH
 70
     0
  9
$DIMBLK1
  1

  9
$DIMBLK2
  1

  9
$DIMSTYLE
  2
STANDARD
  9
$DIMCLRD
 70
     0
  9
$DIMCLRE
 70
     0
  9
$DIMCLRT
 70
     0
  9
$DIMTFAC
 40
1.0
  9
$DIMGAP
 40
0.09
  9
$LUNITS
 70
     2
  9
$LUPREC
 70
     4
  9
$SKETCHINC
 40
0.1
  9
$FILLETRAD
 40
0.0
  9
$AUNITS
 70
     0
  9
$AUPREC
 70
     0
  9
$MENU
  1
E:\r13\win\SUPPORT\ACAD
  9
$ELEVATION
 40
0.0
  9
$PELEVATION
 40
0.0
  9
$THICKNESS
 40
0.0
  9
$LIMCHECK
 70
     0
  9
$BLIPMODE
 70
     0
  9
$CHAMFERA
 40
0.0
  9
$CHAMFERB
 40
0.0
  9
$SKPOLY
 70
     0
  9
$TDCREATE
 40
2449840.617175925988704
  9
$TDUPDATE
 40
2460791.49164351914078
  9
$TDINDWG
 40
0.0042455787
  9
$TDUSRTIMER
 40
0.0042455787
  9
$USRTIMER
 70
     1
  9
$ANGBASE
 50
0.0
  9
$ANGDIR
 70
     0
  9
$PDMODE
 70
     0
  9
$PDSIZE
 40
0.0
  9
$PLINEWID
 40
0.0
  9
$COORDS
 70
     1
  9
$SPLFRAME
 70
     0
  9
$SPLINETYPE
 70
     6
  9
$SPLINESEGS
 70
     8
  9
$ATTDIA
 70
     1
  9
$ATTREQ
 70
     1
  9
$HANDLING
 70
     1
  9
$HANDSEED
  5
2AB
  9
$SURFTAB1
 70
     6
  9
$SURFTAB2
 70
     6
  9
$SURFTYPE
 70
     6
  9
$SURFU
 70
     6
  9
$SURFV
 70
     6
  9
$UCSNAME
  2

  9
$UCSORG
 10
0.0
 20
0.0
 30
0.0
  9
$UCSXDIR
 10
1.0
 20
0.0
 30
0.0
  9
$UCSYDIR
 10
0.0
 20
1.0
 30
0.0
  9
$PUCSNAME
  2

  9
$PUCSORG
 10
0.0
 20
0.0
 30
0.0
  9
$PUCSXDIR
 10
1.0
 20
0.0
 30
0.0
  9
$PUCSYDIR
 10
0.0
 20
1.0
 30
0.0
  9
$USERI1
 70
     0
  9
$USERI2
 70
     1
  9
$USERI3
 70
     0
  9
$USERI4
 70
     0
  9
$USERI5
 70
     0
  9
$USERR1
 40
0.0
  9
$USERR2
 40
0.0
  9
$USERR3
 40
0.0
  9
$USERR4
 40
0.0
  9
$USERR5
 40
0.0
  9
$WORLDVIEW
 70
     1
  9
$SHADEDGE
 70
     3
  9
$SHADEDIF
 70
    70
  9
$TILEMODE
 70
     1
  9
$MAXACTVP
 70
    16
  9
$PLIMCHECK
 70
     0
  9
$PEXTMIN
 10
1.0000000000000000E+20
 20
1.0000000000000000E+20
 30
1.0000000000000000E+20
  9
$PEXTMAX
 10
-1.0000000000000000E+20
 20
-1.0000000000000000E+20
 30
-1.0000000000000000E+20
  9
$PLIMMIN
 10
0.0
 20
0.0
  9
$PLIMMAX
 10
12.0
 20
9.0
  9
$UNITMODE
 70
     0
  9
$VISRETAIN
 70
     0
  9
$PLINEGEN
 70
     0
  9
$PSLTSCALE
 70
     0
  0
ENDSEC
  0
SECTION
  2
TABLES
  0
TABLE
  2
VPORT
 70
     1
  0
VPORT
  2
*ACTIVE
 70
     0
 10
0.0
 20
0.0
 11
1.0
 21
1.0
 12
352.2783251231526833
 22
150.5306027102579947
 13
0.0
 23
0.0
 14
10.0
 24
10.0
 15
10.0
 25
10.0
 16
0.0
 26
0.0
 36
1.0
 17
0.0
 27
0.0
 37
0.0
 40
301.061205420516103
 41
2.340243902439024
 42
50.0
 43
0.0
 44
0.0
 50
0.0
 51
0.0
 71
     0
 72
   100
 73
     1
 74
     0
 75
     0
 76
     0
 77
     0
 78
     0
  0
ENDTAB
  0
TABLE
  2
LTYPE
 70
     3
  0
LTYPE
  2
CONTINUOUS
 70
     0
  3
Solid Line
 72
    65
 73
     0
 40
0.0
  0
LTYPE
  2
CENTER
 70
     0
  3
____ _ ____ _ ____ _ ____ _ ____ _ ____ _ ____
 72
    65
 73
     4
 40
2.0
 49
1.25
 49
-0.25
 49
0.25
 49
-0.25
  0
LTYPE
  2
DASHED
 70
     0
  3
__ __ __ __ __ __ __ __ __ __ __ __ __ __ __
 72
    65
 73
     2
 40
0.75
 49
0.5
 49
-0.25
  0
ENDTAB
  0
TABLE
  2
LAYER
 70
     4
  0
LAYER
  2
0
 70
     0
 62
     7
  6
CONTINUOUS
  0
LAYER
  2
1
 70
     0
 62
     1
  6
CENTER
  0
LAYER
  2
3
 70
     0
 62
     3
  6
CONTINUOUS
  0
LAYER
  2
2
 70
     0
 62
     2
  6
DASHED
  0
ENDTAB
  0
TABLE
  2
STYLE
 70
     3
  0
STYLE
  2
STANDARD
 70
     0
 40
0.0
 41
1.0
 50
0.0
 71
     0
 42
0.2
  3
TXT
  4
BIGFONT
  0
STYLE
  2
COMPLEX
 70
     0
 40
3.5
 41
0.4
 50
0.0
 71
     0
 42
3.0
  3
COMPLEX
  4

  0
STYLE
  2
STANDARD1
 70
     0
 40
0.0
 41
1.0
 50
0.0
 71
     0
 42
3.0
  3
txt
  4

  0
ENDTAB
  0
TABLE
  2
VIEW
 70
     1
  0
VIEW
  2
ALL
 70
     0
 40
270.0
 10
220.9915970000000129
 20
135.0
 41
0.0
 11
0.0
 21
0.0
 31
1.0
 12
0.0
 22
0.0
 32
0.0
 42
0.0
 43
0.0
 44
0.0
 50
0.0
 71
     0
  0
ENDTAB
  0
TABLE
  2
UCS
 70
     0
  0
ENDTAB
  0
TABLE
  2
APPID
 70
     3
  0
APPID
  2
ACAD
 70
     0
  0
APPID
  2
ACAD_MLEADERVER
 70
     0
  0
APPID
  2
ACAD_NAV_VCDISPLAY
 70
     0
  0
ENDTAB
  0
TABLE
  2
DIMSTYLE
 70
     1
  0
DIMSTYLE
  2
STANDARD
 70
     0
  3

  4

  5

  6

  7

 40
1.0
 41
0.18
 42
0.0625
 43
0.38
 44
0.18
 45
0.0
 46
0.0
 47
0.0
 48
0.0
140
0.18
141
0.09
142
0.0
143
25.3999999999999986
144
1.0
145
0.0
146
1.0
147
0.09
 71
     0
 72
     0
 73
     1
 74
     1
 75
     0
 76
     0
 77
     0
 78
     0
170
     0
171
     2
172
     0
173
     0
174
     0
175
     0
176
     0
177
     0
178
     0
  0
ENDTAB
  0
ENDSEC
  0
SECTION
  2
BLOCKS
  0
BLOCK
  8
0
  2
$MODEL_SPACE
 70
     0
 10
0.0
 20
0.0
 30
0.0
  3
$MODEL_SPACE
  1

  0
ENDBLK
  5
E8
  8
0
  0
BLOCK
 67
     1
  8
0
  2
$PAPER_SPACE
 70
     0
 10
0.0
 20
0.0
 30
0.0
  3
$PAPER_SPACE
  1

  0
ENDBLK
  5
E6
 67
     1
  8
0
  0
ENDSEC
  0
SECTION
  2
ENTITIES
  0
CIRCLE
  5
37
  8
0
 10
141.1906274061387876
 20
259.4065325950888905
 30
0.0
 40
22.5
  0
LINE
  5
38
  8
1
 10
289.1906274061387876
 20
284.6055809121326092
 30
0.0
 11
289.1906274061387876
 21
234.2074842780452002
 31
0.0
  0
LINE
  5
39
  8
1
 10
314.3896757231825063
 20
259.4065325950888905
 30
0.0
 11
113.6906274061388018
 21
259.4065325950888905
 31
0.0
  0
LINE
  5
3A
  8
1
 10
141.1906274061387876
 20
286.9065325950888905
 30
0.0
 11
141.1906274061387876
 21
231.9065325950888905
 31
0.0
  0
LINE
  5
3C
  8
0
 10
273.6906274061387876
 20
269.5060375334509217
 30
0.0
 11
273.6906274061387876
 21
249.3070276567268024
 31
0.0
  0
CIRCLE
  5
3D
  8
0
 10
141.1906274061387876
 20
259.4065325950888905
 30
0.0
 40
20.0
  0
LINE
  5
3E
  8
0
 10
273.6906274061387876
 20
266.4065325950888905
 30
0.0
 11
162.574032406138798
 21
266.4065325950888905
 31
0.0
  0
LINE
  5
3F
  8
0
 10
162.574032406138798
 20
252.4065325950888905
 30
0.0
 11
273.6906274061387876
 21
252.4065325950888905
 31
0.0
  0
CIRCLE
  5
40
  8
0
 10
141.1906274061387876
 20
259.4065325950888905
 30
0.0
 40
12.0
  0
CIRCLE
  5
41
  8
0
 10
141.1906274061387876
 20
259.4065325950888905
 30
0.0
 40
9.0
  0
TEXT
  5
46
  8
0
 10
137.8572940728053879
 20
257.4065325950888905
 30
0.0
 40
4.0
  1
Kipp
 41
0.5
  7
COMPLEX
 72
     1
 11
141.1906274061387876
 21
257.4065325950888905
 31
0.0
  0
LINE
  5
4D
  8
0
 10
163.6906274061387876
 20
163.3282945950888916
 30
0.0
 11
273.6906274061387876
 21
163.3282945950888916
 31
0.0
  0
LINE
  5
4E
  8
0
 10
273.6906274061387876
 20
177.3282945950888916
 30
0.0
 11
163.6906274061387876
 21
177.3282945950888916
 31
0.0
  0
LINE
  5
52
  8
0
 10
121.1906274061388018
 20
181.3282945950888916
 30
0.0
 11
118.6906274061388018
 21
178.8282945950888916
 31
0.0
  0
LINE
  5
53
  8
0
 10
118.6906274061388018
 20
178.8282945950888916
 30
0.0
 11
118.6906274061388018
 21
156.3282945950888916
 31
0.0
  0
LINE
  5
54
  8
0
 10
118.6906274061388018
 20
156.3282945950888916
 30
0.0
 11
119.6906274061388018
 21
155.3282945950888916
 31
0.0
  0
LINE
  5
55
  8
0
 10
129.6906274061387876
 20
155.3282945950888916
 30
0.0
 11
129.6906274061387876
 21
154.0282945950889086
 31
0.0
  0
LINE
  5
56
  8
0
 10
129.6906274061387876
 20
154.0282945950889086
 30
0.0
 11
130.3906274061388046
 21
153.3282945950888916
 31
0.0
  0
LINE
  5
57
  8
0
 10
152.6906274061387876
 20
154.0282945950889086
 30
0.0
 11
151.990627406138799
 21
153.3282945950888916
 31
0.0
  0
LINE
  5
58
  8
0
 10
152.6906274061387876
 20
155.3282945950888916
 30
0.0
 11
152.6906274061387876
 21
154.0282945950889086
 31
0.0
  0
LINE
  5
59
  8
0
 10
163.6906274061387876
 20
156.3282945950888916
 30
0.0
 11
162.6906274061387876
 21
155.3282945950888916
 31
0.0
  0
LINE
  5
5A
  8
0
 10
163.6906274061387876
 20
178.8282945950888916
 30
0.0
 11
163.6906274061387876
 21
177.3282945950888916
 31
0.0
  0
LINE
  5
5B
  8
0
 10
161.1906274061387876
 20
181.3282945950888916
 30
0.0
 11
163.6906274061387876
 21
178.8282945950888916
 31
0.0
  0
LINE
  5
5C
  8
0
 10
121.1906274061388018
 20
181.3282945950888916
 30
0.0
 11
161.1906274061387876
 21
181.3282945950888916
 31
0.0
  0
LINE
  5
5D
  8
0
 10
163.6906274061387876
 20
178.8282945950888916
 30
0.0
 11
118.6906274061388018
 21
178.8282945950888916
 31
0.0
  0
LINE
  5
5E
  8
0
 10
118.6906274061388018
 20
156.3282945950888916
 30
0.0
 11
163.6906274061387876
 21
156.3282945950888916
 31
0.0
  0
LINE
  5
5F
  8
0
 10
162.6906274061387876
 20
155.3282945950888916
 30
0.0
 11
119.6906274061388018
 21
155.3282945950888916
 31
0.0
  0
LINE
  5
60
  8
0
 10
130.3906274061388046
 20
153.3282945950888916
 30
0.0
 11
151.990627406138799
 21
153.3282945950888916
 31
0.0
  0
ARC
  5
61
  8
0
 10
185.0812524061387876
 20
170.3282945950888916
 30
0.0
 40
22.5068620000000017
 50
161.8795140000000004
 51
198.120485999999886
  0
LINE
  5
62
  8
0
 10
163.6906274061387876
 20
163.3282945950888916
 30
0.0
 11
163.6906274061387876
 21
156.3282945950888916
 31
0.0
  0
LINE
  5
63
  8
1
 10
141.1906274061387876
 20
186.3282945950888916
 30
0.0
 11
141.1906274061387876
 21
148.3282945950888916
 31
0.0
  0
LINE
  5
64
  8
1
 10
314.3896757231825063
 20
170.3282945950888916
 30
0.0
 11
113.6906274061388018
 21
170.3282945950888916
 31
0.0
  0
LINE
  5
65
  8
0
 10
129.6906274061387876
 20
154.0282945950889086
 30
0.0
 11
152.6906274061387876
 21
154.0282945950889086
 31
0.0
  0
LINE
  5
66
  8
0
 10
162.574032406138798
 20
65.8912445950889065
 30
0.0
 11
273.6906274061387876
 21
65.8912445950889065
 31
0.0
  0
LINE
  5
67
  8
0
 10
273.6906274061387876
 20
79.8912445950889065
 30
0.0
 11
162.574032406138798
 21
79.8912445950889065
 31
0.0
  0
LINE
  5
6A
  8
1
 10
141.1906274061387876
 20
100.3912445950889065
 30
0.0
 11
141.1906274061387876
 21
45.3912445950888923
 31
0.0
  0
LINE
  5
6B
  8
1
 10
314.3896757231825063
 20
72.8912445950889065
 30
0.0
 11
113.6906274061388018
 21
72.8912445950889065
 31
0.0
  0
CIRCLE
  5
6D
  8
0
 10
141.1906274061387876
 20
72.8912445950889065
 30
0.0
 40
22.5
  0
CIRCLE
  5
6E
  8
0
 10
141.1906274061387876
 20
72.8912445950889065
 30
0.0
 40
21.5
  0
CIRCLE
  5
6F
  8
0
 10
141.1906274061387876
 20
72.8912445950889065
 30
0.0
 40
11.5
  0
CIRCLE
  5
70
  8
0
 10
141.1906274061387876
 20
72.8912445950889065
 30
0.0
 40
10.8000000000000007
  0
CIRCLE
  5
71
  8
3
 10
141.1906274061387876
 20
72.8912445950889065
 30
0.0
 40
8.0
  0
CIRCLE
  5
72
  8
0
 10
141.1906274061387876
 20
72.8912445950889065
 30
0.0
 40
6.9175000000000004
  0
LINE
  5
73
  8
0
 10
349.3198274061388133
 20
154.0282945950889086
 30
0.0
 11
352.069970264447818
 21
154.0282945950889086
 31
0.0
  0
LINE
  5
74
  8
1
 10
360.8198274061388133
 20
195.5273429121326103
 30
0.0
 11
360.8198274061388133
 21
145.1292462780450876
 31
0.0
  0
LINE
  5
75
  8
0
 10
383.3198274061388133
 20
178.8282945950888916
 30
0.0
 11
383.3198274061388133
 21
156.3282945950888916
 31
0.0
  0
LINE
  5
76
  8
0
 10
350.0198274061389156
 20
153.3282945950888916
 30
0.0
 11
353.5225676464755793
 21
153.3282945950888916
 31
0.0
  0
LINE
  5
77
  8
0
 10
382.3198274061388133
 20
155.3282945950888916
 30
0.0
 11
371.6480313199926968
 21
155.3282945950888916
 31
0.0
  0
LINE
  5
78
  8
0
 10
338.3198274061388133
 20
156.3282945950888916
 30
0.0
 11
348.7264407836909754
 21
156.3282945950888916
 31
0.0
  0
LINE
  5
79
  8
0
 10
383.3198274061388133
 20
178.8282945950888916
 30
0.0
 11
377.2515041312938138
 21
178.8282945950888916
 31
0.0
  0
LINE
  5
7A
  8
0
 10
340.8198274061388133
 20
181.3282945950888916
 30
0.0
 11
345.9453526254952749
 21
181.3282945950888916
 31
0.0
  0
LINE
  5
7B
  8
0
 10
380.8198274061388133
 20
181.3282945950888916
 30
0.0
 11
383.3198274061388133
 21
178.8282945950888916
 31
0.0
  0
LINE
  5
7C
  8
0
 10
383.3198274061388133
 20
156.3282945950888916
 30
0.0
 11
382.3198274061388133
 21
155.3282945950888916
 31
0.0
  0
LINE
  5
7D
  8
0
 10
372.3198274061388133
 20
155.3282945950888916
 30
0.0
 11
372.3198274061388133
 21
154.0282945950889086
 31
0.0
  0
LINE
  5
7E
  8
0
 10
372.3198274061388133
 20
154.0282945950889086
 30
0.0
 11
371.6198274061388247
 21
153.3282945950888916
 31
0.0
  0
LINE
  5
7F
  8
0
 10
349.3198274061388133
 20
154.0282945950889086
 30
0.0
 11
350.0198274061389156
 21
153.3282945950888916
 31
0.0
  0
LINE
  5
80
  8
0
 10
349.3198274061388133
 20
155.3282945950888916
 30
0.0
 11
349.3198274061388133
 21
154.0282945950889086
 31
0.0
  0
LINE
  5
81
  8
0
 10
338.3198274061388133
 20
156.3282945950888916
 30
0.0
 11
339.3198274061388133
 21
155.3282945950888916
 31
0.0
  0
LINE
  5
82
  8
0
 10
338.3198274061388133
 20
178.8282945950888916
 30
0.0
 11
338.3198274061388133
 21
156.3282945950888916
 31
0.0
  0
LINE
  5
83
  8
0
 10
340.8198274061388133
 20
181.3282945950888916
 30
0.0
 11
338.3198274061388133
 21
178.8282945950888916
 31
0.0
  0
LINE
  5
84
  8
1
 10
333.3198274061388133
 20
170.3282945950888916
 30
0.0
 11
388.3198274061388133
 21
170.3282945950888916
 31
0.0
  0
LINE
  5
86
  8
0
 10
375.6943021867824086
 20
181.3282945950888916
 30
0.0
 11
380.8198274061388133
 21
181.3282945950888916
 31
0.0
  0
LINE
  5
87
  8
0
 10
344.3881506809838129
 20
178.8282945950888916
 30
0.0
 11
338.3198274061388133
 21
178.8282945950888916
 31
0.0
  0
LINE
  5
88
  8
0
 10
372.9132140285865944
 20
156.3282945950888916
 30
0.0
 11
383.3198274061388133
 21
156.3282945950888916
 31
0.0
  0
LINE
  5
89
  8
0
 10
349.991623492284873
 20
155.3282945950888916
 30
0.0
 11
339.3198274061388133
 21
155.3282945950888916
 31
0.0
  0
LINE
  5
8A
  8
0
 10
369.5696845478298087
 20
154.0282945950889086
 30
0.0
 11
372.3198274061388133
 21
154.0282945950889086
 31
0.0
  0
LINE
  5
8B
  8
0
 10
368.1170871658021042
 20
153.3282945950888916
 30
0.0
 11
371.6198274061388247
 21
153.3282945950888916
 31
0.0
  0
LINE
  5
8C
  8
0
 10
84.1129884034454562
 20
155.3282945950888916
 30
0.0
 11
41.1129884034454633
 21
155.3282945950888916
 31
0.0
  0
LINE
  5
8D
  8
0
 10
85.1129884034454562
 20
178.8282945950888916
 30
0.0
 11
40.1129884034454633
 21
178.8282945950888916
 31
0.0
  0
ARC
  5
8E
  8
0
 10
62.6129884034454633
 20
170.3282945950888916
 30
0.0
 40
17.5
 50
256.2708670000001803
 51
283.729132999999706
  0
LINE
  5
8F
  8
1
 10
35.1129884034454633
 20
170.3282945950888916
 30
0.0
 11
90.1129884034454705
 21
170.3282945950888916
 31
0.0
  0
LINE
  5
90
  8
0
 10
42.6129884034454633
 20
181.3282945950888916
 30
0.0
 11
40.1129884034454633
 21
178.8282945950888916
 31
0.0
  0
LINE
  5
91
  8
0
 10
40.1129884034454633
 20
178.8282945950888916
 30
0.0
 11
40.1129884034454633
 21
156.3282945950888916
 31
0.0
  0
LINE
  5
92
  8
0
 10
40.1129884034454633
 20
156.3282945950888916
 30
0.0
 11
41.1129884034454633
 21
155.3282945950888916
 31
0.0
  0
LINE
  5
93
  8
0
 10
51.1129884034454491
 20
155.3282945950888916
 30
0.0
 11
51.1129884034454491
 21
154.0282945950889086
 31
0.0
  0
LINE
  5
94
  8
0
 10
51.1129884034454491
 20
154.0282945950889086
 30
0.0
 11
51.812988403445452
 21
153.3282945950888916
 31
0.0
  0
LINE
  5
95
  8
0
 10
74.1129884034454562
 20
154.0282945950889086
 30
0.0
 11
73.4129884034454534
 21
153.3282945950888916
 31
0.0
  0
LINE
  5
96
  8
0
 10
74.1129884034454562
 20
155.3282945950888916
 30
0.0
 11
74.1129884034454562
 21
154.0282945950889086
 31
0.0
  0
LINE
  5
97
  8
0
 10
85.1129884034454562
 20
156.3282945950888916
 30
0.0
 11
84.1129884034454562
 21
155.3282945950888916
 31
0.0
  0
LINE
  5
98
  8
0
 10
82.6129884034454562
 20
181.3282945950888916
 30
0.0
 11
85.1129884034454562
 21
178.8282945950888916
 31
0.0
  0
LINE
  5
99
  8
0
 10
42.6129884034454633
 20
181.3282945950888916
 30
0.0
 11
82.6129884034454562
 21
181.3282945950888916
 31
0.0
  0
LINE
  5
9A
  8
0
 10
40.1129884034454633
 20
156.3282945950888916
 30
0.0
 11
85.1129884034454562
 21
156.3282945950888916
 31
0.0
  0
LINE
  5
9B
  8
0
 10
51.812988403445452
 20
153.3282945950888916
 30
0.0
 11
73.4129884034454534
 21
153.3282945950888916
 31
0.0
  0
LINE
  5
9C
  8
0
 10
85.1129884034454562
 20
178.8282945950888916
 30
0.0
 11
85.1129884034454562
 21
156.3282945950888916
 31
0.0
  0
LINE
  5
9D
  8
1
 10
62.6129884034454633
 20
195.5273429121326103
 30
0.0
 11
62.6129884034454633
 21
145.1292462780450876
 31
0.0
  0
LINE
  5
9E
  8
0
 10
51.1129884034454491
 20
154.0282945950889086
 30
0.0
 11
74.1129884034454562
 21
154.0282945950889086
 31
0.0
  0
LINE
  5
A9
  8
2
 10
133.1906274061387876
 20
180.3282945950888916
 30
0.0
 11
149.1906274061387876
 21
180.3282945950888916
 31
0.0
  0
LINE
  5
AA
  8
2
 10
148.1081274061388058
 20
180.3282945950888916
 30
0.0
 11
148.1081274061388058
 21
153.3282945950888916
 31
0.0
  0
LINE
  5
AB
  8
2
 10
134.2731274061387978
 20
180.3282945950888916
 30
0.0
 11
134.2731274061387978
 21
153.3282945950888916
 31
0.0
  0
LINE
  5
AC
  8
2
 10
149.1906274061387876
 20
180.3282945950888916
 30
0.0
 11
149.1906274061387876
 21
153.3282945950888916
 31
0.0
  0
LINE
  5
AD
  8
2
 10
133.1906274061387876
 20
180.3282945950888916
 30
0.0
 11
133.1906274061387876
 21
153.3282945950888916
 31
0.0
  0
LINE
  5
AE
  8
2
 10
54.6129884034454705
 20
180.3282945950888916
 30
0.0
 11
54.6129884034454705
 21
153.3282945950888916
 31
0.0
  0
LINE
  5
AF
  8
2
 10
70.6129884034454562
 20
180.3282945950888916
 30
0.0
 11
70.6129884034454562
 21
153.3282945950888916
 31
0.0
  0
LINE
  5
B0
  8
2
 10
55.6954884034454594
 20
180.3282945950888916
 30
0.0
 11
55.6954884034454594
 21
153.3282945950888916
 31
0.0
  0
LINE
  5
B1
  8
2
 10
69.5304884034454602
 20
180.3282945950888916
 30
0.0
 11
69.5304884034454602
 21
153.3282945950888916
 31
0.0
  0
LINE
  5
B2
  8
2
 10
54.6129884034454705
 20
180.3282945950888916
 30
0.0
 11
70.6129884034454562
 21
180.3282945950888916
 31
0.0
  0
ARC
  5
153
  8
0
 10
289.1906274061387876
 20
259.4065325950888905
 30
0.0
 40
18.5
 50
213.0874999801972933
 51
146.9125000198027067
  0
LINE
  5
156
  8
1
 10
289.1906274061387876
 20
195.5273429121326103
 30
0.0
 11
289.1906274061387876
 21
145.1292462780450876
 31
0.0
  0
LINE
  5
157
  8
0
 10
273.6906274061387876
 20
180.4277995334508944
 30
0.0
 11
273.6906274061387876
 21
160.2287896567268035
 31
0.0
  0
ARC
  5
158
  8
0
 10
289.1906274061387876
 20
170.3282945950888916
 30
0.0
 40
18.5
 50
213.0874999801974923
 51
146.9125000198031898
  0
LINE
  5
159
  8
1
 10
289.1906274061387876
 20
98.0902929121326252
 30
0.0
 11
289.1906274061387876
 21
47.6921962780451665
 31
0.0
  0
LINE
  5
15A
  8
0
 10
273.6906274061387876
 20
82.9907495334509235
 30
0.0
 11
273.6906274061387876
 21
62.7917396567268327
 31
0.0
  0
ARC
  5
15B
  8
0
 10
289.1906274061387876
 20
72.8912445950888923
 30
0.0
 40
18.5
 50
213.0874999801968102
 51
146.9125000198031898
  0
CIRCLE
  5
15C
  8
0
 10
360.8198274061388133
 20
170.3282945950888916
 30
0.0
 40
18.5
  0
ARC
  5
15F
  8
0
 10
62.4812420510897866
 20
170.3282945950888916
 30
0.0
 40
18.5
 50
36.4837370613671297
 51
143.5162629386327922
  0
TEXT
  5
1D1
  8
0
 62
     3
 10
0.0
 20
0.0
 30
0.0
 40
10.0
  1
FTF16-SUS
  7
STANDARD1
  0
ENDSEC
  0
EOF
