  0
SECTION
  2
HEADER
  9
$ACADVER
  1
AC1009
  9
$INSBASE
 10
0.0
 20
0.0
 30
0.0
  9
$EXTMIN
 10
0.0
 20
-2.960436562073669
 30
0.0
  9
$EXTMAX
 10
335.0005659999999921
 20
253.6043170000000089
 30
0.0
  9
$LIMMIN
 10
0.0
 20
0.0
  9
$LIMMAX
 10
375.0
 20
270.0
  9
$ORTHOMODE
 70
     1
  9
$REGENMODE
 70
     1
  9
$FILLMODE
 70
     1
  9
$QTEXTMODE
 70
     0
  9
$MIRRTEXT
 70
     0
  9
$DRAGMODE
 70
     2
  9
$LTSCALE
 40
10.0
  9
$OSMODE
 70
    37
  9
$ATTMODE
 70
     1
  9
$TEXTSIZE
 40
4.0
  9
$TRACEWID
 40
0.05
  9
$TEXTSTYLE
  7
STANDARD
  9
$CLAYER
  8
0
  9
$CELTYPE
  6
BYLAYER
  9
$CECOLOR
 62
   256
  9
$DIMSCALE
 40
1.0
  9
$DIMASZ
 40
3.0
  9
$DIMEXO
 40
2.0
  9
$DIMDLI
 40
0.38
  9
$DIMRND
 40
0.0
  9
$DIMDLE
 40
0.0
  9
$DIMEXE
 40
2.0
  9
$DIMTP
 40
0.0
  9
$DIMTM
 40
0.0
  9
$DIMTXT
 40
3.2000000000000002
  9
$DIMCEN
 40
0.0
  9
$DIMTSZ
 40
0.0
  9
$DIMTOL
 70
     0
  9
$DIMLIM
 70
     0
  9
$DIMTIH
 70
     0
  9
$DIMTOH
 70
     0
  9
$DIMSE1
 70
     0
  9
$DIMSE2
 70
     0
  9
$DIMTAD
 70
     1
  9
$DIMZIN
 70
     0
  9
$DIMBLK
  1

  9
$DIMASO
 70
     0
  9
$DIMSHO
 70
     0
  9
$DIMPOST
  1

  9
$DIMAPOST
  1

  9
$DIMALT
 70
     0
  9
$DIMALTD
 70
     2
  9
$DIMALTF
 40
25.3999999999999986
  9
$DIMLFAC
 40
1.0
  9
$DIMTOFL
 70
     1
  9
$DIMTVP
 40
1.6000000000000001
  9
$DIMTIX
 70
     1
  9
$DIMSOXD
 70
     0
  9
$DIMSAH
 70
     0
  9
$DIMBLK1
  1

  9
$DIMBLK2
  1

  9
$DIMSTYLE
  2
STANDARD
  9
$DIMCLRD
 70
     0
  9
$DIMCLRE
 70
     0
  9
$DIMCLRT
 70
     0
  9
$DIMTFAC
 40
1.0
  9
$DIMGAP
 40
0.09
  9
$LUNITS
 70
     2
  9
$LUPREC
 70
     4
  9
$SKETCHINC
 40
0.1
  9
$FILLETRAD
 40
0.0
  9
$AUNITS
 70
     0
  9
$AUPREC
 70
     4
  9
$MENU
  1
E:\r13\win\SUPPORT\ACAD
  9
$ELEVATION
 40
0.0
  9
$PELEVATION
 40
0.0
  9
$THICKNESS
 40
0.0
  9
$LIMCHECK
 70
     0
  9
$BLIPMODE
 70
     0
  9
$CHAMFERA
 40
0.0
  9
$CHAMFERB
 40
0.0
  9
$SKPOLY
 70
     0
  9
$TDCREATE
 40
2449840.6172337960451841
  9
$TDUPDATE
 40
2460791.4916087961755693
  9
$TDINDWG
 40
0.0032049074
  9
$TDUSRTIMER
 40
0.0032049074
  9
$USRTIMER
 70
     1
  9
$ANGBASE
 50
0.0
  9
$ANGDIR
 70
     0
  9
$PDMODE
 70
     0
  9
$PDSIZE
 40
0.0
  9
$PLINEWID
 40
0.0
  9
$COORDS
 70
     1
  9
$SPLFRAME
 70
     0
  9
$SPLINETYPE
 70
     6
  9
$SPLINESEGS
 70
     8
  9
$ATTDIA
 70
     1
  9
$ATTREQ
 70
     1
  9
$HANDLING
 70
     1
  9
$HANDSEED
  5
2D3
  9
$SURFTAB1
 70
     6
  9
$SURFTAB2
 70
     6
  9
$SURFTYPE
 70
     6
  9
$SURFU
 70
     6
  9
$SURFV
 70
     6
  9
$UCSNAME
  2

  9
$UCSORG
 10
0.0
 20
0.0
 30
0.0
  9
$UCSXDIR
 10
1.0
 20
0.0
 30
0.0
  9
$UCSYDIR
 10
0.0
 20
1.0
 30
0.0
  9
$PUCSNAME
  2

  9
$PUCSORG
 10
0.0
 20
0.0
 30
0.0
  9
$PUCSXDIR
 10
1.0
 20
0.0
 30
0.0
  9
$PUCSYDIR
 10
0.0
 20
1.0
 30
0.0
  9
$USERI1
 70
     0
  9
$USERI2
 70
     1
  9
$USERI3
 70
     0
  9
$USERI4
 70
     0
  9
$USERI5
 70
     0
  9
$USERR1
 40
0.0
  9
$USERR2
 40
0.0
  9
$USERR3
 40
0.0
  9
$USERR4
 40
0.0
  9
$USERR5
 40
0.0
  9
$WORLDVIEW
 70
     1
  9
$SHADEDGE
 70
     3
  9
$SHADEDIF
 70
    70
  9
$TILEMODE
 70
     1
  9
$MAXACTVP
 70
    16
  9
$PLIMCHECK
 70
     0
  9
$PEXTMIN
 10
1.0000000000000000E+20
 20
1.0000000000000000E+20
 30
1.0000000000000000E+20
  9
$PEXTMAX
 10
-1.0000000000000000E+20
 20
-1.0000000000000000E+20
 30
-1.0000000000000000E+20
  9
$PLIMMIN
 10
0.0
 20
0.0
  9
$PLIMMAX
 10
12.0
 20
9.0
  9
$UNITMODE
 70
     0
  9
$VISRETAIN
 70
     0
  9
$PLINEGEN
 70
     0
  9
$PSLTSCALE
 70
     0
  0
ENDSEC
  0
SECTION
  2
TABLES
  0
TABLE
  2
VPORT
 70
     1
  0
VPORT
  2
*ACTIVE
 70
     0
 10
0.0
 20
0.0
 11
1.0
 21
1.0
 12
305.3078817733990036
 22
130.4598556822236048
 13
0.0
 23
0.0
 14
10.0
 24
10.0
 15
10.0
 25
10.0
 16
0.0
 26
0.0
 36
1.0
 17
0.0
 27
0.0
 37
0.0
 40
260.9197113644473234
 41
2.340243902439024
 42
50.0
 43
0.0
 44
0.0
 50
0.0
 51
0.0
 71
     0
 72
   100
 73
     1
 74
     0
 75
     0
 76
     0
 77
     0
 78
     2
  0
ENDTAB
  0
TABLE
  2
LTYPE
 70
     2
  0
LTYPE
  2
CONTINUOUS
 70
     0
  3
Solid Line
 72
    65
 73
     0
 40
0.0
  0
LTYPE
  2
CENTER
 70
     0
  3
____ _ ____ _ ____ _ ____ _ ____ _ ____ _ ____
 72
    65
 73
     4
 40
2.0
 49
1.25
 49
-0.25
 49
0.25
 49
-0.25
  0
ENDTAB
  0
TABLE
  2
LAYER
 70
     3
  0
LAYER
  2
0
 70
     0
 62
     7
  6
CONTINUOUS
  0
LAYER
  2
1
 70
     0
 62
     1
  6
CENTER
  0
LAYER
  2
3
 70
     0
 62
     3
  6
CONTINUOUS
  0
ENDTAB
  0
TABLE
  2
STYLE
 70
     3
  0
STYLE
  2
STANDARD
 70
     0
 40
0.0
 41
1.0
 50
0.0
 71
     0
 42
4.0
  3
TXT
  4
BIGFONT
  0
STYLE
  2
COMPLEX
 70
     0
 40
3.5
 41
0.4
 50
0.0
 71
     0
 42
3.0
  3
COMPLEX
  4

  0
STYLE
  2
STANDARD1
 70
     0
 40
0.0
 41
1.0
 50
0.0
 71
     0
 42
3.0
  3
txt
  4

  0
ENDTAB
  0
TABLE
  2
VIEW
 70
     1
  0
VIEW
  2
ALL
 70
     0
 40
270.0
 10
220.9915970000000129
 20
135.0
 41
0.0
 11
0.0
 21
0.0
 31
1.0
 12
0.0
 22
0.0
 32
0.0
 42
0.0
 43
0.0
 44
0.0
 50
0.0
 71
     0
  0
ENDTAB
  0
TABLE
  2
UCS
 70
     0
  0
ENDTAB
  0
TABLE
  2
APPID
 70
     3
  0
APPID
  2
ACAD
 70
     0
  0
APPID
  2
ACAD_MLEADERVER
 70
     0
  0
APPID
  2
ACAD_NAV_VCDISPLAY
 70
     0
  0
ENDTAB
  0
TABLE
  2
DIMSTYLE
 70
     1
  0
DIMSTYLE
  2
STANDARD
 70
     0
  3

  4

  5

  6

  7

 40
1.0
 41
0.18
 42
0.0625
 43
0.38
 44
0.18
 45
0.0
 46
0.0
 47
0.0
 48
0.0
140
0.18
141
0.09
142
0.0
143
25.3999999999999986
144
1.0
145
0.0
146
1.0
147
0.09
 71
     0
 72
     0
 73
     1
 74
     1
 75
     0
 76
     0
 77
     0
 78
     0
170
     0
171
     2
172
     0
173
     0
174
     0
175
     0
176
     0
177
     0
178
     0
  0
ENDTAB
  0
ENDSEC
  0
SECTION
  2
BLOCKS
  0
BLOCK
  8
0
  2
$MODEL_SPACE
 70
     0
 10
0.0
 20
0.0
 30
0.0
  3
$MODEL_SPACE
  1

  0
ENDBLK
  5
101
  8
0
  0
BLOCK
 67
     1
  8
0
  2
$PAPER_SPACE
 70
     0
 10
0.0
 20
0.0
 30
0.0
  3
$PAPER_SPACE
  1

  0
ENDBLK
  5
FF
 67
     1
  8
0
  0
ENDSEC
  0
SECTION
  2
ENTITIES
  0
LINE
  5
35
  8
0
 10
137.2734969999999919
 20
93.3012590000000017
 30
0.0
 11
138.4734970000000089
 21
94.5012589999999904
 31
0.0
  0
LINE
  5
36
  8
0
 10
138.4734970000000089
 20
94.5012589999999904
 30
0.0
 11
138.4734970000000089
 21
142.9012590000000102
 31
0.0
  0
ARC
  5
37
  8
0
 10
138.8734969999999862
 20
142.9012590000000102
 30
0.0
 40
0.4
 50
90.0
 51
180.0
  0
LINE
  5
38
  8
3
 10
138.4734970000000089
 20
142.9012600000000077
 30
0.0
 11
137.7969970000000046
 21
141.7295269999999903
 31
0.0
  0
LINE
  5
39
  8
3
 10
137.7969970000000046
 20
141.7295269999999903
 30
0.0
 11
137.7969970000000046
 21
93.8247590000000145
 31
0.0
  0
LINE
  5
3A
  8
3
 10
131.1499970000000133
 20
141.7295269999999903
 30
0.0
 11
131.1499970000000133
 21
93.8247590000000145
 31
0.0
  0
LINE
  5
3B
  8
3
 10
130.4734970000000089
 20
142.9012600000000077
 30
0.0
 11
131.1499970000000133
 21
141.7295269999999903
 31
0.0
  0
ARC
  5
3C
  8
0
 10
130.0734970000000033
 20
142.9012590000000102
 30
0.0
 40
0.4
 50
0.0
 51
90.0
  0
LINE
  5
3D
  8
0
 10
130.4734970000000089
 20
94.5012589999999904
 30
0.0
 11
130.4734970000000089
 21
142.9012590000000102
 31
0.0
  0
LINE
  5
3E
  8
0
 10
131.6734969999999976
 20
93.3012590000000017
 30
0.0
 11
130.4734970000000089
 21
94.5012589999999904
 31
0.0
  0
LINE
  5
3F
  8
0
 10
131.6734969999999976
 20
93.3012590000000017
 30
0.0
 11
137.2734969999999919
 21
93.3012590000000017
 31
0.0
  0
LINE
  5
40
  8
0
 10
130.4734970000000089
 20
94.5012589999999904
 30
0.0
 11
138.4734970000000089
 21
94.5012589999999904
 31
0.0
  0
LINE
  5
41
  8
0
 10
138.4734970000000089
 20
141.7295269999999903
 30
0.0
 11
130.4734970000000089
 21
141.7295269999999903
 31
0.0
  0
CIRCLE
  5
42
  8
0
 10
134.4734970000000089
 20
232.1043170000000089
 30
0.0
 40
16.5
  0
CIRCLE
  5
43
  8
0
 10
134.4734970000000089
 20
232.1043170000000089
 30
0.0
 40
15.0
  0
LINE
  5
44
  8
1
 10
112.9734969999999947
 20
155.3012589999999875
 30
0.0
 11
253.9734970000000089
 21
155.3012589999999875
 31
0.0
  0
LINE
  5
45
  8
1
 10
236.4734970000000089
 20
172.8012589999999875
 30
0.0
 11
236.4734970000000089
 21
137.8012589999999875
 31
0.0
  0
LINE
  5
46
  8
1
 10
112.9734969999999947
 20
232.1043170000000089
 30
0.0
 11
253.9734970000000089
 21
232.1043170000000089
 31
0.0
  0
LINE
  5
47
  8
1
 10
134.4734970000000089
 20
253.6043170000000089
 30
0.0
 11
134.4734970000000089
 21
210.6043170000000089
 31
0.0
  0
LINE
  5
48
  8
1
 10
236.4734970000000089
 20
249.6043170000000089
 30
0.0
 11
236.4734970000000089
 21
214.6043170000000089
 31
0.0
  0
ARC
  5
49
  8
0
 10
236.4734970000000089
 20
232.1043170000000089
 30
0.0
 40
12.5
 50
212.859880000000004
 51
147.140119999999996
  0
LINE
  5
4A
  8
0
 10
225.9734970000000089
 20
225.3219870000000071
 30
0.0
 11
225.9734970000000089
 21
238.8866470000000106
 31
0.0
  0
LINE
  5
4B
  8
0
 10
150.1976819999999861
 20
237.1043170000000089
 30
0.0
 11
225.9734970000000089
 21
237.1043170000000089
 31
0.0
  0
LINE
  5
4C
  8
0
 10
225.9734970000000089
 20
227.1043170000000089
 30
0.0
 11
150.1976819999999861
 21
227.1043170000000089
 31
0.0
  0
LINE
  5
4D
  8
0
 10
119.4734969999999947
 20
162.3012589999999875
 30
0.0
 11
117.9734969999999947
 21
160.8012589999999875
 31
0.0
  0
LINE
  5
4E
  8
0
 10
117.9734969999999947
 20
160.8012589999999875
 30
0.0
 11
117.9734969999999947
 21
146.3012589999999875
 31
0.0
  0
LINE
  5
4F
  8
0
 10
117.9734969999999947
 20
146.3012589999999875
 30
0.0
 11
118.9734969999999947
 21
145.3012589999999875
 31
0.0
  0
LINE
  5
50
  8
0
 10
127.7234969999999947
 20
145.3012589999999875
 30
0.0
 11
127.7234969999999947
 21
143.8012589999999875
 31
0.0
  0
LINE
  5
51
  8
0
 10
127.7234969999999947
 20
143.8012589999999875
 30
0.0
 11
128.2234970000000089
 21
143.3012589999999875
 31
0.0
  0
LINE
  5
52
  8
0
 10
141.2234970000000089
 20
143.8012589999999875
 30
0.0
 11
140.7234970000000089
 21
143.3012589999999875
 31
0.0
  0
LINE
  5
53
  8
0
 10
141.2234970000000089
 20
145.3012589999999875
 30
0.0
 11
141.2234970000000089
 21
143.8012589999999875
 31
0.0
  0
LINE
  5
54
  8
0
 10
150.9734970000000089
 20
146.3012589999999875
 30
0.0
 11
149.9734970000000089
 21
145.3012589999999875
 31
0.0
  0
LINE
  5
55
  8
0
 10
150.9734970000000089
 20
160.8012589999999875
 30
0.0
 11
150.9734970000000089
 21
160.3012589999999875
 31
0.0
  0
LINE
  5
56
  8
0
 10
149.4734970000000089
 20
162.3012589999999875
 30
0.0
 11
150.9734970000000089
 21
160.8012589999999875
 31
0.0
  0
LINE
  5
57
  8
0
 10
119.4734969999999947
 20
162.3012589999999875
 30
0.0
 11
149.4734970000000089
 21
162.3012589999999875
 31
0.0
  0
LINE
  5
58
  8
0
 10
118.9734969999999947
 20
145.3012589999999875
 30
0.0
 11
149.9734970000000089
 21
145.3012589999999875
 31
0.0
  0
LINE
  5
59
  8
0
 10
128.2234970000000089
 20
143.3012589999999875
 30
0.0
 11
140.7234970000000089
 21
143.3012589999999875
 31
0.0
  0
LINE
  5
5A
  8
0
 10
117.9734969999999947
 20
160.8012589999999875
 30
0.0
 11
150.9734970000000089
 21
160.8012589999999875
 31
0.0
  0
LINE
  5
5B
  8
0
 10
117.9734969999999947
 20
146.3012589999999875
 30
0.0
 11
150.9734970000000089
 21
146.3012589999999875
 31
0.0
  0
LINE
  5
5C
  8
0
 10
225.9734970000000089
 20
148.5189290000000142
 30
0.0
 11
225.9734970000000089
 21
162.0835889999999893
 31
0.0
  0
ARC
  5
5D
  8
0
 10
236.4734970000000089
 20
155.3012589999999875
 30
0.0
 40
12.5
 50
212.859880000000004
 51
147.140119999999996
  0
ARC
  5
5E
  8
0
 10
166.6976819999999861
 20
155.3012589999999875
 30
0.0
 40
16.5
 50
162.3602989999999977
 51
197.6397010000000023
  0
LINE
  5
5F
  8
0
 10
150.9734970000000089
 20
150.3012589999999875
 30
0.0
 11
150.9734970000000089
 21
146.3012589999999875
 31
0.0
  0
LINE
  5
60
  8
0
 10
150.9734970000000089
 20
160.3012589999999875
 30
0.0
 11
225.9734970000000089
 21
160.3012589999999875
 31
0.0
  0
LINE
  5
61
  8
0
 10
150.9734970000000089
 20
150.3012589999999875
 30
0.0
 11
225.9734970000000089
 21
150.3012589999999875
 31
0.0
  0
LINE
  5
62
  8
1
 10
134.4734970000000089
 20
167.3012589999999875
 30
0.0
 11
134.4734970000000089
 21
88.3012590000000017
 31
0.0
  0
CIRCLE
  5
63
  8
0
 10
134.4734970000000089
 20
232.1043170000000089
 30
0.0
 40
7.5
  0
CIRCLE
  5
64
  8
0
 10
134.4734970000000089
 20
232.1043170000000089
 30
0.0
 40
5.0
  0
TEXT
  5
69
  8
0
 10
133.1401636666666093
 20
231.6043170000000089
 30
0.0
 40
2.0
  1
Kipp
 41
0.4
  7
COMPLEX
 72
     1
 11
134.4734970000000089
 21
231.6043170000000089
 31
0.0
  0
LINE
  5
70
  8
0
 10
127.7234969999999947
 20
143.8012589999999875
 30
0.0
 11
141.2234970000000089
 21
143.8012589999999875
 31
0.0
  0
LINE
  5
71
  8
0
 10
225.9734970000000089
 20
34.7212230000000019
 30
0.0
 11
150.1976819999999861
 21
34.7212230000000019
 31
0.0
  0
LINE
  5
72
  8
0
 10
150.1976819999999861
 20
44.7212229999999877
 30
0.0
 11
225.9734970000000089
 21
44.7212229999999877
 31
0.0
  0
LINE
  5
73
  8
0
 10
225.9734970000000089
 20
32.9388930000000002
 30
0.0
 11
225.9734970000000089
 21
46.5035529999999966
 31
0.0
  0
ARC
  5
74
  8
0
 10
236.4734970000000089
 20
39.7212230000000019
 30
0.0
 40
12.5
 50
212.859880000000004
 51
147.140119999999996
  0
LINE
  5
75
  8
1
 10
236.4734970000000089
 20
57.2212229999999877
 30
0.0
 11
236.4734970000000089
 21
22.2212229999999984
 31
0.0
  0
LINE
  5
76
  8
1
 10
134.4734970000000089
 20
61.2212230000000019
 30
0.0
 11
134.4734970000000089
 21
18.2212229999999984
 31
0.0
  0
LINE
  5
77
  8
1
 10
112.9734969999999947
 20
39.7212230000000019
 30
0.0
 11
253.9734970000000089
 21
39.7212230000000019
 31
0.0
  0
CIRCLE
  5
78
  8
0
 10
134.4734970000000089
 20
39.7212230000000019
 30
0.0
 40
16.5
  0
CIRCLE
  5
79
  8
0
 10
134.4734970000000089
 20
39.7212230000000019
 30
0.0
 40
15.5
  0
CIRCLE
  5
7A
  8
0
 10
134.4734970000000089
 20
39.7212230000000019
 30
0.0
 40
6.75
  0
CIRCLE
  5
7B
  8
0
 10
134.4734970000000089
 20
39.7212230000000019
 30
0.0
 40
6.25
  0
CIRCLE
  5
7C
  8
0
 10
134.4734970000000089
 20
39.7212230000000019
 30
0.0
 40
4.0
  0
CIRCLE
  5
7D
  8
3
 10
134.4734970000000089
 20
39.7212230000000019
 30
0.0
 40
3.3235000000000001
  0
LINE
  5
7E
  8
0
 10
306.7505659999999921
 20
143.8012589999999875
 30
0.0
 11
308.6015859999999975
 21
143.8012589999999875
 31
0.0
  0
LINE
  5
7F
  8
1
 10
313.5005659999999921
 20
172.8012589999999875
 30
0.0
 11
313.5005659999999921
 21
88.3012590000000017
 31
0.0
  0
LINE
  5
80
  8
0
 10
330.0005659999999921
 20
160.8012589999999875
 30
0.0
 11
330.0005659999999921
 21
146.3012589999999875
 31
0.0
  0
LINE
  5
81
  8
0
 10
297.0005659999999921
 20
146.3012589999999875
 30
0.0
 11
304.8258900000000153
 21
146.3012589999999875
 31
0.0
  0
LINE
  5
82
  8
0
 10
297.0005659999999921
 20
160.8012589999999875
 30
0.0
 11
302.2755930000000149
 21
160.8012589999999875
 31
0.0
  0
LINE
  5
83
  8
0
 10
307.2505659999999921
 20
143.3012589999999875
 30
0.0
 11
310.0005659999999921
 21
143.3012589999999875
 31
0.0
  0
LINE
  5
84
  8
0
 10
298.0005659999999921
 20
145.3012589999999875
 30
0.0
 11
306.0005659999999921
 21
145.3012589999999875
 31
0.0
  0
LINE
  5
85
  8
0
 10
298.5005659999999921
 20
162.3012589999999875
 30
0.0
 11
303.1444079999999985
 21
162.3012589999999875
 31
0.0
  0
LINE
  5
86
  8
0
 10
328.5005659999999921
 20
162.3012589999999875
 30
0.0
 11
330.0005659999999921
 21
160.8012589999999875
 31
0.0
  0
LINE
  5
87
  8
0
 10
330.0005659999999921
 20
146.3012589999999875
 30
0.0
 11
329.0005659999999921
 21
145.3012589999999875
 31
0.0
  0
LINE
  5
88
  8
0
 10
320.2505659999999921
 20
144.780446000000012
 30
0.0
 11
320.2505659999999921
 21
143.8012589999999875
 31
0.0
  0
LINE
  5
89
  8
0
 10
320.2505659999999921
 20
143.8012589999999875
 30
0.0
 11
319.7505659999999921
 21
143.3012589999999875
 31
0.0
  0
LINE
  5
8A
  8
0
 10
306.7505659999999921
 20
143.8012589999999875
 30
0.0
 11
307.2505659999999921
 21
143.3012589999999875
 31
0.0
  0
LINE
  5
8B
  8
0
 10
306.7505659999999921
 20
144.780446000000012
 30
0.0
 11
306.7505659999999921
 21
143.8012589999999875
 31
0.0
  0
LINE
  5
8C
  8
0
 10
297.0005659999999921
 20
146.3012589999999875
 30
0.0
 11
298.0005659999999921
 21
145.3012589999999875
 31
0.0
  0
LINE
  5
8D
  8
0
 10
297.0005659999999921
 20
160.8012589999999875
 30
0.0
 11
297.0005659999999921
 21
146.3012589999999875
 31
0.0
  0
LINE
  5
8E
  8
0
 10
298.5005659999999921
 20
162.3012589999999875
 30
0.0
 11
297.0005659999999921
 21
160.8012589999999875
 31
0.0
  0
LINE
  5
8F
  8
1
 10
292.0005659999999921
 20
155.3012589999999875
 30
0.0
 11
335.0005659999999921
 21
155.3012589999999875
 31
0.0
  0
CIRCLE
  5
90
  8
0
 10
313.5005659999999921
 20
155.3012589999999875
 30
0.0
 40
12.5
  0
LINE
  5
91
  8
0
 10
323.8567229999999881
 20
162.3012589999999875
 30
0.0
 11
328.5005659999999921
 21
162.3012589999999875
 31
0.0
  0
LINE
  5
92
  8
0
 10
324.7255379999999718
 20
160.8012589999999875
 30
0.0
 11
330.0005659999999921
 21
160.8012589999999875
 31
0.0
  0
LINE
  5
93
  8
0
 10
322.175241000000085
 20
146.3012589999999875
 30
0.0
 11
330.0005659999999921
 21
146.3012589999999875
 31
0.0
  0
LINE
  5
94
  8
0
 10
321.0005659999999921
 20
145.3012589999999875
 30
0.0
 11
329.0005659999999921
 21
145.3012589999999875
 31
0.0
  0
LINE
  5
95
  8
0
 10
318.3995450000001028
 20
143.8012589999999875
 30
0.0
 11
320.2505659999999921
 21
143.8012589999999875
 31
0.0
  0
LINE
  5
96
  8
0
 10
317.0005659999999921
 20
143.3012589999999875
 30
0.0
 11
319.7505659999999921
 21
143.3012589999999875
 31
0.0
  0
LINE
  5
97
  8
1
 10
34.2647150000000025
 20
155.3012589999999875
 30
0.0
 11
77.2647149999999954
 21
155.3012589999999875
 31
0.0
  0
LINE
  5
98
  8
0
 10
40.7647150000000025
 20
162.3012589999999875
 30
0.0
 11
39.2647150000000025
 21
160.8012589999999875
 31
0.0
  0
LINE
  5
99
  8
0
 10
39.2647150000000025
 20
160.8012589999999875
 30
0.0
 11
39.2647150000000025
 21
146.3012589999999875
 31
0.0
  0
LINE
  5
9A
  8
0
 10
39.2647150000000025
 20
146.3012589999999875
 30
0.0
 11
40.2647150000000025
 21
145.3012589999999875
 31
0.0
  0
LINE
  5
9B
  8
0
 10
49.0147150000000025
 20
145.3012589999999875
 30
0.0
 11
49.0147150000000025
 21
143.8012589999999875
 31
0.0
  0
LINE
  5
9C
  8
0
 10
49.0147150000000025
 20
143.8012589999999875
 30
0.0
 11
49.5147150000000025
 21
143.3012589999999875
 31
0.0
  0
LINE
  5
9D
  8
0
 10
62.5147150000000025
 20
143.8012589999999875
 30
0.0
 11
62.0147150000000025
 21
143.3012589999999875
 31
0.0
  0
LINE
  5
9E
  8
0
 10
62.5147150000000025
 20
145.3012589999999875
 30
0.0
 11
62.5147150000000025
 21
143.8012589999999875
 31
0.0
  0
LINE
  5
9F
  8
0
 10
72.2647149999999954
 20
146.3012589999999875
 30
0.0
 11
71.2647149999999954
 21
145.3012589999999875
 31
0.0
  0
LINE
  5
A0
  8
0
 10
70.7647149999999954
 20
162.3012589999999875
 30
0.0
 11
72.2647149999999954
 21
160.8012589999999875
 31
0.0
  0
LINE
  5
A1
  8
0
 10
40.7647150000000025
 20
162.3012589999999875
 30
0.0
 11
70.7647149999999954
 21
162.3012589999999875
 31
0.0
  0
LINE
  5
A2
  8
0
 10
40.2647150000000025
 20
145.3012589999999875
 30
0.0
 11
71.2647149999999954
 21
145.3012589999999875
 31
0.0
  0
LINE
  5
A3
  8
0
 10
49.5147150000000025
 20
143.3012589999999875
 30
0.0
 11
62.0147150000000025
 21
143.3012589999999875
 31
0.0
  0
LINE
  5
A4
  8
0
 10
39.2647150000000025
 20
160.8012589999999875
 30
0.0
 11
72.2647149999999954
 21
160.8012589999999875
 31
0.0
  0
LINE
  5
A5
  8
0
 10
39.2647150000000025
 20
146.3012589999999875
 30
0.0
 11
72.2647149999999954
 21
146.3012589999999875
 31
0.0
  0
LINE
  5
A6
  8
0
 10
72.2647149999999954
 20
160.8012589999999875
 30
0.0
 11
72.2647149999999954
 21
146.3012589999999875
 31
0.0
  0
LINE
  5
A7
  8
1
 10
55.7647150000000025
 20
172.8012589999999875
 30
0.0
 11
55.7647150000000025
 21
88.3012590000000017
 31
0.0
  0
LINE
  5
A8
  8
0
 10
49.0147150000000025
 20
143.8012589999999875
 30
0.0
 11
62.5147150000000025
 21
143.8012589999999875
 31
0.0
  0
ARC
  5
A9
  8
0
 10
55.7647150000000025
 20
155.3012589999999875
 30
0.0
 40
12.5
 50
34.0557980000000029
 51
145.94420199999999
  0
ARC
  5
AA
  8
0
 10
51.3647149999999968
 20
142.9012590000000102
 30
0.0
 40
0.4
 50
0.0
 51
90.0
  0
LINE
  5
AB
  8
0
 10
59.7647150000000025
 20
141.7295269999999903
 30
0.0
 11
51.7647150000000025
 21
141.7295269999999903
 31
0.0
  0
LINE
  5
AC
  8
0
 10
51.7647150000000025
 20
94.5012589999999904
 30
0.0
 11
59.7647150000000025
 21
94.5012589999999904
 31
0.0
  0
LINE
  5
AD
  8
0
 10
52.9647149999999982
 20
93.3012590000000017
 30
0.0
 11
58.5647149999999996
 21
93.3012590000000017
 31
0.0
  0
LINE
  5
AE
  8
0
 10
52.9647149999999982
 20
93.3012590000000017
 30
0.0
 11
51.7647150000000025
 21
94.5012589999999904
 31
0.0
  0
LINE
  5
AF
  8
0
 10
51.7647150000000025
 20
94.5012589999999904
 30
0.0
 11
51.7647150000000025
 21
142.9012590000000102
 31
0.0
  0
ARC
  5
B0
  8
0
 10
51.3647149999999968
 20
142.9012590000000102
 30
0.0
 40
0.4
 50
0.0
 51
90.0
  0
LINE
  5
B1
  8
3
 10
51.7647150000000025
 20
142.9012600000000077
 30
0.0
 11
52.4412149999999997
 21
141.7295269999999903
 31
0.0
  0
LINE
  5
B2
  8
3
 10
52.4412149999999997
 20
141.7295269999999903
 30
0.0
 11
52.4412149999999997
 21
93.8247590000000145
 31
0.0
  0
LINE
  5
B3
  8
3
 10
59.0882150000000124
 20
141.7295269999999903
 30
0.0
 11
59.0882150000000124
 21
93.8247590000000145
 31
0.0
  0
LINE
  5
B4
  8
3
 10
59.7647150000000025
 20
142.9012600000000077
 30
0.0
 11
59.0882150000000124
 21
141.7295269999999903
 31
0.0
  0
ARC
  5
B5
  8
0
 10
60.1647150000000011
 20
142.9012590000000102
 30
0.0
 40
0.4
 50
90.0
 51
180.0
  0
LINE
  5
B6
  8
0
 10
59.7647150000000025
 20
94.5012589999999904
 30
0.0
 11
59.7647150000000025
 21
142.9012590000000102
 31
0.0
  0
LINE
  5
B7
  8
0
 10
58.5647149999999996
 20
93.3012590000000017
 30
0.0
 11
59.7647150000000025
 21
94.5012589999999904
 31
0.0
  0
LINE
  5
B8
  8
0
 10
317.5005659999999921
 20
141.7295269999999903
 30
0.0
 11
309.5005659999999921
 21
141.7295269999999903
 31
0.0
  0
LINE
  5
B9
  8
0
 10
309.5005659999999921
 20
94.5012589999999904
 30
0.0
 11
317.5005659999999921
 21
94.5012589999999904
 31
0.0
  0
LINE
  5
BA
  8
0
 10
310.7005659999999807
 20
93.3012590000000017
 30
0.0
 11
316.3005660000000034
 21
93.3012590000000017
 31
0.0
  0
LINE
  5
BB
  8
0
 10
310.7005659999999807
 20
93.3012590000000017
 30
0.0
 11
309.5005659999999921
 21
94.5012589999999904
 31
0.0
  0
LINE
  5
BC
  8
0
 10
309.5005659999999921
 20
94.5012589999999904
 30
0.0
 11
309.5005659999999921
 21
142.9012590000000102
 31
0.0
  0
ARC
  5
BD
  8
0
 10
309.1005660000000148
 20
142.9012590000000102
 30
0.0
 40
0.4
 50
0.0
 51
90.0
  0
LINE
  5
BE
  8
3
 10
309.5005659999999921
 20
142.9012600000000077
 30
0.0
 11
310.1770660000000248
 21
141.7295269999999903
 31
0.0
  0
LINE
  5
BF
  8
3
 10
310.1770660000000248
 20
141.7295269999999903
 30
0.0
 11
310.1770660000000248
 21
93.8247590000000145
 31
0.0
  0
LINE
  5
C0
  8
3
 10
316.8240660000000162
 20
141.7295269999999903
 30
0.0
 11
316.8240660000000162
 21
93.8247590000000145
 31
0.0
  0
LINE
  5
C1
  8
3
 10
317.5005659999999921
 20
142.9012600000000077
 30
0.0
 11
316.8240660000000162
 21
141.7295269999999903
 31
0.0
  0
ARC
  5
C2
  8
0
 10
317.9005660000000262
 20
142.9012590000000102
 30
0.0
 40
0.4
 50
90.0
 51
180.0
  0
LINE
  5
C3
  8
0
 10
317.5005659999999921
 20
94.5012589999999904
 30
0.0
 11
317.5005659999999921
 21
142.9012590000000102
 31
0.0
  0
LINE
  5
C4
  8
0
 10
316.3005660000000034
 20
93.3012590000000017
 30
0.0
 11
317.5005659999999921
 21
94.5012589999999904
 31
0.0
  0
TEXT
  5
1C2
  8
0
 62
     3
 10
0.0
 20
0.0
 30
0.0
 40
10.0
  1
FT8X50
  7
STANDARD1
  0
ENDSEC
  0
EOF
