  0
SECTION
  2
HEADER
  9
$ACADVER
  1
AC1009
  9
$INSBASE
 10
0.0
 20
0.0
 30
0.0
  9
$EXTMIN
 10
0.0
 20
-2.960436562073669
 30
0.0
  9
$EXTMAX
 10
355.0749569999999835
 20
258.0899279999999862
 30
0.0
  9
$LIMMIN
 10
0.0
 20
0.0
  9
$LIMMAX
 10
375.0
 20
270.0
  9
$ORTHOMODE
 70
     1
  9
$REGENMODE
 70
     1
  9
$FILLMODE
 70
     1
  9
$QTEXTMODE
 70
     0
  9
$MIRRTEXT
 70
     0
  9
$DRAGMODE
 70
     2
  9
$LTSCALE
 40
10.0
  9
$OSMODE
 70
    37
  9
$ATTMODE
 70
     1
  9
$TEXTSIZE
 40
0.2
  9
$TRACEWID
 40
0.05
  9
$TEXTSTYLE
  7
STANDARD
  9
$CLAYER
  8
0
  9
$CELTYPE
  6
BYLAYER
  9
$CECOLOR
 62
   256
  9
$DIMSCALE
 40
1.0
  9
$DIMASZ
 40
3.0
  9
$DIMEXO
 40
2.0
  9
$DIMDLI
 40
0.38
  9
$DIMRND
 40
0.0
  9
$DIMDLE
 40
0.0
  9
$DIMEXE
 40
2.0
  9
$DIMTP
 40
0.0
  9
$DIMTM
 40
0.0
  9
$DIMTXT
 40
3.2000000000000002
  9
$DIMCEN
 40
0.0
  9
$DIMTSZ
 40
0.0
  9
$DIMTOL
 70
     0
  9
$DIMLIM
 70
     0
  9
$DIMTIH
 70
     0
  9
$DIMTOH
 70
     0
  9
$DIMSE1
 70
     0
  9
$DIMSE2
 70
     0
  9
$DIMTAD
 70
     1
  9
$DIMZIN
 70
     0
  9
$DIMBLK
  1

  9
$DIMASO
 70
     0
  9
$DIMSHO
 70
     0
  9
$DIMPOST
  1

  9
$DIMAPOST
  1

  9
$DIMALT
 70
     0
  9
$DIMALTD
 70
     2
  9
$DIMALTF
 40
25.3999999999999986
  9
$DIMLFAC
 40
1.0
  9
$DIMTOFL
 70
     1
  9
$DIMTVP
 40
1.6000000000000001
  9
$DIMTIX
 70
     1
  9
$DIMSOXD
 70
     0
  9
$DIMSAH
 70
     0
  9
$DIMBLK1
  1

  9
$DIMBLK2
  1

  9
$DIMSTYLE
  2
STANDARD
  9
$DIMCLRD
 70
     0
  9
$DIMCLRE
 70
     0
  9
$DIMCLRT
 70
     0
  9
$DIMTFAC
 40
1.0
  9
$DIMGAP
 40
0.09
  9
$LUNITS
 70
     2
  9
$LUPREC
 70
     4
  9
$SKETCHINC
 40
0.1
  9
$FILLETRAD
 40
0.0
  9
$AUNITS
 70
     0
  9
$AUPREC
 70
     4
  9
$MENU
  1
E:\r13\win\SUPPORT\ACAD
  9
$ELEVATION
 40
0.0
  9
$PELEVATION
 40
0.0
  9
$THICKNESS
 40
0.0
  9
$LIMCHECK
 70
     0
  9
$BLIPMODE
 70
     0
  9
$CHAMFERA
 40
0.0
  9
$CHAMFERB
 40
0.0
  9
$SKPOLY
 70
     0
  9
$TDCREATE
 40
2449840.6174305560998619
  9
$TDUPDATE
 40
2460791.4915393521077931
  9
$TDINDWG
 40
0.0015010185
  9
$TDUSRTIMER
 40
0.0015010185
  9
$USRTIMER
 70
     1
  9
$ANGBASE
 50
0.0
  9
$ANGDIR
 70
     0
  9
$PDMODE
 70
     0
  9
$PDSIZE
 40
0.0
  9
$PLINEWID
 40
0.0
  9
$COORDS
 70
     1
  9
$SPLFRAME
 70
     0
  9
$SPLINETYPE
 70
     6
  9
$SPLINESEGS
 70
     8
  9
$ATTDIA
 70
     1
  9
$ATTREQ
 70
     1
  9
$HANDLING
 70
     1
  9
$HANDSEED
  5
2C6
  9
$SURFTAB1
 70
     6
  9
$SURFTAB2
 70
     6
  9
$SURFTYPE
 70
     6
  9
$SURFU
 70
     6
  9
$SURFV
 70
     6
  9
$UCSNAME
  2

  9
$UCSORG
 10
0.0
 20
0.0
 30
0.0
  9
$UCSXDIR
 10
1.0
 20
0.0
 30
0.0
  9
$UCSYDIR
 10
0.0
 20
1.0
 30
0.0
  9
$PUCSNAME
  2

  9
$PUCSORG
 10
0.0
 20
0.0
 30
0.0
  9
$PUCSXDIR
 10
1.0
 20
0.0
 30
0.0
  9
$PUCSYDIR
 10
0.0
 20
1.0
 30
0.0
  9
$USERI1
 70
     0
  9
$USERI2
 70
     1
  9
$USERI3
 70
     0
  9
$USERI4
 70
     0
  9
$USERI5
 70
     0
  9
$USERR1
 40
0.0
  9
$USERR2
 40
0.0
  9
$USERR3
 40
0.0
  9
$USERR4
 40
0.0
  9
$USERR5
 40
0.0
  9
$WORLDVIEW
 70
     1
  9
$SHADEDGE
 70
     3
  9
$SHADEDIF
 70
    70
  9
$TILEMODE
 70
     1
  9
$MAXACTVP
 70
    16
  9
$PLIMCHECK
 70
     0
  9
$PEXTMIN
 10
1.0000000000000000E+20
 20
1.0000000000000000E+20
 30
1.0000000000000000E+20
  9
$PEXTMAX
 10
-1.0000000000000000E+20
 20
-1.0000000000000000E+20
 30
-1.0000000000000000E+20
  9
$PLIMMIN
 10
0.0
 20
0.0
  9
$PLIMMAX
 10
12.0
 20
9.0
  9
$UNITMODE
 70
     0
  9
$VISRETAIN
 70
     0
  9
$PLINEGEN
 70
     0
  9
$PSLTSCALE
 70
     0
  0
ENDSEC
  0
SECTION
  2
TABLES
  0
TABLE
  2
VPORT
 70
     1
  0
VPORT
  2
*ACTIVE
 70
     0
 10
0.0
 20
0.0
 11
1.0
 21
1.0
 12
317.050492610837523
 22
135.4775424392321952
 13
0.0
 23
0.0
 14
10.0
 24
10.0
 15
10.0
 25
10.0
 16
0.0
 26
0.0
 36
1.0
 17
0.0
 27
0.0
 37
0.0
 40
270.9550848784645041
 41
2.340243902439024
 42
50.0
 43
0.0
 44
0.0
 50
0.0
 51
0.0
 71
     0
 72
   100
 73
     1
 74
     0
 75
     0
 76
     0
 77
     0
 78
     2
  0
ENDTAB
  0
TABLE
  2
LTYPE
 70
     2
  0
LTYPE
  2
CONTINUOUS
 70
     0
  3
Solid Line
 72
    65
 73
     0
 40
0.0
  0
LTYPE
  2
CENTER
 70
     0
  3
____ _ ____ _ ____ _ ____ _ ____ _ ____ _ ____
 72
    65
 73
     4
 40
2.0
 49
1.25
 49
-0.25
 49
0.25
 49
-0.25
  0
ENDTAB
  0
TABLE
  2
LAYER
 70
     3
  0
LAYER
  2
0
 70
     0
 62
     7
  6
CONTINUOUS
  0
LAYER
  2
1
 70
     0
 62
     1
  6
CENTER
  0
LAYER
  2
3
 70
     0
 62
     3
  6
CONTINUOUS
  0
ENDTAB
  0
TABLE
  2
STYLE
 70
     3
  0
STYLE
  2
STANDARD
 70
     0
 40
0.0
 41
1.0
 50
0.0
 71
     0
 42
0.2
  3
TXT
  4
BIGFONT
  0
STYLE
  2
COMPLEX
 70
     0
 40
3.5
 41
0.4
 50
0.0
 71
     0
 42
3.0
  3
COMPLEX
  4

  0
STYLE
  2
STANDARD1
 70
     0
 40
0.0
 41
1.0
 50
0.0
 71
     0
 42
3.0
  3
txt
  4

  0
ENDTAB
  0
TABLE
  2
VIEW
 70
     1
  0
VIEW
  2
ALL
 70
     0
 40
270.0
 10
220.9915970000000129
 20
135.0
 41
0.0
 11
0.0
 21
0.0
 31
1.0
 12
0.0
 22
0.0
 32
0.0
 42
0.0
 43
0.0
 44
0.0
 50
0.0
 71
     0
  0
ENDTAB
  0
TABLE
  2
UCS
 70
     0
  0
ENDTAB
  0
TABLE
  2
APPID
 70
     3
  0
APPID
  2
ACAD
 70
     0
  0
APPID
  2
ACAD_MLEADERVER
 70
     0
  0
APPID
  2
ACAD_NAV_VCDISPLAY
 70
     0
  0
ENDTAB
  0
TABLE
  2
DIMSTYLE
 70
     1
  0
DIMSTYLE
  2
STANDARD
 70
     0
  3

  4

  5

  6

  7

 40
1.0
 41
0.18
 42
0.0625
 43
0.38
 44
0.18
 45
0.0
 46
0.0
 47
0.0
 48
0.0
140
0.18
141
0.09
142
0.0
143
25.3999999999999986
144
1.0
145
0.0
146
1.0
147
0.09
 71
     0
 72
     0
 73
     1
 74
     1
 75
     0
 76
     0
 77
     0
 78
     0
170
     0
171
     2
172
     0
173
     0
174
     0
175
     0
176
     0
177
     0
178
     0
  0
ENDTAB
  0
ENDSEC
  0
SECTION
  2
BLOCKS
  0
BLOCK
  8
0
  2
$MODEL_SPACE
 70
     0
 10
0.0
 20
0.0
 30
0.0
  3
$MODEL_SPACE
  1

  0
ENDBLK
  5
102
  8
0
  0
BLOCK
 67
     1
  8
0
  2
$PAPER_SPACE
 70
     0
 10
0.0
 20
0.0
 30
0.0
  3
$PAPER_SPACE
  1

  0
ENDBLK
  5
100
 67
     1
  8
0
  0
ENDSEC
  0
SECTION
  2
ENTITIES
  0
LINE
  5
35
  8
0
 10
126.6524710000000056
 20
89.9802159999999844
 30
0.0
 11
128.6524709999999914
 21
91.9802159999999986
 31
0.0
  0
LINE
  5
36
  8
0
 10
128.6524709999999914
 20
91.9802159999999986
 30
0.0
 11
128.6524709999999914
 21
139.3802159999999901
 31
0.0
  0
ARC
  5
37
  8
0
 10
129.2524710000000141
 20
139.3802159999999901
 30
0.0
 40
0.6
 50
90.0
 51
180.0
  0
LINE
  5
38
  8
3
 10
128.6524709999999914
 20
139.3802159999999901
 30
0.0
 11
127.7054710000000028
 21
137.7399639999999863
 31
0.0
  0
LINE
  5
39
  8
3
 10
127.7054710000000028
 20
137.7399639999999863
 30
0.0
 11
127.7054710000000028
 21
91.0332160000000101
 31
0.0
  0
LINE
  5
3A
  8
3
 10
117.5994709999999941
 20
137.7399639999999863
 30
0.0
 11
117.5994709999999941
 21
91.0332160000000101
 31
0.0
  0
LINE
  5
3B
  8
3
 10
116.6524710000000056
 20
139.3802159999999901
 30
0.0
 11
117.5994709999999941
 21
137.7399639999999863
 31
0.0
  0
ARC
  5
3C
  8
0
 10
116.052470999999997
 20
139.3802159999999901
 30
0.0
 40
0.6
 50
0.0
 51
90.0
  0
LINE
  5
3D
  8
0
 10
116.6524710000000056
 20
91.9802159999999986
 30
0.0
 11
116.6524710000000056
 21
139.3802159999999901
 31
0.0
  0
LINE
  5
3E
  8
0
 10
118.6524710000000056
 20
89.9802159999999844
 30
0.0
 11
116.6524710000000056
 21
91.9802159999999986
 31
0.0
  0
LINE
  5
3F
  8
0
 10
116.6524710000000056
 20
137.7399639999999863
 30
0.0
 11
128.6524709999999914
 21
137.7399639999999863
 31
0.0
  0
LINE
  5
40
  8
0
 10
116.6524710000000056
 20
91.9802159999999986
 30
0.0
 11
128.6524709999999914
 21
91.9802159999999986
 31
0.0
  0
LINE
  5
41
  8
0
 10
118.6524710000000056
 20
89.9802159999999844
 30
0.0
 11
126.6524710000000056
 21
89.9802159999999844
 31
0.0
  0
CIRCLE
  5
42
  8
0
 10
122.6524710000000056
 20
232.5899279999999862
 30
0.0
 40
20.5
  0
LINE
  5
43
  8
1
 10
97.1524709999999914
 20
232.5899279999999862
 30
0.0
 11
273.6524709999999914
 21
232.5899279999999862
 31
0.0
  0
LINE
  5
44
  8
1
 10
253.6524709999999914
 20
252.5899279999999862
 30
0.0
 11
253.6524709999999914
 21
212.5899279999999862
 31
0.0
  0
LINE
  5
45
  8
1
 10
122.6524710000000056
 20
258.0899279999999862
 30
0.0
 11
122.6524710000000056
 21
207.0899279999999862
 31
0.0
  0
ARC
  5
46
  8
0
 10
253.6524709999999914
 20
232.5899279999999862
 30
0.0
 40
15.0
 50
209.9264349999999979
 51
150.0735650000000021
  0
LINE
  5
47
  8
0
 10
240.6524709999999914
 20
240.0732429999999908
 30
0.0
 11
240.6524709999999914
 21
225.1066130000000101
 31
0.0
  0
CIRCLE
  5
48
  8
0
 10
122.6524710000000056
 20
232.5899279999999862
 30
0.0
 40
18.5
  0
CIRCLE
  5
49
  8
0
 10
122.6524710000000056
 20
232.5899279999999862
 30
0.0
 40
11.0
  0
CIRCLE
  5
4A
  8
0
 10
122.6524710000000056
 20
232.5899279999999862
 30
0.0
 40
7.5
  0
TEXT
  5
4F
  8
0
 10
120.3191376666666059
 20
231.0899279999999862
 30
0.0
 40
3.5
  1
Kipp
 41
0.4
  7
COMPLEX
 72
     1
 11
122.6524710000000056
 21
231.0899279999999862
 31
0.0
  0
LINE
  5
56
  8
0
 10
142.2547669999999869
 20
238.5899279999999862
 30
0.0
 11
240.6524709999999914
 21
238.5899279999999862
 31
0.0
  0
LINE
  5
57
  8
0
 10
240.6524709999999914
 20
226.5899279999999862
 30
0.0
 11
142.2547669999999869
 21
226.5899279999999862
 31
0.0
  0
LINE
  5
58
  8
0
 10
240.6524709999999914
 20
147.4802160000000129
 30
0.0
 11
143.1524709999999914
 21
147.4802160000000129
 31
0.0
  0
LINE
  5
59
  8
0
 10
143.1524709999999914
 20
159.4802160000000129
 30
0.0
 11
240.6524709999999914
 21
159.4802160000000129
 31
0.0
  0
LINE
  5
5A
  8
0
 10
240.6524709999999914
 20
160.963530999999989
 30
0.0
 11
240.6524709999999914
 21
145.9969010000000083
 31
0.0
  0
ARC
  5
5B
  8
0
 10
253.6524709999999914
 20
153.4802160000000129
 30
0.0
 40
15.0
 50
209.9264349999999979
 51
150.0735650000000021
  0
LINE
  5
5C
  8
1
 10
253.6524709999999914
 20
173.4802160000000129
 30
0.0
 11
253.6524709999999914
 21
133.4802160000000129
 31
0.0
  0
LINE
  5
5D
  8
1
 10
97.1524709999999914
 20
153.4802160000000129
 30
0.0
 11
273.6524709999999914
 21
153.4802160000000129
 31
0.0
  0
LINE
  5
5E
  8
0
 10
104.1524710000000056
 20
161.9802160000000129
 30
0.0
 11
102.1524710000000056
 21
159.9802160000000129
 31
0.0
  0
LINE
  5
5F
  8
0
 10
102.1524710000000056
 20
159.9802160000000129
 30
0.0
 11
102.1524710000000056
 21
142.9802160000000129
 31
0.0
  0
LINE
  5
60
  8
0
 10
102.1524710000000056
 20
142.9802160000000129
 30
0.0
 11
103.1524710000000056
 21
141.9802160000000129
 31
0.0
  0
LINE
  5
61
  8
0
 10
113.1524710000000056
 20
141.9802160000000129
 30
0.0
 11
113.1524710000000056
 21
140.5802160000000072
 31
0.0
  0
LINE
  5
62
  8
0
 10
113.1524710000000056
 20
140.5802160000000072
 30
0.0
 11
113.7524709999999999
 21
139.9802160000000129
 31
0.0
  0
LINE
  5
63
  8
0
 10
132.1524709999999914
 20
140.5802160000000072
 30
0.0
 11
131.552470999999997
 21
139.9802160000000129
 31
0.0
  0
LINE
  5
64
  8
0
 10
132.1524709999999914
 20
141.9802160000000129
 30
0.0
 11
132.1524709999999914
 21
140.5802160000000072
 31
0.0
  0
LINE
  5
65
  8
0
 10
143.1524709999999914
 20
142.9802160000000129
 30
0.0
 11
142.1524709999999914
 21
141.9802160000000129
 31
0.0
  0
LINE
  5
66
  8
0
 10
143.1524709999999914
 20
159.9802160000000129
 30
0.0
 11
143.1524709999999914
 21
159.4802160000000129
 31
0.0
  0
LINE
  5
67
  8
0
 10
141.1524709999999914
 20
161.9802160000000129
 30
0.0
 11
143.1524709999999914
 21
159.9802160000000129
 31
0.0
  0
LINE
  5
68
  8
0
 10
104.1524710000000056
 20
161.9802160000000129
 30
0.0
 11
141.1524709999999914
 21
161.9802160000000129
 31
0.0
  0
LINE
  5
69
  8
0
 10
143.1524709999999914
 20
159.9802160000000129
 30
0.0
 11
102.1524710000000056
 21
159.9802160000000129
 31
0.0
  0
LINE
  5
6A
  8
0
 10
102.1524710000000056
 20
142.9802160000000129
 30
0.0
 11
143.1524709999999914
 21
142.9802160000000129
 31
0.0
  0
LINE
  5
6B
  8
0
 10
103.1524710000000056
 20
141.9802160000000129
 30
0.0
 11
142.1524709999999914
 21
141.9802160000000129
 31
0.0
  0
LINE
  5
6C
  8
0
 10
113.7524709999999999
 20
139.9802160000000129
 30
0.0
 11
131.552470999999997
 21
139.9802160000000129
 31
0.0
  0
ARC
  5
6D
  8
0
 10
162.7547669999999869
 20
153.4802160000000129
 30
0.0
 40
20.5
 50
162.9813530000000128
 51
197.0186469999999872
  0
LINE
  5
6E
  8
0
 10
143.1524709999999914
 20
147.4802160000000129
 30
0.0
 11
143.1524709999999914
 21
142.9802160000000129
 31
0.0
  0
LINE
  5
6F
  8
1
 10
122.6524710000000056
 20
166.9802160000000129
 30
0.0
 11
122.6524710000000056
 21
84.9802159999999844
 31
0.0
  0
LINE
  5
70
  8
0
 10
113.1524710000000056
 20
140.5802160000000072
 30
0.0
 11
132.1524709999999914
 21
140.5802160000000072
 31
0.0
  0
LINE
  5
71
  8
0
 10
240.6524709999999914
 20
30.5512590000000017
 30
0.0
 11
142.2547669999999869
 21
30.5512590000000017
 31
0.0
  0
LINE
  5
72
  8
0
 10
142.2547669999999869
 20
42.5512590000000017
 30
0.0
 11
240.6524709999999914
 21
42.5512590000000017
 31
0.0
  0
LINE
  5
73
  8
0
 10
240.6524709999999914
 20
44.0345739999999921
 30
0.0
 11
240.6524709999999914
 21
29.0679440000000007
 31
0.0
  0
ARC
  5
74
  8
0
 10
253.6524709999999914
 20
36.5512590000000017
 30
0.0
 40
15.0
 50
209.9264349999999979
 51
150.0735650000000021
  0
LINE
  5
75
  8
1
 10
122.6524710000000056
 20
62.0512589999999875
 30
0.0
 11
122.6524710000000056
 21
11.0512589999999999
 31
0.0
  0
LINE
  5
76
  8
1
 10
253.6524709999999914
 20
56.5512589999999875
 30
0.0
 11
253.6524709999999914
 21
16.5512589999999911
 31
0.0
  0
LINE
  5
77
  8
1
 10
97.1524709999999914
 20
36.5512590000000017
 30
0.0
 11
273.6524709999999914
 21
36.5512590000000017
 31
0.0
  0
CIRCLE
  5
78
  8
0
 10
122.6524710000000056
 20
36.5512590000000017
 30
0.0
 40
20.5
  0
CIRCLE
  5
79
  8
0
 10
122.6524710000000056
 20
36.5512590000000017
 30
0.0
 40
19.5
  0
CIRCLE
  5
7A
  8
0
 10
122.6524710000000056
 20
36.5512590000000017
 30
0.0
 40
9.5
  0
CIRCLE
  5
7B
  8
0
 10
122.6524710000000056
 20
36.5512590000000017
 30
0.0
 40
8.9000000000000004
  0
CIRCLE
  5
7C
  8
0
 10
122.6524710000000056
 20
36.5512590000000017
 30
0.0
 40
6.0
  0
CIRCLE
  5
7D
  8
3
 10
122.6524710000000056
 20
36.5512590000000017
 30
0.0
 40
5.052999999999999
  0
LINE
  5
7E
  8
0
 10
320.0749569999999835
 20
140.5802160000000072
 30
0.0
 11
321.9205469999999991
 21
140.5802160000000072
 31
0.0
  0
LINE
  5
7F
  8
1
 10
329.5749569999999835
 20
173.4802160000000129
 30
0.0
 11
329.5749569999999835
 21
84.9802159999999844
 31
0.0
  0
LINE
  5
80
  8
0
 10
350.0749569999999835
 20
159.9802160000000129
 30
0.0
 11
350.0749569999999835
 21
142.9802160000000129
 31
0.0
  0
LINE
  5
81
  8
0
 10
320.6749570000000062
 20
139.9802160000000129
 30
0.0
 11
323.0366089999999986
 21
139.9802160000000129
 31
0.0
  0
LINE
  5
82
  8
0
 10
310.0749569999999835
 20
141.9802160000000129
 30
0.0
 11
319.9442769999999996
 21
141.9802160000000129
 31
0.0
  0
LINE
  5
83
  8
0
 10
309.0749569999999835
 20
142.9802160000000129
 30
0.0
 11
318.8628140000000144
 21
142.9802160000000129
 31
0.0
  0
LINE
  5
84
  8
0
 10
350.0749569999999835
 20
159.9802160000000129
 30
0.0
 11
343.0934629999999856
 21
159.9802160000000129
 31
0.0
  0
LINE
  5
85
  8
0
 10
311.0749569999999835
 20
161.9802160000000129
 30
0.0
 11
317.2157500000000141
 21
161.9802160000000129
 31
0.0
  0
LINE
  5
86
  8
0
 10
348.0749569999999835
 20
161.9802160000000129
 30
0.0
 11
350.0749569999999835
 21
159.9802160000000129
 31
0.0
  0
LINE
  5
87
  8
0
 10
350.0749569999999835
 20
142.9802160000000129
 30
0.0
 11
349.0749569999999835
 21
141.9802160000000129
 31
0.0
  0
LINE
  5
88
  8
0
 10
339.0749569999999835
 20
141.9802160000000129
 30
0.0
 11
339.0749569999999835
 21
140.5802160000000072
 31
0.0
  0
LINE
  5
89
  8
0
 10
339.0749569999999835
 20
140.5802160000000072
 30
0.0
 11
338.4749570000000176
 21
139.9802160000000129
 31
0.0
  0
LINE
  5
8A
  8
0
 10
320.0749569999999835
 20
140.5802160000000072
 30
0.0
 11
320.6749570000000062
 21
139.9802160000000129
 31
0.0
  0
LINE
  5
8B
  8
0
 10
320.0749569999999835
 20
141.9802160000000129
 30
0.0
 11
320.0749569999999835
 21
140.5802160000000072
 31
0.0
  0
LINE
  5
8C
  8
0
 10
309.0749569999999835
 20
142.9802160000000129
 30
0.0
 11
310.0749569999999835
 21
141.9802160000000129
 31
0.0
  0
LINE
  5
8D
  8
0
 10
309.0749569999999835
 20
159.9802160000000129
 30
0.0
 11
309.0749569999999835
 21
142.9802160000000129
 31
0.0
  0
LINE
  5
8E
  8
0
 10
311.0749569999999835
 20
161.9802160000000129
 30
0.0
 11
309.0749569999999835
 21
159.9802160000000129
 31
0.0
  0
LINE
  5
8F
  8
1
 10
304.0749569999999835
 20
153.4802160000000129
 30
0.0
 11
355.0749569999999835
 21
153.4802160000000129
 31
0.0
  0
CIRCLE
  5
90
  8
0
 10
329.5749569999999835
 20
153.4802160000000129
 30
0.0
 40
15.0
  0
LINE
  5
91
  8
0
 10
341.9341640000000098
 20
161.9802160000000129
 30
0.0
 11
348.0749569999999835
 21
161.9802160000000129
 31
0.0
  0
LINE
  5
92
  8
0
 10
316.0564509999999814
 20
159.9802160000000129
 30
0.0
 11
309.0749569999999835
 21
159.9802160000000129
 31
0.0
  0
LINE
  5
93
  8
0
 10
340.2871000000000095
 20
142.9802160000000129
 30
0.0
 11
350.0749569999999835
 21
142.9802160000000129
 31
0.0
  0
LINE
  5
94
  8
0
 10
339.2056370000000243
 20
141.9802160000000129
 30
0.0
 11
349.0749569999999835
 21
141.9802160000000129
 31
0.0
  0
LINE
  5
95
  8
0
 10
337.2293680000000222
 20
140.5802160000000072
 30
0.0
 11
339.0749569999999835
 21
140.5802160000000072
 31
0.0
  0
LINE
  5
96
  8
0
 10
336.1133050000000253
 20
139.9802160000000129
 30
0.0
 11
338.4749570000000176
 21
139.9802160000000129
 31
0.0
  0
LINE
  5
97
  8
0
 10
63.755746000000002
 20
159.9802160000000129
 30
0.0
 11
22.7557459999999985
 21
159.9802160000000129
 31
0.0
  0
ARC
  5
98
  8
0
 10
43.255746000000002
 20
153.4802160000000129
 30
0.0
 40
15.0
 50
34.518107999999998
 51
145.4818919999999878
  0
LINE
  5
99
  8
1
 10
17.7557459999999985
 20
153.4802160000000129
 30
0.0
 11
68.755746000000002
 21
153.4802160000000129
 31
0.0
  0
LINE
  5
9A
  8
0
 10
24.7557459999999985
 20
161.9802160000000129
 30
0.0
 11
22.7557459999999985
 21
159.9802160000000129
 31
0.0
  0
LINE
  5
9B
  8
0
 10
22.7557459999999985
 20
159.9802160000000129
 30
0.0
 11
22.7557459999999985
 21
142.9802160000000129
 31
0.0
  0
LINE
  5
9C
  8
0
 10
22.7557459999999985
 20
142.9802160000000129
 30
0.0
 11
23.7557459999999985
 21
141.9802160000000129
 31
0.0
  0
LINE
  5
9D
  8
0
 10
33.755746000000002
 20
141.9802160000000129
 30
0.0
 11
33.755746000000002
 21
140.5802160000000072
 31
0.0
  0
LINE
  5
9E
  8
0
 10
33.755746000000002
 20
140.5802160000000072
 30
0.0
 11
34.3557460000000106
 21
139.9802160000000129
 31
0.0
  0
LINE
  5
9F
  8
0
 10
52.7557459999999878
 20
140.5802160000000072
 30
0.0
 11
52.1557460000000006
 21
139.9802160000000129
 31
0.0
  0
LINE
  5
A0
  8
0
 10
52.7557459999999878
 20
141.9802160000000129
 30
0.0
 11
52.7557459999999878
 21
140.5802160000000072
 31
0.0
  0
LINE
  5
A1
  8
0
 10
63.755746000000002
 20
142.9802160000000129
 30
0.0
 11
62.7557459999999878
 21
141.9802160000000129
 31
0.0
  0
LINE
  5
A2
  8
0
 10
61.755746000000002
 20
161.9802160000000129
 30
0.0
 11
63.755746000000002
 21
159.9802160000000129
 31
0.0
  0
LINE
  5
A3
  8
0
 10
24.7557459999999985
 20
161.9802160000000129
 30
0.0
 11
61.755746000000002
 21
161.9802160000000129
 31
0.0
  0
LINE
  5
A4
  8
0
 10
22.7557459999999985
 20
142.9802160000000129
 30
0.0
 11
63.755746000000002
 21
142.9802160000000129
 31
0.0
  0
LINE
  5
A5
  8
0
 10
23.7557459999999985
 20
141.9802160000000129
 30
0.0
 11
62.7557459999999878
 21
141.9802160000000129
 31
0.0
  0
LINE
  5
A6
  8
0
 10
34.3557460000000106
 20
139.9802160000000129
 30
0.0
 11
52.1557460000000006
 21
139.9802160000000129
 31
0.0
  0
LINE
  5
A7
  8
0
 10
63.755746000000002
 20
159.9802160000000129
 30
0.0
 11
63.755746000000002
 21
142.9802160000000129
 31
0.0
  0
LINE
  5
A8
  8
1
 10
43.255746000000002
 20
173.4802160000000129
 30
0.0
 11
43.255746000000002
 21
84.9802159999999844
 31
0.0
  0
LINE
  5
A9
  8
0
 10
33.755746000000002
 20
140.5802160000000072
 30
0.0
 11
52.7557459999999878
 21
140.5802160000000072
 31
0.0
  0
LINE
  5
AA
  8
0
 10
39.255746000000002
 20
89.9802159999999844
 30
0.0
 11
47.255746000000002
 21
89.9802159999999844
 31
0.0
  0
LINE
  5
AB
  8
0
 10
37.255746000000002
 20
91.9802159999999986
 30
0.0
 11
49.255746000000002
 21
91.9802159999999986
 31
0.0
  0
LINE
  5
AC
  8
0
 10
37.255746000000002
 20
137.7399639999999863
 30
0.0
 11
49.255746000000002
 21
137.7399639999999863
 31
0.0
  0
LINE
  5
AD
  8
0
 10
39.255746000000002
 20
89.9802159999999844
 30
0.0
 11
37.255746000000002
 21
91.9802159999999986
 31
0.0
  0
LINE
  5
AE
  8
0
 10
37.255746000000002
 20
91.9802159999999986
 30
0.0
 11
37.255746000000002
 21
139.3802159999999901
 31
0.0
  0
ARC
  5
AF
  8
0
 10
36.6557460000000006
 20
139.3802159999999901
 30
0.0
 40
0.6
 50
0.0
 51
90.0
  0
LINE
  5
B0
  8
3
 10
37.255746000000002
 20
139.3802159999999901
 30
0.0
 11
38.2027460000000119
 21
137.7399639999999863
 31
0.0
  0
LINE
  5
B1
  8
3
 10
38.2027460000000119
 20
137.7399639999999863
 30
0.0
 11
38.2027460000000119
 21
91.0332160000000101
 31
0.0
  0
LINE
  5
B2
  8
3
 10
48.3087459999999993
 20
137.7399639999999863
 30
0.0
 11
48.3087459999999993
 21
91.0332160000000101
 31
0.0
  0
LINE
  5
B3
  8
3
 10
49.255746000000002
 20
139.3802159999999901
 30
0.0
 11
48.3087459999999993
 21
137.7399639999999863
 31
0.0
  0
ARC
  5
B4
  8
0
 10
49.8557460000000034
 20
139.3802159999999901
 30
0.0
 40
0.6
 50
90.0
 51
180.0
  0
LINE
  5
B5
  8
0
 10
49.255746000000002
 20
91.9802159999999986
 30
0.0
 11
49.255746000000002
 21
139.3802159999999901
 31
0.0
  0
LINE
  5
B6
  8
0
 10
47.255746000000002
 20
89.9802159999999844
 30
0.0
 11
49.255746000000002
 21
91.9802159999999986
 31
0.0
  0
LINE
  5
B7
  8
0
 10
339.0749569999999835
 20
141.9802160000000129
 30
0.0
 11
339.0749569999999835
 21
140.5802160000000072
 31
0.0
  0
LINE
  5
B8
  8
0
 10
339.0749569999999835
 20
140.5802160000000072
 30
0.0
 11
338.4749570000000176
 21
139.9802160000000129
 31
0.0
  0
LINE
  5
B9
  8
0
 10
325.5749569999999835
 20
89.9802159999999844
 30
0.0
 11
333.5749569999999835
 21
89.9802159999999844
 31
0.0
  0
LINE
  5
BA
  8
0
 10
323.5749569999999835
 20
91.9802159999999986
 30
0.0
 11
335.5749569999999835
 21
91.9802159999999986
 31
0.0
  0
LINE
  5
BB
  8
0
 10
323.5749569999999835
 20
137.7399639999999863
 30
0.0
 11
335.5749569999999835
 21
137.7399639999999863
 31
0.0
  0
LINE
  5
BC
  8
0
 10
325.5749569999999835
 20
89.9802159999999844
 30
0.0
 11
323.5749569999999835
 21
91.9802159999999986
 31
0.0
  0
LINE
  5
BD
  8
0
 10
323.5749569999999835
 20
91.9802159999999986
 30
0.0
 11
323.5749569999999835
 21
139.3802159999999901
 31
0.0
  0
LINE
  5
BE
  8
3
 10
323.5749569999999835
 20
139.3802159999999901
 30
0.0
 11
324.5219569999999862
 21
137.7399639999999863
 31
0.0
  0
LINE
  5
BF
  8
3
 10
324.5219569999999862
 20
137.7399639999999863
 30
0.0
 11
324.5219569999999862
 21
91.0332160000000101
 31
0.0
  0
LINE
  5
C0
  8
3
 10
334.6279569999999808
 20
137.7399639999999863
 30
0.0
 11
334.6279569999999808
 21
91.0332160000000101
 31
0.0
  0
LINE
  5
C1
  8
3
 10
335.5749569999999835
 20
139.3802159999999901
 30
0.0
 11
334.6279569999999808
 21
137.7399639999999863
 31
0.0
  0
ARC
  5
C2
  8
0
 10
336.1749570000000062
 20
139.3802159999999901
 30
0.0
 40
0.6
 50
90.0
 51
180.0
  0
LINE
  5
C3
  8
0
 10
335.5749569999999835
 20
91.9802159999999986
 30
0.0
 11
335.5749569999999835
 21
139.3802159999999901
 31
0.0
  0
LINE
  5
C4
  8
0
 10
333.5749569999999835
 20
89.9802159999999844
 30
0.0
 11
335.5749569999999835
 21
91.9802159999999986
 31
0.0
  0
ARC
  5
C5
  8
0
 10
322.9749570000000176
 20
139.3802159999999901
 30
0.0
 40
0.6
 50
0.0
 51
90.0
  0
TEXT
  5
1C3
  8
0
 62
     3
 10
0.0
 20
0.0
 30
0.0
 40
10.0
  1
FT12X50
  7
STANDARD1
  0
ENDSEC
  0
EOF
