  0
SECTION
  2
HEADER
  9
$ACADVER
  1
AC1009
  9
$INSBASE
 10
0.0
 20
0.0
 30
0.0
  9
$EXTMIN
 10
0.0
 20
-2.960436562073669
 30
0.0
  9
$EXTMAX
 10
352.3501630000000091
 20
259.9109710000000177
 30
0.0
  9
$LIMMIN
 10
0.0
 20
0.0
  9
$LIMMAX
 10
375.0
 20
270.0
  9
$ORTHOMODE
 70
     1
  9
$REGENMODE
 70
     1
  9
$FILLMODE
 70
     1
  9
$QTEXTMODE
 70
     0
  9
$MIRRTEXT
 70
     0
  9
$DRAGMODE
 70
     2
  9
$LTSCALE
 40
10.0
  9
$OSMODE
 70
    37
  9
$ATTMODE
 70
     1
  9
$TEXTSIZE
 40
0.2
  9
$TRACEWID
 40
0.05
  9
$TEXTSTYLE
  7
STANDARD
  9
$CLAYER
  8
0
  9
$CELTYPE
  6
BYLAYER
  9
$CECOLOR
 62
   256
  9
$DIMSCALE
 40
1.0
  9
$DIMASZ
 40
3.0
  9
$DIMEXO
 40
2.0
  9
$DIMDLI
 40
0.38
  9
$DIMRND
 40
0.0
  9
$DIMDLE
 40
0.0
  9
$DIMEXE
 40
2.0
  9
$DIMTP
 40
0.0
  9
$DIMTM
 40
0.0
  9
$DIMTXT
 40
3.2000000000000002
  9
$DIMCEN
 40
0.0
  9
$DIMTSZ
 40
0.0
  9
$DIMTOL
 70
     0
  9
$DIMLIM
 70
     0
  9
$DIMTIH
 70
     0
  9
$DIMTOH
 70
     0
  9
$DIMSE1
 70
     0
  9
$DIMSE2
 70
     0
  9
$DIMTAD
 70
     1
  9
$DIMZIN
 70
     0
  9
$DIMBLK
  1

  9
$DIMASO
 70
     0
  9
$DIMSHO
 70
     0
  9
$DIMPOST
  1

  9
$DIMAPOST
  1

  9
$DIMALT
 70
     0
  9
$DIMALTD
 70
     2
  9
$DIMALTF
 40
25.3999999999999986
  9
$DIMLFAC
 40
1.0
  9
$DIMTOFL
 70
     1
  9
$DIMTVP
 40
1.6000000000000001
  9
$DIMTIX
 70
     1
  9
$DIMSOXD
 70
     0
  9
$DIMSAH
 70
     0
  9
$DIMBLK1
  1

  9
$DIMBLK2
  1

  9
$DIMSTYLE
  2
STANDARD
  9
$DIMCLRD
 70
     0
  9
$DIMCLRE
 70
     0
  9
$DIMCLRT
 70
     0
  9
$DIMTFAC
 40
1.0
  9
$DIMGAP
 40
0.09
  9
$LUNITS
 70
     2
  9
$LUPREC
 70
     4
  9
$SKETCHINC
 40
0.1
  9
$FILLETRAD
 40
0.0
  9
$AUNITS
 70
     0
  9
$AUPREC
 70
     4
  9
$MENU
  1
E:\r13\win\SUPPORT\ACAD
  9
$ELEVATION
 40
0.0
  9
$PELEVATION
 40
0.0
  9
$THICKNESS
 40
0.0
  9
$LIMCHECK
 70
     0
  9
$BLIPMODE
 70
     0
  9
$CHAMFERA
 40
0.0
  9
$CHAMFERB
 40
0.0
  9
$SKPOLY
 70
     0
  9
$TDCREATE
 40
2449840.6173842591233552
  9
$TDUPDATE
 40
2460791.4915277780964971
  9
$TDINDWG
 40
0.0015831134
  9
$TDUSRTIMER
 40
0.0015831134
  9
$USRTIMER
 70
     1
  9
$ANGBASE
 50
0.0
  9
$ANGDIR
 70
     0
  9
$PDMODE
 70
     0
  9
$PDSIZE
 40
0.0
  9
$PLINEWID
 40
0.0
  9
$COORDS
 70
     1
  9
$SPLFRAME
 70
     0
  9
$SPLINETYPE
 70
     6
  9
$SPLINESEGS
 70
     8
  9
$ATTDIA
 70
     1
  9
$ATTREQ
 70
     1
  9
$HANDLING
 70
     1
  9
$HANDSEED
  5
2CB
  9
$SURFTAB1
 70
     6
  9
$SURFTAB2
 70
     6
  9
$SURFTYPE
 70
     6
  9
$SURFU
 70
     6
  9
$SURFV
 70
     6
  9
$UCSNAME
  2

  9
$UCSORG
 10
0.0
 20
0.0
 30
0.0
  9
$UCSXDIR
 10
1.0
 20
0.0
 30
0.0
  9
$UCSYDIR
 10
0.0
 20
1.0
 30
0.0
  9
$PUCSNAME
  2

  9
$PUCSORG
 10
0.0
 20
0.0
 30
0.0
  9
$PUCSXDIR
 10
1.0
 20
0.0
 30
0.0
  9
$PUCSYDIR
 10
0.0
 20
1.0
 30
0.0
  9
$USERI1
 70
     0
  9
$USERI2
 70
     1
  9
$USERI3
 70
     0
  9
$USERI4
 70
     0
  9
$USERI5
 70
     0
  9
$USERR1
 40
0.0
  9
$USERR2
 40
0.0
  9
$USERR3
 40
0.0
  9
$USERR4
 40
0.0
  9
$USERR5
 40
0.0
  9
$WORLDVIEW
 70
     1
  9
$SHADEDGE
 70
     3
  9
$SHADEDIF
 70
    70
  9
$TILEMODE
 70
     1
  9
$MAXACTVP
 70
    16
  9
$PLIMCHECK
 70
     0
  9
$PEXTMIN
 10
1.0000000000000000E+20
 20
1.0000000000000000E+20
 30
1.0000000000000000E+20
  9
$PEXTMAX
 10
-1.0000000000000000E+20
 20
-1.0000000000000000E+20
 30
-1.0000000000000000E+20
  9
$PLIMMIN
 10
0.0
 20
0.0
  9
$PLIMMAX
 10
12.0
 20
9.0
  9
$UNITMODE
 70
     0
  9
$VISRETAIN
 70
     0
  9
$PLINEGEN
 70
     0
  9
$PSLTSCALE
 70
     0
  0
ENDSEC
  0
SECTION
  2
TABLES
  0
TABLE
  2
VPORT
 70
     1
  0
VPORT
  2
*ACTIVE
 70
     0
 10
0.0
 20
0.0
 11
1.0
 21
1.0
 12
317.050492610837523
 22
135.4775424392321952
 13
0.0
 23
0.0
 14
10.0
 24
10.0
 15
10.0
 25
10.0
 16
0.0
 26
0.0
 36
1.0
 17
0.0
 27
0.0
 37
0.0
 40
270.9550848784645041
 41
2.340243902439024
 42
50.0
 43
0.0
 44
0.0
 50
0.0
 51
0.0
 71
     0
 72
   100
 73
     1
 74
     0
 75
     0
 76
     0
 77
     0
 78
     2
  0
ENDTAB
  0
TABLE
  2
LTYPE
 70
     2
  0
LTYPE
  2
CONTINUOUS
 70
     0
  3
Solid Line
 72
    65
 73
     0
 40
0.0
  0
LTYPE
  2
CENTER
 70
     0
  3
____ _ ____ _ ____ _ ____ _ ____ _ ____ _ ____
 72
    65
 73
     4
 40
2.0
 49
1.25
 49
-0.25
 49
0.25
 49
-0.25
  0
ENDTAB
  0
TABLE
  2
LAYER
 70
     3
  0
LAYER
  2
0
 70
     0
 62
     7
  6
CONTINUOUS
  0
LAYER
  2
1
 70
     0
 62
     1
  6
CENTER
  0
LAYER
  2
3
 70
     0
 62
     3
  6
CONTINUOUS
  0
ENDTAB
  0
TABLE
  2
STYLE
 70
     3
  0
STYLE
  2
STANDARD
 70
     0
 40
0.0
 41
1.0
 50
0.0
 71
     0
 42
0.2
  3
TXT
  4
BIGFONT
  0
STYLE
  2
COMPLEX
 70
     0
 40
3.5
 41
0.4
 50
0.0
 71
     0
 42
3.0
  3
COMPLEX
  4

  0
STYLE
  2
STANDARD1
 70
     0
 40
0.0
 41
1.0
 50
0.0
 71
     0
 42
3.0
  3
txt
  4

  0
ENDTAB
  0
TABLE
  2
VIEW
 70
     1
  0
VIEW
  2
ALL
 70
     0
 40
270.0
 10
220.9915970000000129
 20
135.0
 41
0.0
 11
0.0
 21
0.0
 31
1.0
 12
0.0
 22
0.0
 32
0.0
 42
0.0
 43
0.0
 44
0.0
 50
0.0
 71
     0
  0
ENDTAB
  0
TABLE
  2
UCS
 70
     0
  0
ENDTAB
  0
TABLE
  2
APPID
 70
     4
  0
APPID
  2
ACAD
 70
     0
  0
APPID
  2
ACAD_MLEADERVER
 70
     0
  0
APPID
  2
ACAD_EXEMPT_FROM_CAD_STANDARDS
 70
     0
  0
APPID
  2
ACAD_NAV_VCDISPLAY
 70
     0
  0
ENDTAB
  0
TABLE
  2
DIMSTYLE
 70
     1
  0
DIMSTYLE
  2
STANDARD
 70
     0
  3

  4

  5

  6

  7

 40
1.0
 41
0.18
 42
0.0625
 43
0.38
 44
0.18
 45
0.0
 46
0.0
 47
0.0
 48
0.0
140
0.18
141
0.09
142
0.0
143
25.3999999999999986
144
1.0
145
0.0
146
1.0
147
0.09
 71
     0
 72
     0
 73
     1
 74
     1
 75
     0
 76
     0
 77
     0
 78
     0
170
     0
171
     2
172
     0
173
     0
174
     0
175
     0
176
     0
177
     0
178
     0
  0
ENDTAB
  0
ENDSEC
  0
SECTION
  2
BLOCKS
  0
BLOCK
  8
0
  2
$MODEL_SPACE
 70
     0
 10
0.0
 20
0.0
 30
0.0
  3
$MODEL_SPACE
  1

  0
ENDBLK
  5
100
  8
0
  0
BLOCK
 67
     1
  8
0
  2
$PAPER_SPACE
 70
     0
 10
0.0
 20
0.0
 30
0.0
  3
$PAPER_SPACE
  1

  0
ENDBLK
  5
FE
 67
     1
  8
0
  0
ENDSEC
  0
SECTION
  2
ENTITIES
  0
LINE
  5
35
  8
0
 10
127.0976100000000031
 20
99.9937050000000056
 30
0.0
 11
129.0976100000000031
 21
101.9937050000000056
 31
0.0
  0
LINE
  5
36
  8
0
 10
129.0976100000000031
 20
101.9937050000000056
 30
0.0
 11
129.0976100000000031
 21
139.3937050000000113
 31
0.0
  0
ARC
  5
37
  8
0
 10
129.6976099999999974
 20
139.3937050000000113
 30
0.0
 40
0.6
 50
90.0
 51
180.0
  0
LINE
  5
38
  8
3
 10
129.0976100000000031
 20
139.3937050000000113
 30
0.0
 11
128.1506100000000004
 21
137.7534530000000075
 31
0.0
  0
LINE
  5
39
  8
3
 10
128.1506100000000004
 20
137.7534530000000075
 30
0.0
 11
128.1506100000000004
 21
101.0467050000000029
 31
0.0
  0
LINE
  5
3A
  8
3
 10
118.0446100000000058
 20
137.7534530000000075
 30
0.0
 11
118.0446100000000058
 21
101.0467050000000029
 31
0.0
  0
LINE
  5
3B
  8
3
 10
117.0976100000000031
 20
139.3937050000000113
 30
0.0
 11
118.0446100000000058
 21
137.7534530000000075
 31
0.0
  0
ARC
  5
3C
  8
0
 10
116.4976099999999946
 20
139.3937050000000113
 30
0.0
 40
0.6
 50
0.0
 51
90.0
  0
LINE
  5
3D
  8
0
 10
117.0976100000000031
 20
101.9937050000000056
 30
0.0
 11
117.0976100000000031
 21
139.3937050000000113
 31
0.0
  0
LINE
  5
3E
  8
0
 10
119.0976100000000031
 20
99.9937050000000056
 30
0.0
 11
117.0976100000000031
 21
101.9937050000000056
 31
0.0
  0
LINE
  5
3F
  8
0
 10
117.0976100000000031
 20
137.7534530000000075
 30
0.0
 11
129.0976100000000031
 21
137.7534530000000075
 31
0.0
  0
LINE
  5
40
  8
0
 10
117.0976100000000031
 20
101.9937050000000056
 30
0.0
 11
129.0976100000000031
 21
101.9937050000000056
 31
0.0
  0
LINE
  5
41
  8
0
 10
119.0976100000000031
 20
99.9937050000000056
 30
0.0
 11
127.0976100000000031
 21
99.9937050000000056
 31
0.0
  0
CIRCLE
  5
42
  8
0
 10
123.0976100000000031
 20
234.4109709999999893
 30
0.0
 40
20.5
  0
LINE
  5
43
  8
1
 10
97.5976100000000031
 20
234.4109709999999893
 30
0.0
 11
274.0976100000000883
 21
234.4109709999999893
 31
0.0
  0
LINE
  5
44
  8
1
 10
254.0976100000000031
 20
254.4109709999999893
 30
0.0
 11
254.0976100000000031
 21
214.4109709999999893
 31
0.0
  0
LINE
  5
45
  8
1
 10
123.0976100000000031
 20
259.9109710000000177
 30
0.0
 11
123.0976100000000031
 21
208.9109709999999893
 31
0.0
  0
ARC
  5
46
  8
0
 10
254.0976100000000031
 20
234.4109709999999893
 30
0.0
 40
15.0
 50
209.9264349999999979
 51
150.0735650000000021
  0
LINE
  5
47
  8
0
 10
241.0976100000000031
 20
241.8942859999999939
 30
0.0
 11
241.0976100000000031
 21
226.9276560000000131
 31
0.0
  0
CIRCLE
  5
48
  8
0
 10
123.0976100000000031
 20
234.4109709999999893
 30
0.0
 40
18.5
  0
CIRCLE
  5
49
  8
0
 10
123.0976100000000031
 20
234.4109709999999893
 30
0.0
 40
11.0
  0
CIRCLE
  5
4A
  8
0
 10
123.0976100000000031
 20
234.4109709999999893
 30
0.0
 40
7.5
  0
TEXT
  5
4F
  8
0
 10
120.7642766666666034
 20
232.9109709999999893
 30
0.0
 40
3.5
  1
Kipp
 41
0.4
  7
COMPLEX
 72
     1
 11
123.0976100000000031
 21
232.9109709999999893
 31
0.0
  0
LINE
  5
56
  8
0
 10
142.6999059999999986
 20
240.4109709999999893
 30
0.0
 11
241.0976100000000031
 21
240.4109709999999893
 31
0.0
  0
LINE
  5
57
  8
0
 10
241.0976100000000031
 20
228.4109709999999893
 30
0.0
 11
142.6999059999999986
 21
228.4109709999999893
 31
0.0
  0
LINE
  5
58
  8
0
 10
241.0976100000000031
 20
147.4937050000000056
 30
0.0
 11
143.5976100000000031
 21
147.4937050000000056
 31
0.0
  0
LINE
  5
59
  8
0
 10
143.5976100000000031
 20
159.4937050000000056
 30
0.0
 11
241.0976100000000031
 21
159.4937050000000056
 31
0.0
  0
LINE
  5
5A
  8
0
 10
241.0976100000000031
 20
160.9770199999998965
 30
0.0
 11
241.0976100000000031
 21
146.010390000000001
 31
0.0
  0
ARC
  5
5B
  8
0
 10
254.0976100000000031
 20
153.4937050000000056
 30
0.0
 40
15.0
 50
209.9264349999999979
 51
150.0735650000000021
  0
LINE
  5
5C
  8
1
 10
254.0976100000000031
 20
173.4937050000000056
 30
0.0
 11
254.0976100000000031
 21
133.4937050000000056
 31
0.0
  0
LINE
  5
5D
  8
1
 10
97.5976100000000031
 20
153.4937050000000056
 30
0.0
 11
274.0976100000000883
 21
153.4937050000000056
 31
0.0
  0
LINE
  5
5E
  8
0
 10
104.5976100000000031
 20
161.9937050000000056
 30
0.0
 11
102.5976100000000031
 21
159.9937050000000056
 31
0.0
  0
LINE
  5
5F
  8
0
 10
102.5976100000000031
 20
159.9937050000000056
 30
0.0
 11
102.5976100000000031
 21
142.9937050000000056
 31
0.0
  0
LINE
  5
60
  8
0
 10
102.5976100000000031
 20
142.9937050000000056
 30
0.0
 11
103.5976100000000031
 21
141.9937050000000056
 31
0.0
  0
LINE
  5
61
  8
0
 10
113.5976100000000031
 20
141.9937050000000056
 30
0.0
 11
113.5976100000000031
 21
140.5937049999999999
 31
0.0
  0
LINE
  5
62
  8
0
 10
113.5976100000000031
 20
140.5937049999999999
 30
0.0
 11
114.1976099999999974
 21
139.9937050000000056
 31
0.0
  0
LINE
  5
63
  8
0
 10
132.5976100000000031
 20
140.5937049999999999
 30
0.0
 11
131.9976100000000088
 21
139.9937050000000056
 31
0.0
  0
LINE
  5
64
  8
0
 10
132.5976100000000031
 20
141.9937050000000056
 30
0.0
 11
132.5976100000000031
 21
140.5937049999999999
 31
0.0
  0
LINE
  5
65
  8
0
 10
143.5976100000000031
 20
142.9937050000000056
 30
0.0
 11
142.5976100000000031
 21
141.9937050000000056
 31
0.0
  0
LINE
  5
66
  8
0
 10
143.5976100000000031
 20
159.9937050000000056
 30
0.0
 11
143.5976100000000031
 21
159.4937050000000056
 31
0.0
  0
LINE
  5
67
  8
0
 10
141.5976100000000031
 20
161.9937050000000056
 30
0.0
 11
143.5976100000000031
 21
159.9937050000000056
 31
0.0
  0
LINE
  5
68
  8
0
 10
104.5976100000000031
 20
161.9937050000000056
 30
0.0
 11
141.5976100000000031
 21
161.9937050000000056
 31
0.0
  0
LINE
  5
69
  8
0
 10
143.5976100000000031
 20
159.9937050000000056
 30
0.0
 11
102.5976100000000031
 21
159.9937050000000056
 31
0.0
  0
LINE
  5
6A
  8
0
 10
102.5976100000000031
 20
142.9937050000000056
 30
0.0
 11
143.5976100000000031
 21
142.9937050000000056
 31
0.0
  0
LINE
  5
6B
  8
0
 10
103.5976100000000031
 20
141.9937050000000056
 30
0.0
 11
142.5976100000000031
 21
141.9937050000000056
 31
0.0
  0
LINE
  5
6C
  8
0
 10
114.1976099999999974
 20
139.9937050000000056
 30
0.0
 11
131.9976100000000088
 21
139.9937050000000056
 31
0.0
  0
ARC
  5
6D
  8
0
 10
163.1999059999999986
 20
153.4937050000000056
 30
0.0
 40
20.5
 50
162.9813530000000128
 51
197.0186469999999872
  0
LINE
  5
6E
  8
0
 10
143.5976100000000031
 20
147.4937050000000056
 30
0.0
 11
143.5976100000000031
 21
142.9937050000000056
 31
0.0
  0
LINE
  5
6F
  8
1
 10
123.0976100000000031
 20
166.9937050000000056
 30
0.0
 11
123.0976100000000031
 21
94.9937050000000056
 31
0.0
  0
LINE
  5
70
  8
0
 10
113.5976100000000031
 20
140.5937049999999999
 30
0.0
 11
132.5976100000000031
 21
140.5937049999999999
 31
0.0
  0
LINE
  5
71
  8
0
 10
241.0976100000000031
 20
30.5512590000000017
 30
0.0
 11
142.6999059999999986
 21
30.5512590000000017
 31
0.0
  0
LINE
  5
72
  8
0
 10
142.6999059999999986
 20
42.5512590000000017
 30
0.0
 11
241.0976100000000031
 21
42.5512590000000017
 31
0.0
  0
LINE
  5
73
  8
0
 10
241.0976100000000031
 20
44.0345739999999921
 30
0.0
 11
241.0976100000000031
 21
29.0679440000000007
 31
0.0
  0
ARC
  5
74
  8
0
 10
254.0976100000000031
 20
36.5512590000000017
 30
0.0
 40
15.0
 50
209.9264349999999979
 51
150.0735650000000021
  0
LINE
  5
75
  8
1
 10
123.0976100000000031
 20
62.0512589999999875
 30
0.0
 11
123.0976100000000031
 21
11.0512589999999999
 31
0.0
  0
LINE
  5
76
  8
1
 10
254.0976100000000031
 20
56.5512589999999875
 30
0.0
 11
254.0976100000000031
 21
16.5512589999999911
 31
0.0
  0
LINE
  5
77
  8
1
 10
97.5976100000000031
 20
36.5512590000000017
 30
0.0
 11
274.0976100000000883
 21
36.5512590000000017
 31
0.0
  0
CIRCLE
  5
78
  8
0
 10
123.0976100000000031
 20
36.5512590000000017
 30
0.0
 40
20.5
  0
CIRCLE
  5
79
  8
0
 10
123.0976100000000031
 20
36.5512590000000017
 30
0.0
 40
19.5
  0
CIRCLE
  5
7A
  8
0
 10
123.0976100000000031
 20
36.5512590000000017
 30
0.0
 40
9.5
  0
CIRCLE
  5
7B
  8
0
 10
123.0976100000000031
 20
36.5512590000000017
 30
0.0
 40
8.9000000000000004
  0
CIRCLE
  5
7C
  8
0
 10
123.0976100000000031
 20
36.5512590000000017
 30
0.0
 40
6.0
  0
CIRCLE
  5
7D
  8
3
 10
123.0976100000000031
 20
36.5512590000000017
 30
0.0
 40
5.052999999999999
  0
LINE
  5
7E
  8
0
 10
317.3501630000000091
 20
140.5937049999999999
 30
0.0
 11
319.1957520000000272
 21
140.5937049999999999
 31
0.0
  0
LINE
  5
7F
  8
1
 10
326.8501630000000091
 20
173.4937050000000056
 30
0.0
 11
326.8501630000000091
 21
94.9937050000000056
 31
0.0
  0
LINE
  5
80
  8
0
 10
347.3501630000000091
 20
159.9937050000000056
 30
0.0
 11
347.3501630000000091
 21
142.9937050000000056
 31
0.0
  0
LINE
  5
81
  8
0
 10
317.950162999999975
 20
139.9937050000000056
 30
0.0
 11
320.3118140000000267
 21
139.9937050000000056
 31
0.0
  0
LINE
  5
82
  8
0
 10
307.3501630000000091
 20
141.9937050000000056
 30
0.0
 11
317.2194830000000252
 21
141.9937050000000056
 31
0.0
  0
LINE
  5
83
  8
0
 10
306.3501630000000091
 20
142.9937050000000056
 30
0.0
 11
316.1380199999999832
 21
142.9937050000000056
 31
0.0
  0
LINE
  5
84
  8
0
 10
347.3501630000000091
 20
159.9937050000000056
 30
0.0
 11
340.3686690000000112
 21
159.9937050000000056
 31
0.0
  0
LINE
  5
85
  8
0
 10
308.3501630000000091
 20
161.9937050000000056
 30
0.0
 11
314.4909559999999829
 21
161.9937050000000056
 31
0.0
  0
LINE
  5
86
  8
0
 10
345.3501630000000091
 20
161.9937050000000056
 30
0.0
 11
347.3501630000000091
 21
159.9937050000000056
 31
0.0
  0
LINE
  5
87
  8
0
 10
347.3501630000000091
 20
142.9937050000000056
 30
0.0
 11
346.3501630000000091
 21
141.9937050000000056
 31
0.0
  0
LINE
  5
88
  8
0
 10
336.3501630000000091
 20
141.9937050000000056
 30
0.0
 11
336.3501630000000091
 21
140.5937049999999999
 31
0.0
  0
LINE
  5
89
  8
0
 10
336.3501630000000091
 20
140.5937049999999999
 30
0.0
 11
335.7501629999999864
 21
139.9937050000000056
 31
0.0
  0
LINE
  5
8A
  8
0
 10
317.3501630000000091
 20
140.5937049999999999
 30
0.0
 11
317.950162999999975
 21
139.9937050000000056
 31
0.0
  0
LINE
  5
8B
  8
0
 10
317.3501630000000091
 20
141.9937050000000056
 30
0.0
 11
317.3501630000000091
 21
140.5937049999999999
 31
0.0
  0
LINE
  5
8C
  8
0
 10
306.3501630000000091
 20
142.9937050000000056
 30
0.0
 11
307.3501630000000091
 21
141.9937050000000056
 31
0.0
  0
LINE
  5
8D
  8
0
 10
306.3501630000000091
 20
159.9937050000000056
 30
0.0
 11
306.3501630000000091
 21
142.9937050000000056
 31
0.0
  0
LINE
  5
8E
  8
0
 10
308.3501630000000091
 20
161.9937050000000056
 30
0.0
 11
306.3501630000000091
 21
159.9937050000000056
 31
0.0
  0
LINE
  5
8F
  8
1
 10
301.3501630000000091
 20
153.4937050000000056
 30
0.0
 11
352.3501630000000091
 21
153.4937050000000056
 31
0.0
  0
CIRCLE
  5
90
  8
0
 10
326.8501630000000091
 20
153.4937050000000056
 30
0.0
 40
15.0
  0
LINE
  5
91
  8
0
 10
339.2093699999999785
 20
161.9937050000000056
 30
0.0
 11
345.3501630000000091
 21
161.9937050000000056
 31
0.0
  0
LINE
  5
92
  8
0
 10
313.331657000000007
 20
159.9937050000000056
 30
0.0
 11
306.3501630000000091
 21
159.9937050000000056
 31
0.0
  0
LINE
  5
93
  8
0
 10
337.5623059999999782
 20
142.9937050000000056
 30
0.0
 11
347.3501630000000091
 21
142.9937050000000056
 31
0.0
  0
LINE
  5
94
  8
0
 10
336.480842999999993
 20
141.9937050000000056
 30
0.0
 11
346.3501630000000091
 21
141.9937050000000056
 31
0.0
  0
LINE
  5
95
  8
0
 10
334.5045729999999935
 20
140.5937049999999999
 30
0.0
 11
336.3501630000000091
 21
140.5937049999999999
 31
0.0
  0
LINE
  5
96
  8
0
 10
333.3885109999999941
 20
139.9937050000000056
 30
0.0
 11
335.7501629999999864
 21
139.9937050000000056
 31
0.0
  0
LINE
  5
97
  8
0
 10
68.2880770000000012
 20
159.9937050000000056
 30
0.0
 11
27.2880770000000012
 21
159.9937050000000056
 31
0.0
  0
ARC
  5
98
  8
0
 10
47.7880770000000012
 20
153.4937050000000056
 30
0.0
 40
15.0
 50
34.518107999999998
 51
145.4818919999999878
  0
LINE
  5
99
  8
1
 10
22.2880770000000012
 20
153.4937050000000056
 30
0.0
 11
73.2880770000000012
 21
153.4937050000000056
 31
0.0
  0
LINE
  5
9A
  8
0
 10
29.2880770000000012
 20
161.9937050000000056
 30
0.0
 11
27.2880770000000012
 21
159.9937050000000056
 31
0.0
  0
LINE
  5
9B
  8
0
 10
27.2880770000000012
 20
159.9937050000000056
 30
0.0
 11
27.2880770000000012
 21
142.9937050000000056
 31
0.0
  0
LINE
  5
9C
  8
0
 10
27.2880770000000012
 20
142.9937050000000056
 30
0.0
 11
28.2880770000000012
 21
141.9937050000000056
 31
0.0
  0
LINE
  5
9D
  8
0
 10
38.2880770000000012
 20
141.9937050000000056
 30
0.0
 11
38.2880770000000012
 21
140.5937049999999999
 31
0.0
  0
LINE
  5
9E
  8
0
 10
38.2880770000000012
 20
140.5937049999999999
 30
0.0
 11
38.8880770000000027
 21
139.9937050000000056
 31
0.0
  0
LINE
  5
9F
  8
0
 10
57.2880770000000012
 20
140.5937049999999999
 30
0.0
 11
56.6880769999999998
 21
139.9937050000000056
 31
0.0
  0
LINE
  5
A0
  8
0
 10
57.2880770000000012
 20
141.9937050000000056
 30
0.0
 11
57.2880770000000012
 21
140.5937049999999999
 31
0.0
  0
LINE
  5
A1
  8
0
 10
68.2880770000000012
 20
142.9937050000000056
 30
0.0
 11
67.2880770000000012
 21
141.9937050000000056
 31
0.0
  0
LINE
  5
A2
  8
0
 10
66.2880770000000012
 20
161.9937050000000056
 30
0.0
 11
68.2880770000000012
 21
159.9937050000000056
 31
0.0
  0
LINE
  5
A3
  8
0
 10
29.2880770000000012
 20
161.9937050000000056
 30
0.0
 11
66.2880770000000012
 21
161.9937050000000056
 31
0.0
  0
LINE
  5
A4
  8
0
 10
27.2880770000000012
 20
142.9937050000000056
 30
0.0
 11
68.2880770000000012
 21
142.9937050000000056
 31
0.0
  0
LINE
  5
A5
  8
0
 10
28.2880770000000012
 20
141.9937050000000056
 30
0.0
 11
67.2880770000000012
 21
141.9937050000000056
 31
0.0
  0
LINE
  5
A6
  8
0
 10
38.8880770000000027
 20
139.9937050000000056
 30
0.0
 11
56.6880769999999998
 21
139.9937050000000056
 31
0.0
  0
LINE
  5
A7
  8
0
 10
68.2880770000000012
 20
159.9937050000000056
 30
0.0
 11
68.2880770000000012
 21
142.9937050000000056
 31
0.0
  0
LINE
  5
A8
  8
1
 10
47.7880770000000012
 20
173.4937050000000056
 30
0.0
 11
47.7880770000000012
 21
94.9937050000000056
 31
0.0
  0
LINE
  5
A9
  8
0
 10
38.2880770000000012
 20
140.5937049999999999
 30
0.0
 11
57.2880770000000012
 21
140.5937049999999999
 31
0.0
  0
LINE
  5
AA
  8
0
 10
43.7880770000000012
 20
99.9937050000000056
 30
0.0
 11
51.7880770000000012
 21
99.9937050000000056
 31
0.0
  0
LINE
  5
AB
  8
0
 10
41.7880770000000012
 20
101.9937050000000056
 30
0.0
 11
53.7880770000000012
 21
101.9937050000000056
 31
0.0
  0
LINE
  5
AC
  8
0
 10
41.7880770000000012
 20
137.7534530000000075
 30
0.0
 11
53.7880770000000012
 21
137.7534530000000075
 31
0.0
  0
LINE
  5
AD
  8
0
 10
43.7880770000000012
 20
99.9937050000000056
 30
0.0
 11
41.7880770000000012
 21
101.9937050000000056
 31
0.0
  0
LINE
  5
AE
  8
0
 10
41.7880770000000012
 20
101.9937050000000056
 30
0.0
 11
41.7880770000000012
 21
139.3937050000000113
 31
0.0
  0
ARC
  5
AF
  8
0
 10
41.1880769999999998
 20
139.3937050000000113
 30
0.0
 40
0.6
 50
0.0
 51
90.0
  0
LINE
  5
B0
  8
3
 10
41.7880770000000012
 20
139.3937050000000113
 30
0.0
 11
42.7350769999999969
 21
137.7534530000000075
 31
0.0
  0
LINE
  5
B1
  8
3
 10
42.7350769999999969
 20
137.7534530000000075
 30
0.0
 11
42.7350769999999969
 21
101.0467050000000029
 31
0.0
  0
LINE
  5
B2
  8
3
 10
52.8410769999999914
 20
137.7534530000000075
 30
0.0
 11
52.8410769999999914
 21
101.0467050000000029
 31
0.0
  0
LINE
  5
B3
  8
3
 10
53.7880770000000012
 20
139.3937050000000113
 30
0.0
 11
52.8410769999999914
 21
137.7534530000000075
 31
0.0
  0
ARC
  5
B4
  8
0
 10
54.3880770000000027
 20
139.3937050000000113
 30
0.0
 40
0.6
 50
90.0
 51
180.0
  0
LINE
  5
B5
  8
0
 10
53.7880770000000012
 20
101.9937050000000056
 30
0.0
 11
53.7880770000000012
 21
139.3937050000000113
 31
0.0
  0
LINE
  5
B6
  8
0
 10
51.7880770000000012
 20
99.9937050000000056
 30
0.0
 11
53.7880770000000012
 21
101.9937050000000056
 31
0.0
  0
LINE
  5
B7
  8
0
 10
322.8501630000000091
 20
99.9937050000000056
 30
0.0
 11
330.8501630000000091
 21
99.9937050000000056
 31
0.0
  0
LINE
  5
B8
  8
0
 10
320.8501630000000091
 20
101.9937050000000056
 30
0.0
 11
332.8501630000000091
 21
101.9937050000000056
 31
0.0
  0
LINE
  5
B9
  8
0
 10
320.8501630000000091
 20
137.7534530000000075
 30
0.0
 11
332.8501630000000091
 21
137.7534530000000075
 31
0.0
  0
LINE
  5
BA
  8
0
 10
322.8501630000000091
 20
99.9937050000000056
 30
0.0
 11
320.8501630000000091
 21
101.9937050000000056
 31
0.0
  0
LINE
  5
BB
  8
0
 10
320.8501630000000091
 20
101.9937050000000056
 30
0.0
 11
320.8501630000000091
 21
139.3937050000000113
 31
0.0
  0
LINE
  5
BC
  8
3
 10
320.8501630000000091
 20
139.3937050000000113
 30
0.0
 11
321.7971630000000118
 21
137.7534530000000075
 31
0.0
  0
LINE
  5
BD
  8
3
 10
321.7971630000000118
 20
137.7534530000000075
 30
0.0
 11
321.7971630000000118
 21
101.0467050000000029
 31
0.0
  0
LINE
  5
BE
  8
3
 10
331.9031630000000064
 20
137.7534530000000075
 30
0.0
 11
331.9031630000000064
 21
101.0467050000000029
 31
0.0
  0
LINE
  5
BF
  8
3
 10
332.8501630000000091
 20
139.3937050000000113
 30
0.0
 11
331.9031630000000064
 21
137.7534530000000075
 31
0.0
  0
ARC
  5
C0
  8
0
 10
333.450162999999975
 20
139.3937050000000113
 30
0.0
 40
0.6
 50
90.0
 51
180.0
  0
LINE
  5
C1
  8
0
 10
332.8501630000000091
 20
101.9937050000000056
 30
0.0
 11
332.8501630000000091
 21
139.3937050000000113
 31
0.0
  0
LINE
  5
C2
  8
0
 10
330.8501630000000091
 20
99.9937050000000056
 30
0.0
 11
332.8501630000000091
 21
101.9937050000000056
 31
0.0
  0
ARC
  5
C3
  8
0
 10
320.2501629999999864
 20
139.3937050000000113
 30
0.0
 40
0.6
 50
0.0
 51
90.0
  0
TEXT
  5
1C1
  8
0
 62
     3
 10
0.0
 20
0.0
 30
0.0
 40
10.0
  1
FT12X40
  7
STANDARD1
  0
ENDSEC
  0
EOF
