  0
SECTION
  2
HEADER
  9
$ACADVER
  1
AC1009
  9
$INSBASE
 10
0.0
 20
0.0
 30
0.0
  9
$EXTMIN
 10
0.0
 20
-2.960436562073669
 30
0.0
  9
$EXTMAX
 10
353.7576189999999769
 20
262.1366909999999848
 30
0.0
  9
$LIMMIN
 10
0.0
 20
0.0
  9
$LIMMAX
 10
375.0
 20
270.0
  9
$ORTHOMODE
 70
     1
  9
$REGENMODE
 70
     1
  9
$FILLMODE
 70
     1
  9
$QTEXTMODE
 70
     0
  9
$MIRRTEXT
 70
     0
  9
$DRAGMODE
 70
     2
  9
$LTSCALE
 40
10.0
  9
$OSMODE
 70
    37
  9
$ATTMODE
 70
     1
  9
$TEXTSIZE
 40
0.2
  9
$TRACEWID
 40
0.05
  9
$TEXTSTYLE
  7
STANDARD
  9
$CLAYER
  8
0
  9
$CELTYPE
  6
BYLAYER
  9
$CECOLOR
 62
   256
  9
$DIMSCALE
 40
1.0
  9
$DIMASZ
 40
3.0
  9
$DIMEXO
 40
2.0
  9
$DIMDLI
 40
0.38
  9
$DIMRND
 40
0.0
  9
$DIMDLE
 40
0.0
  9
$DIMEXE
 40
2.0
  9
$DIMTP
 40
0.0
  9
$DIMTM
 40
0.0
  9
$DIMTXT
 40
3.2000000000000002
  9
$DIMCEN
 40
0.0
  9
$DIMTSZ
 40
0.0
  9
$DIMTOL
 70
     0
  9
$DIMLIM
 70
     0
  9
$DIMTIH
 70
     0
  9
$DIMTOH
 70
     0
  9
$DIMSE1
 70
     0
  9
$DIMSE2
 70
     0
  9
$DIMTAD
 70
     1
  9
$DIMZIN
 70
     0
  9
$DIMBLK
  1

  9
$DIMASO
 70
     0
  9
$DIMSHO
 70
     0
  9
$DIMPOST
  1

  9
$DIMAPOST
  1

  9
$DIMALT
 70
     0
  9
$DIMALTD
 70
     2
  9
$DIMALTF
 40
25.3999999999999986
  9
$DIMLFAC
 40
1.0
  9
$DIMTOFL
 70
     1
  9
$DIMTVP
 40
1.6000000000000001
  9
$DIMTIX
 70
     1
  9
$DIMSOXD
 70
     0
  9
$DIMSAH
 70
     0
  9
$DIMBLK1
  1

  9
$DIMBLK2
  1

  9
$DIMSTYLE
  2
STANDARD
  9
$DIMCLRD
 70
     0
  9
$DIMCLRE
 70
     0
  9
$DIMCLRT
 70
     0
  9
$DIMTFAC
 40
1.0
  9
$DIMGAP
 40
0.09
  9
$LUNITS
 70
     2
  9
$LUPREC
 70
     4
  9
$SKETCHINC
 40
0.1
  9
$FILLETRAD
 40
0.0
  9
$AUNITS
 70
     0
  9
$AUPREC
 70
     4
  9
$MENU
  1
E:\r13\win\SUPPORT\ACAD
  9
$ELEVATION
 40
0.0
  9
$PELEVATION
 40
0.0
  9
$THICKNESS
 40
0.0
  9
$LIMCHECK
 70
     0
  9
$BLIPMODE
 70
     0
  9
$CHAMFERA
 40
0.0
  9
$CHAMFERB
 40
0.0
  9
$SKPOLY
 70
     0
  9
$TDCREATE
 40
2449840.617326389066875
  9
$TDUPDATE
 40
2460791.491493056062609
  9
$TDINDWG
 40
0.0018965162
  9
$TDUSRTIMER
 40
0.0018965162
  9
$USRTIMER
 70
     1
  9
$ANGBASE
 50
0.0
  9
$ANGDIR
 70
     0
  9
$PDMODE
 70
     0
  9
$PDSIZE
 40
0.0
  9
$PLINEWID
 40
0.0
  9
$COORDS
 70
     1
  9
$SPLFRAME
 70
     0
  9
$SPLINETYPE
 70
     6
  9
$SPLINESEGS
 70
     8
  9
$ATTDIA
 70
     1
  9
$ATTREQ
 70
     1
  9
$HANDLING
 70
     1
  9
$HANDSEED
  5
2C6
  9
$SURFTAB1
 70
     6
  9
$SURFTAB2
 70
     6
  9
$SURFTYPE
 70
     6
  9
$SURFU
 70
     6
  9
$SURFV
 70
     6
  9
$UCSNAME
  2

  9
$UCSORG
 10
0.0
 20
0.0
 30
0.0
  9
$UCSXDIR
 10
1.0
 20
0.0
 30
0.0
  9
$UCSYDIR
 10
0.0
 20
1.0
 30
0.0
  9
$PUCSNAME
  2

  9
$PUCSORG
 10
0.0
 20
0.0
 30
0.0
  9
$PUCSXDIR
 10
1.0
 20
0.0
 30
0.0
  9
$PUCSYDIR
 10
0.0
 20
1.0
 30
0.0
  9
$USERI1
 70
     0
  9
$USERI2
 70
     1
  9
$USERI3
 70
     0
  9
$USERI4
 70
     0
  9
$USERI5
 70
     0
  9
$USERR1
 40
0.0
  9
$USERR2
 40
0.0
  9
$USERR3
 40
0.0
  9
$USERR4
 40
0.0
  9
$USERR5
 40
0.0
  9
$WORLDVIEW
 70
     1
  9
$SHADEDGE
 70
     3
  9
$SHADEDIF
 70
    70
  9
$TILEMODE
 70
     1
  9
$MAXACTVP
 70
    16
  9
$PLIMCHECK
 70
     0
  9
$PEXTMIN
 10
1.0000000000000000E+20
 20
1.0000000000000000E+20
 30
1.0000000000000000E+20
  9
$PEXTMAX
 10
-1.0000000000000000E+20
 20
-1.0000000000000000E+20
 30
-1.0000000000000000E+20
  9
$PLIMMIN
 10
0.0
 20
0.0
  9
$PLIMMAX
 10
12.0
 20
9.0
  9
$UNITMODE
 70
     0
  9
$VISRETAIN
 70
     0
  9
$PLINEGEN
 70
     0
  9
$PSLTSCALE
 70
     0
  0
ENDSEC
  0
SECTION
  2
TABLES
  0
TABLE
  2
VPORT
 70
     1
  0
VPORT
  2
*ACTIVE
 70
     0
 10
0.0
 20
0.0
 11
1.0
 21
1.0
 12
317.050492610837523
 22
135.4775424392321952
 13
0.0
 23
0.0
 14
10.0
 24
10.0
 15
10.0
 25
10.0
 16
0.0
 26
0.0
 36
1.0
 17
0.0
 27
0.0
 37
0.0
 40
270.9550848784645041
 41
2.340243902439024
 42
50.0
 43
0.0
 44
0.0
 50
0.0
 51
0.0
 71
     0
 72
   100
 73
     1
 74
     0
 75
     0
 76
     0
 77
     0
 78
     2
  0
ENDTAB
  0
TABLE
  2
LTYPE
 70
     2
  0
LTYPE
  2
CONTINUOUS
 70
     0
  3
Solid Line
 72
    65
 73
     0
 40
0.0
  0
LTYPE
  2
CENTER
 70
     0
  3
____ _ ____ _ ____ _ ____ _ ____ _ ____ _ ____
 72
    65
 73
     4
 40
2.0
 49
1.25
 49
-0.25
 49
0.25
 49
-0.25
  0
ENDTAB
  0
TABLE
  2
LAYER
 70
     3
  0
LAYER
  2
0
 70
     0
 62
     7
  6
CONTINUOUS
  0
LAYER
  2
1
 70
     0
 62
     1
  6
CENTER
  0
LAYER
  2
3
 70
     0
 62
     3
  6
CONTINUOUS
  0
ENDTAB
  0
TABLE
  2
STYLE
 70
     3
  0
STYLE
  2
STANDARD
 70
     0
 40
0.0
 41
1.0
 50
0.0
 71
     0
 42
0.2
  3
TXT
  4
BIGFONT
  0
STYLE
  2
COMPLEX
 70
     0
 40
3.5
 41
0.4
 50
0.0
 71
     0
 42
3.0
  3
COMPLEX
  4

  0
STYLE
  2
STANDARD1
 70
     0
 40
0.0
 41
1.0
 50
0.0
 71
     0
 42
3.0
  3
txt
  4

  0
ENDTAB
  0
TABLE
  2
VIEW
 70
     1
  0
VIEW
  2
ALL
 70
     0
 40
270.0
 10
220.9915970000000129
 20
135.0
 41
0.0
 11
0.0
 21
0.0
 31
1.0
 12
0.0
 22
0.0
 32
0.0
 42
0.0
 43
0.0
 44
0.0
 50
0.0
 71
     0
  0
ENDTAB
  0
TABLE
  2
UCS
 70
     0
  0
ENDTAB
  0
TABLE
  2
APPID
 70
     3
  0
APPID
  2
ACAD
 70
     0
  0
APPID
  2
ACAD_MLEADERVER
 70
     0
  0
APPID
  2
ACAD_NAV_VCDISPLAY
 70
     0
  0
ENDTAB
  0
TABLE
  2
DIMSTYLE
 70
     1
  0
DIMSTYLE
  2
STANDARD
 70
     0
  3

  4

  5

  6

  7

 40
1.0
 41
0.18
 42
0.0625
 43
0.38
 44
0.18
 45
0.0
 46
0.0
 47
0.0
 48
0.0
140
0.18
141
0.09
142
0.0
143
25.3999999999999986
144
1.0
145
0.0
146
1.0
147
0.09
 71
     0
 72
     0
 73
     1
 74
     1
 75
     0
 76
     0
 77
     0
 78
     0
170
     0
171
     2
172
     0
173
     0
174
     0
175
     0
176
     0
177
     0
178
     0
  0
ENDTAB
  0
ENDSEC
  0
SECTION
  2
BLOCKS
  0
BLOCK
  8
0
  2
$MODEL_SPACE
 70
     0
 10
0.0
 20
0.0
 30
0.0
  3
$MODEL_SPACE
  1

  0
ENDBLK
  5
102
  8
0
  0
BLOCK
 67
     1
  8
0
  2
$PAPER_SPACE
 70
     0
 10
0.0
 20
0.0
 30
0.0
  3
$PAPER_SPACE
  1

  0
ENDBLK
  5
100
 67
     1
  8
0
  0
ENDSEC
  0
SECTION
  2
ENTITIES
  0
LINE
  5
35
  8
0
 10
121.6382210000000015
 20
89.0629500000000007
 30
0.0
 11
123.1382210000000015
 21
90.5629500000000007
 31
0.0
  0
LINE
  5
36
  8
0
 10
123.1382210000000015
 20
90.5629500000000007
 30
0.0
 11
123.1382210000000015
 21
138.662949999999995
 31
0.0
  0
ARC
  5
37
  8
0
 10
123.538220999999993
 20
138.662949999999995
 30
0.0
 40
0.4
 50
90.0
 51
180.0
  0
LINE
  5
38
  8
3
 10
123.1382210000000015
 20
138.662949999999995
 30
0.0
 11
122.3262210000000039
 21
137.2565240000000131
 31
0.0
  0
LINE
  5
39
  8
3
 10
122.3262210000000039
 20
137.2565240000000131
 30
0.0
 11
122.3262210000000039
 21
89.7509500000000031
 31
0.0
  0
LINE
  5
3A
  8
3
 10
113.9502209999999991
 20
137.2565240000000131
 30
0.0
 11
113.9502209999999991
 21
89.7509500000000031
 31
0.0
  0
LINE
  5
3B
  8
3
 10
113.1382210000000015
 20
138.662949999999995
 30
0.0
 11
113.9502209999999991
 21
137.2565240000000131
 31
0.0
  0
ARC
  5
3C
  8
0
 10
112.7382209999999958
 20
138.662949999999995
 30
0.0
 40
0.4
 50
0.0
 51
90.0
  0
LINE
  5
3D
  8
0
 10
113.1382210000000015
 20
90.5629500000000007
 30
0.0
 11
113.1382210000000015
 21
138.662949999999995
 31
0.0
  0
LINE
  5
3E
  8
0
 10
114.6382210000000015
 20
89.0629500000000007
 30
0.0
 11
113.1382210000000015
 21
90.5629500000000007
 31
0.0
  0
LINE
  5
3F
  8
0
 10
113.1382210000000015
 20
137.2565240000000131
 30
0.0
 11
123.1382210000000015
 21
137.2565240000000131
 31
0.0
  0
LINE
  5
40
  8
0
 10
113.1382210000000015
 20
90.5629500000000007
 30
0.0
 11
123.1382210000000015
 21
90.5629500000000007
 31
0.0
  0
LINE
  5
41
  8
0
 10
114.6382210000000015
 20
89.0629500000000007
 30
0.0
 11
121.6382210000000015
 21
89.0629500000000007
 31
0.0
  0
CIRCLE
  5
42
  8
0
 10
118.1382210000000015
 20
236.6366910000000132
 30
0.0
 40
20.5
  0
LINE
  5
43
  8
1
 10
92.6382210000000015
 20
236.6366910000000132
 30
0.0
 11
269.1382209999999873
 21
236.6366910000000132
 31
0.0
  0
LINE
  5
44
  8
1
 10
249.1382209999999873
 20
256.6366910000000985
 30
0.0
 11
249.1382209999999873
 21
216.6366910000000132
 31
0.0
  0
LINE
  5
45
  8
1
 10
118.1382210000000015
 20
262.1366909999999848
 30
0.0
 11
118.1382210000000015
 21
211.1366910000000132
 31
0.0
  0
ARC
  5
46
  8
0
 10
249.1382209999999873
 20
236.6366910000000132
 30
0.0
 40
15.0
 50
209.9264349999999979
 51
150.0735650000000021
  0
LINE
  5
47
  8
0
 10
236.1382209999999873
 20
244.1200049999999919
 30
0.0
 11
236.1382209999999873
 21
229.1533760000000086
 31
0.0
  0
CIRCLE
  5
48
  8
0
 10
118.1382210000000015
 20
236.6366910000000132
 30
0.0
 40
18.5
  0
CIRCLE
  5
49
  8
0
 10
118.1382210000000015
 20
236.6366910000000132
 30
0.0
 40
11.0
  0
CIRCLE
  5
4A
  8
0
 10
118.1382210000000015
 20
236.6366910000000132
 30
0.0
 40
7.5
  0
TEXT
  5
4F
  8
0
 10
115.8048876666667013
 20
235.1366910000000132
 30
0.0
 40
3.5
  1
Kipp
 41
0.4
  7
COMPLEX
 72
     1
 11
118.1382210000000015
 21
235.1366910000000132
 31
0.0
  0
LINE
  5
56
  8
0
 10
137.7405170000000112
 20
242.6366910000000132
 30
0.0
 11
236.1382209999999873
 21
242.6366910000000132
 31
0.0
  0
LINE
  5
57
  8
0
 10
236.1382209999999873
 20
230.6366910000000132
 30
0.0
 11
137.7405170000000112
 21
230.6366910000000132
 31
0.0
  0
LINE
  5
58
  8
0
 10
236.1382209999999873
 20
146.5629500000000007
 30
0.0
 11
138.6382209999999873
 21
146.5629500000000007
 31
0.0
  0
LINE
  5
59
  8
0
 10
138.6382209999999873
 20
158.5629500000000007
 30
0.0
 11
236.1382209999999873
 21
158.5629500000000007
 31
0.0
  0
LINE
  5
5A
  8
0
 10
236.1382209999999873
 20
160.0462640000000079
 30
0.0
 11
236.1382209999999873
 21
145.0796349999999961
 31
0.0
  0
ARC
  5
5B
  8
0
 10
249.1382209999999873
 20
152.5629500000000007
 30
0.0
 40
15.0
 50
209.9264349999999979
 51
150.0735650000000021
  0
LINE
  5
5C
  8
1
 10
249.1382209999999873
 20
172.5629500000000007
 30
0.0
 11
249.1382209999999873
 21
132.5629500000000007
 31
0.0
  0
LINE
  5
5D
  8
1
 10
92.6382210000000015
 20
152.5629500000000007
 30
0.0
 11
269.1382209999999873
 21
152.5629500000000007
 31
0.0
  0
LINE
  5
5E
  8
0
 10
99.6382210000000157
 20
161.0629500000000007
 30
0.0
 11
97.6382210000000015
 21
159.0629500000000007
 31
0.0
  0
LINE
  5
5F
  8
0
 10
97.6382210000000015
 20
159.0629500000000007
 30
0.0
 11
97.6382210000000015
 21
142.0629500000000007
 31
0.0
  0
LINE
  5
60
  8
0
 10
97.6382210000000015
 20
142.0629500000000007
 30
0.0
 11
98.6382210000000015
 21
141.0629500000000007
 31
0.0
  0
LINE
  5
61
  8
0
 10
108.6382210000000015
 20
141.0629500000000007
 30
0.0
 11
108.6382210000000015
 21
139.662949999999995
 31
0.0
  0
LINE
  5
62
  8
0
 10
108.6382210000000015
 20
139.662949999999995
 30
0.0
 11
109.2382209999999958
 21
139.0629500000000007
 31
0.0
  0
LINE
  5
63
  8
0
 10
127.6382210000000015
 20
139.662949999999995
 30
0.0
 11
127.038220999999993
 21
139.0629500000000007
 31
0.0
  0
LINE
  5
64
  8
0
 10
127.6382210000000015
 20
141.0629500000000007
 30
0.0
 11
127.6382210000000015
 21
139.662949999999995
 31
0.0
  0
LINE
  5
65
  8
0
 10
138.6382209999999873
 20
142.0629500000000007
 30
0.0
 11
137.6382209999999873
 21
141.0629500000000007
 31
0.0
  0
LINE
  5
66
  8
0
 10
138.6382209999999873
 20
159.0629500000000007
 30
0.0
 11
138.6382209999999873
 21
158.5629500000000007
 31
0.0
  0
LINE
  5
67
  8
0
 10
136.6382209999999873
 20
161.0629500000000007
 30
0.0
 11
138.6382209999999873
 21
159.0629500000000007
 31
0.0
  0
LINE
  5
68
  8
0
 10
99.6382210000000157
 20
161.0629500000000007
 30
0.0
 11
136.6382209999999873
 21
161.0629500000000007
 31
0.0
  0
LINE
  5
69
  8
0
 10
138.6382209999999873
 20
159.0629500000000007
 30
0.0
 11
97.6382210000000015
 21
159.0629500000000007
 31
0.0
  0
LINE
  5
6A
  8
0
 10
97.6382210000000015
 20
142.0629500000000007
 30
0.0
 11
138.6382209999999873
 21
142.0629500000000007
 31
0.0
  0
LINE
  5
6B
  8
0
 10
98.6382210000000015
 20
141.0629500000000007
 30
0.0
 11
137.6382209999999873
 21
141.0629500000000007
 31
0.0
  0
LINE
  5
6C
  8
0
 10
109.2382209999999958
 20
139.0629500000000007
 30
0.0
 11
127.038220999999993
 21
139.0629500000000007
 31
0.0
  0
ARC
  5
6D
  8
0
 10
158.2405170000000112
 20
152.5629500000000007
 30
0.0
 40
20.5
 50
162.9813530000000128
 51
197.0186469999999872
  0
LINE
  5
6E
  8
0
 10
138.6382209999999873
 20
146.5629500000000007
 30
0.0
 11
138.6382209999999873
 21
142.0629500000000007
 31
0.0
  0
LINE
  5
6F
  8
1
 10
118.1382210000000015
 20
166.0629500000000007
 30
0.0
 11
118.1382210000000015
 21
84.0629500000000007
 31
0.0
  0
LINE
  5
70
  8
0
 10
108.6382210000000015
 20
139.662949999999995
 30
0.0
 11
127.6382210000000015
 21
139.662949999999995
 31
0.0
  0
LINE
  5
71
  8
0
 10
236.1382209999999873
 20
29.1753600000000013
 30
0.0
 11
137.7405170000000112
 21
29.1753600000000013
 31
0.0
  0
LINE
  5
72
  8
0
 10
137.7405170000000112
 20
41.1753599999999977
 30
0.0
 11
236.1382209999999873
 21
41.1753599999999977
 31
0.0
  0
LINE
  5
73
  8
0
 10
236.1382209999999873
 20
42.6586739999999978
 30
0.0
 11
236.1382209999999873
 21
27.6920450000000002
 31
0.0
  0
ARC
  5
74
  8
0
 10
249.1382209999999873
 20
35.1753599999999977
 30
0.0
 40
15.0
 50
209.9264349999999979
 51
150.0735650000000021
  0
LINE
  5
75
  8
1
 10
118.1382210000000015
 20
60.6753599999999977
 30
0.0
 11
118.1382210000000015
 21
9.6753600000000013
 31
0.0
  0
LINE
  5
76
  8
1
 10
249.1382209999999873
 20
55.1753599999999906
 30
0.0
 11
249.1382209999999873
 21
15.1753599999999995
 31
0.0
  0
LINE
  5
77
  8
1
 10
92.6382210000000015
 20
35.1753599999999977
 30
0.0
 11
269.1382209999999873
 21
35.1753599999999977
 31
0.0
  0
CIRCLE
  5
78
  8
0
 10
118.1382210000000015
 20
35.1753599999999977
 30
0.0
 40
20.5
  0
CIRCLE
  5
79
  8
0
 10
118.1382210000000015
 20
35.1753599999999977
 30
0.0
 40
19.5
  0
CIRCLE
  5
7A
  8
0
 10
118.1382210000000015
 20
35.1753599999999977
 30
0.0
 40
9.5
  0
CIRCLE
  5
7B
  8
0
 10
118.1382210000000015
 20
35.1753599999999977
 30
0.0
 40
8.9000000000000004
  0
CIRCLE
  5
7C
  8
0
 10
118.1382210000000015
 20
35.1753599999999977
 30
0.0
 40
5.0
  0
CIRCLE
  5
7D
  8
3
 10
118.1382210000000015
 20
35.1753599999999977
 30
0.0
 40
4.1879999999999988
  0
LINE
  5
7E
  8
0
 10
318.7576189999999769
 20
139.662949999999995
 30
0.0
 11
320.6032079999999951
 21
139.662949999999995
 31
0.0
  0
LINE
  5
7F
  8
1
 10
328.2576189999999769
 20
172.5629500000000007
 30
0.0
 11
328.2576189999999769
 21
84.0629500000000007
 31
0.0
  0
LINE
  5
80
  8
0
 10
348.7576189999999769
 20
159.0629500000000007
 30
0.0
 11
348.7576189999999769
 21
142.0629500000000007
 31
0.0
  0
LINE
  5
81
  8
0
 10
319.3576189999999997
 20
139.0629500000000007
 30
0.0
 11
321.719270999999992
 21
139.0629500000000007
 31
0.0
  0
LINE
  5
82
  8
0
 10
308.7576189999999769
 20
141.0629500000000007
 30
0.0
 11
318.626938999999993
 21
141.0629500000000007
 31
0.0
  0
LINE
  5
83
  8
0
 10
307.7576189999999769
 20
142.0629500000000007
 30
0.0
 11
317.5454760000000078
 21
142.0629500000000007
 31
0.0
  0
LINE
  5
84
  8
0
 10
348.7576189999999769
 20
159.0629500000000007
 30
0.0
 11
341.7761249999999791
 21
159.0629500000000007
 31
0.0
  0
LINE
  5
85
  8
0
 10
309.7576189999999769
 20
161.0629500000000007
 30
0.0
 11
315.8984120000000075
 21
161.0629500000000007
 31
0.0
  0
LINE
  5
86
  8
0
 10
346.7576189999999769
 20
161.0629500000000007
 30
0.0
 11
348.7576189999999769
 21
159.0629500000000007
 31
0.0
  0
LINE
  5
87
  8
0
 10
348.7576189999999769
 20
142.0629500000000007
 30
0.0
 11
347.7576189999999769
 21
141.0629500000000007
 31
0.0
  0
LINE
  5
88
  8
0
 10
337.7576189999999769
 20
141.0629500000000007
 30
0.0
 11
337.7576189999999769
 21
139.662949999999995
 31
0.0
  0
LINE
  5
89
  8
0
 10
337.7576189999999769
 20
139.662949999999995
 30
0.0
 11
337.1576190000000111
 21
139.0629500000000007
 31
0.0
  0
LINE
  5
8A
  8
0
 10
318.7576189999999769
 20
139.662949999999995
 30
0.0
 11
319.3576189999999997
 21
139.0629500000000007
 31
0.0
  0
LINE
  5
8B
  8
0
 10
318.7576189999999769
 20
141.0629500000000007
 30
0.0
 11
318.7576189999999769
 21
139.662949999999995
 31
0.0
  0
LINE
  5
8C
  8
0
 10
307.7576189999999769
 20
142.0629500000000007
 30
0.0
 11
308.7576189999999769
 21
141.0629500000000007
 31
0.0
  0
LINE
  5
8D
  8
0
 10
307.7576189999999769
 20
159.0629500000000007
 30
0.0
 11
307.7576189999999769
 21
142.0629500000000007
 31
0.0
  0
LINE
  5
8E
  8
0
 10
309.7576189999999769
 20
161.0629500000000007
 30
0.0
 11
307.7576189999999769
 21
159.0629500000000007
 31
0.0
  0
LINE
  5
8F
  8
1
 10
302.7576189999999769
 20
152.5629500000000007
 30
0.0
 11
353.7576189999999769
 21
152.5629500000000007
 31
0.0
  0
CIRCLE
  5
90
  8
0
 10
328.2576189999999769
 20
152.5629500000000007
 30
0.0
 40
15.0
  0
LINE
  5
91
  8
0
 10
340.6168260000000032
 20
161.0629500000000007
 30
0.0
 11
346.7576189999999769
 21
161.0629500000000007
 31
0.0
  0
LINE
  5
92
  8
0
 10
314.7391129999999748
 20
159.0629500000000007
 30
0.0
 11
307.7576189999999769
 21
159.0629500000000007
 31
0.0
  0
LINE
  5
93
  8
0
 10
338.9697620000000029
 20
142.0629500000000007
 30
0.0
 11
348.7576189999999769
 21
142.0629500000000007
 31
0.0
  0
LINE
  5
94
  8
0
 10
337.8882990000000177
 20
141.0629500000000007
 30
0.0
 11
347.7576189999999769
 21
141.0629500000000007
 31
0.0
  0
LINE
  5
95
  8
0
 10
335.9120290000000182
 20
139.662949999999995
 30
0.0
 11
337.7576189999999769
 21
139.662949999999995
 31
0.0
  0
LINE
  5
96
  8
0
 10
334.7959670000000187
 20
139.0629500000000007
 30
0.0
 11
337.1576190000000111
 21
139.0629500000000007
 31
0.0
  0
LINE
  5
97
  8
0
 10
61.5211510000000033
 20
159.0629500000000007
 30
0.0
 11
20.5211509999999997
 21
159.0629500000000007
 31
0.0
  0
ARC
  5
98
  8
0
 10
41.0211510000000033
 20
152.5629500000000007
 30
0.0
 40
15.0
 50
244.1580669999999884
 51
250.5287789999999859
  0
LINE
  5
99
  8
1
 10
15.5211509999999997
 20
152.5629500000000007
 30
0.0
 11
66.5211510000000033
 21
152.5629500000000007
 31
0.0
  0
LINE
  5
9A
  8
0
 10
22.5211509999999997
 20
161.0629500000000007
 30
0.0
 11
20.5211509999999997
 21
159.0629500000000007
 31
0.0
  0
LINE
  5
9B
  8
0
 10
20.5211509999999997
 20
159.0629500000000007
 30
0.0
 11
20.5211509999999997
 21
142.0629500000000007
 31
0.0
  0
LINE
  5
9C
  8
0
 10
20.5211509999999997
 20
142.0629500000000007
 30
0.0
 11
21.5211509999999997
 21
141.0629500000000007
 31
0.0
  0
LINE
  5
9D
  8
0
 10
31.5211509999999997
 20
141.0629500000000007
 30
0.0
 11
31.5211509999999997
 21
139.662949999999995
 31
0.0
  0
LINE
  5
9E
  8
0
 10
31.5211509999999997
 20
139.662949999999995
 30
0.0
 11
32.1211509999999976
 21
139.0629500000000007
 31
0.0
  0
LINE
  5
9F
  8
0
 10
50.5211510000000033
 20
139.662949999999995
 30
0.0
 11
49.9211510000000018
 21
139.0629500000000007
 31
0.0
  0
LINE
  5
A0
  8
0
 10
50.5211510000000033
 20
141.0629500000000007
 30
0.0
 11
50.5211510000000033
 21
139.662949999999995
 31
0.0
  0
LINE
  5
A1
  8
0
 10
61.5211510000000033
 20
142.0629500000000007
 30
0.0
 11
60.5211510000000033
 21
141.0629500000000007
 31
0.0
  0
LINE
  5
A2
  8
0
 10
59.5211510000000033
 20
161.0629500000000007
 30
0.0
 11
61.5211510000000033
 21
159.0629500000000007
 31
0.0
  0
LINE
  5
A3
  8
0
 10
22.5211509999999997
 20
161.0629500000000007
 30
0.0
 11
59.5211510000000033
 21
161.0629500000000007
 31
0.0
  0
LINE
  5
A4
  8
0
 10
20.5211509999999997
 20
142.0629500000000007
 30
0.0
 11
61.5211510000000033
 21
142.0629500000000007
 31
0.0
  0
LINE
  5
A5
  8
0
 10
21.5211509999999997
 20
141.0629500000000007
 30
0.0
 11
60.5211510000000033
 21
141.0629500000000007
 31
0.0
  0
LINE
  5
A6
  8
0
 10
32.1211509999999976
 20
139.0629500000000007
 30
0.0
 11
49.9211510000000018
 21
139.0629500000000007
 31
0.0
  0
LINE
  5
A7
  8
0
 10
61.5211510000000033
 20
159.0629500000000007
 30
0.0
 11
61.5211510000000033
 21
142.0629500000000007
 31
0.0
  0
LINE
  5
A8
  8
1
 10
41.0211510000000033
 20
172.5629500000000007
 30
0.0
 11
41.0211510000000033
 21
84.0629500000000007
 31
0.0
  0
LINE
  5
A9
  8
0
 10
31.5211509999999997
 20
139.662949999999995
 30
0.0
 11
50.5211510000000033
 21
139.662949999999995
 31
0.0
  0
ARC
  5
AA
  8
0
 10
41.0211510000000033
 20
152.5629500000000007
 30
0.0
 40
15.0
 50
34.518107999999998
 51
145.4818919999999878
  0
LINE
  5
AB
  8
0
 10
37.5211510000000104
 20
89.0629500000000007
 30
0.0
 11
44.5211510000000033
 21
89.0629500000000007
 31
0.0
  0
LINE
  5
AC
  8
0
 10
36.0211510000000104
 20
90.5629500000000007
 30
0.0
 11
46.0211510000000033
 21
90.5629500000000007
 31
0.0
  0
LINE
  5
AD
  8
0
 10
36.0211510000000104
 20
137.2565240000000131
 30
0.0
 11
46.0211510000000033
 21
137.2565240000000131
 31
0.0
  0
LINE
  5
AE
  8
0
 10
37.5211510000000104
 20
89.0629500000000007
 30
0.0
 11
36.0211510000000104
 21
90.5629500000000007
 31
0.0
  0
LINE
  5
AF
  8
0
 10
36.0211510000000104
 20
90.5629500000000007
 30
0.0
 11
36.0211510000000104
 21
138.662949999999995
 31
0.0
  0
ARC
  5
B0
  8
0
 10
35.6211509999999976
 20
138.662949999999995
 30
0.0
 40
0.4
 50
0.0
 51
90.0
  0
LINE
  5
B1
  8
3
 10
36.0211510000000104
 20
138.662949999999995
 30
0.0
 11
36.8331510000000009
 21
137.2565240000000131
 31
0.0
  0
LINE
  5
B2
  8
3
 10
36.8331510000000009
 20
137.2565240000000131
 30
0.0
 11
36.8331510000000009
 21
89.7509500000000031
 31
0.0
  0
LINE
  5
B3
  8
3
 10
45.2091509999999914
 20
137.2565240000000131
 30
0.0
 11
45.2091509999999914
 21
89.7509500000000031
 31
0.0
  0
LINE
  5
B4
  8
3
 10
46.0211510000000033
 20
138.662949999999995
 30
0.0
 11
45.2091509999999914
 21
137.2565240000000131
 31
0.0
  0
ARC
  5
B5
  8
0
 10
46.4211510000000018
 20
138.662949999999995
 30
0.0
 40
0.4
 50
90.0
 51
180.0
  0
LINE
  5
B6
  8
0
 10
46.0211510000000033
 20
90.5629500000000007
 30
0.0
 11
46.0211510000000033
 21
138.662949999999995
 31
0.0
  0
LINE
  5
B7
  8
0
 10
44.5211510000000033
 20
89.0629500000000007
 30
0.0
 11
46.0211510000000033
 21
90.5629500000000007
 31
0.0
  0
ARC
  5
B8
  8
0
 10
41.0211510000000033
 20
152.5629500000000007
 30
0.0
 40
15.0
 50
289.4712210000000141
 51
295.8419329999999832
  0
LINE
  5
B9
  8
0
 10
337.7576189999999769
 20
141.0629500000000007
 30
0.0
 11
337.7576189999999769
 21
139.662949999999995
 31
0.0
  0
LINE
  5
BA
  8
0
 10
337.7576189999999769
 20
139.662949999999995
 30
0.0
 11
337.1576190000000111
 21
139.0629500000000007
 31
0.0
  0
LINE
  5
BB
  8
0
 10
324.7576189999999769
 20
89.0629500000000007
 30
0.0
 11
331.7576189999999769
 21
89.0629500000000007
 31
0.0
  0
LINE
  5
BC
  8
0
 10
323.2576189999999769
 20
90.5629500000000007
 30
0.0
 11
333.2576189999999769
 21
90.5629500000000007
 31
0.0
  0
LINE
  5
BD
  8
0
 10
323.2576189999999769
 20
137.2565240000000131
 30
0.0
 11
333.2576189999999769
 21
137.2565240000000131
 31
0.0
  0
LINE
  5
BE
  8
0
 10
324.7576189999999769
 20
89.0629500000000007
 30
0.0
 11
323.2576189999999769
 21
90.5629500000000007
 31
0.0
  0
LINE
  5
BF
  8
0
 10
323.2576189999999769
 20
90.5629500000000007
 30
0.0
 11
323.2576189999999769
 21
138.4208140000000071
 31
0.0
  0
LINE
  5
C0
  8
3
 10
323.4323929999999905
 20
138.3602319999999963
 30
0.0
 11
324.0696189999999888
 21
137.2565240000000131
 31
0.0
  0
LINE
  5
C1
  8
3
 10
324.0696189999999888
 20
137.2565240000000131
 30
0.0
 11
324.0696189999999888
 21
89.7509500000000031
 31
0.0
  0
LINE
  5
C2
  8
3
 10
332.445619000000022
 20
137.2565240000000131
 30
0.0
 11
332.445619000000022
 21
89.7509500000000031
 31
0.0
  0
LINE
  5
C3
  8
3
 10
333.0828450000000203
 20
138.3602319999999963
 30
0.0
 11
332.445619000000022
 21
137.2565240000000131
 31
0.0
  0
LINE
  5
C4
  8
0
 10
333.2576189999999769
 20
90.5629500000000007
 30
0.0
 11
333.2576189999999769
 21
138.4208140000000071
 31
0.0
  0
LINE
  5
C5
  8
0
 10
331.7576189999999769
 20
89.0629500000000007
 30
0.0
 11
333.2576189999999769
 21
90.5629500000000007
 31
0.0
  0
TEXT
  5
1C3
  8
0
 62
     3
 10
0.0
 20
0.0
 30
0.0
 40
10.0
  1
FT10X50
  7
STANDARD1
  0
ENDSEC
  0
EOF
