  0
SECTION
  2
HEADER
  9
$ACADVER
  1
AC1009
  9
$INSBASE
 10
0.0
 20
0.0
 30
0.0
  9
$EXTMIN
 10
0.0
 20
-2.960436562073669
 30
0.0
  9
$EXTMAX
 10
353.7576189999999769
 20
253.5170860000000062
 30
0.0
  9
$LIMMIN
 10
0.0
 20
0.0
  9
$LIMMAX
 10
375.0
 20
270.0
  9
$ORTHOMODE
 70
     1
  9
$REGENMODE
 70
     1
  9
$FILLMODE
 70
     1
  9
$QTEXTMODE
 70
     0
  9
$MIRRTEXT
 70
     0
  9
$DRAGMODE
 70
     2
  9
$LTSCALE
 40
10.0
  9
$OSMODE
 70
    37
  9
$ATTMODE
 70
     1
  9
$TEXTSIZE
 40
4.0
  9
$TRACEWID
 40
0.05
  9
$TEXTSTYLE
  7
STANDARD
  9
$CLAYER
  8
0
  9
$CELTYPE
  6
BYLAYER
  9
$CECOLOR
 62
   256
  9
$DIMSCALE
 40
1.0
  9
$DIMASZ
 40
3.0
  9
$DIMEXO
 40
2.0
  9
$DIMDLI
 40
0.38
  9
$DIMRND
 40
0.0
  9
$DIMDLE
 40
0.0
  9
$DIMEXE
 40
2.0
  9
$DIMTP
 40
0.0
  9
$DIMTM
 40
0.0
  9
$DIMTXT
 40
3.2000000000000002
  9
$DIMCEN
 40
0.0
  9
$DIMTSZ
 40
0.0
  9
$DIMTOL
 70
     0
  9
$DIMLIM
 70
     0
  9
$DIMTIH
 70
     0
  9
$DIMTOH
 70
     0
  9
$DIMSE1
 70
     0
  9
$DIMSE2
 70
     0
  9
$DIMTAD
 70
     1
  9
$DIMZIN
 70
     0
  9
$DIMBLK
  1

  9
$DIMASO
 70
     0
  9
$DIMSHO
 70
     0
  9
$DIMPOST
  1

  9
$DIMAPOST
  1

  9
$DIMALT
 70
     0
  9
$DIMALTD
 70
     2
  9
$DIMALTF
 40
25.3999999999999986
  9
$DIMLFAC
 40
1.0
  9
$DIMTOFL
 70
     1
  9
$DIMTVP
 40
1.6000000000000001
  9
$DIMTIX
 70
     1
  9
$DIMSOXD
 70
     0
  9
$DIMSAH
 70
     0
  9
$DIMBLK1
  1

  9
$DIMBLK2
  1

  9
$DIMSTYLE
  2
STANDARD
  9
$DIMCLRD
 70
     0
  9
$DIMCLRE
 70
     0
  9
$DIMCLRT
 70
     0
  9
$DIMTFAC
 40
1.0
  9
$DIMGAP
 40
0.09
  9
$LUNITS
 70
     2
  9
$LUPREC
 70
     4
  9
$SKETCHINC
 40
0.1
  9
$FILLETRAD
 40
0.0
  9
$AUNITS
 70
     0
  9
$AUPREC
 70
     4
  9
$MENU
  1
E:\r13\win\SUPPORT\ACAD
  9
$ELEVATION
 40
0.0
  9
$PELEVATION
 40
0.0
  9
$THICKNESS
 40
0.0
  9
$LIMCHECK
 70
     0
  9
$BLIPMODE
 70
     0
  9
$CHAMFERA
 40
0.0
  9
$CHAMFERB
 40
0.0
  9
$SKPOLY
 70
     0
  9
$TDCREATE
 40
2449840.6172800930216908
  9
$TDUPDATE
 40
2460791.4914699080400169
  9
$TDINDWG
 40
0.0033085417
  9
$TDUSRTIMER
 40
0.0033085417
  9
$USRTIMER
 70
     1
  9
$ANGBASE
 50
0.0
  9
$ANGDIR
 70
     0
  9
$PDMODE
 70
     0
  9
$PDSIZE
 40
0.0
  9
$PLINEWID
 40
0.0
  9
$COORDS
 70
     1
  9
$SPLFRAME
 70
     0
  9
$SPLINETYPE
 70
     6
  9
$SPLINESEGS
 70
     8
  9
$ATTDIA
 70
     1
  9
$ATTREQ
 70
     1
  9
$HANDLING
 70
     1
  9
$HANDSEED
  5
2CB
  9
$SURFTAB1
 70
     6
  9
$SURFTAB2
 70
     6
  9
$SURFTYPE
 70
     6
  9
$SURFU
 70
     6
  9
$SURFV
 70
     6
  9
$UCSNAME
  2

  9
$UCSORG
 10
0.0
 20
0.0
 30
0.0
  9
$UCSXDIR
 10
1.0
 20
0.0
 30
0.0
  9
$UCSYDIR
 10
0.0
 20
1.0
 30
0.0
  9
$PUCSNAME
  2

  9
$PUCSORG
 10
0.0
 20
0.0
 30
0.0
  9
$PUCSXDIR
 10
1.0
 20
0.0
 30
0.0
  9
$PUCSYDIR
 10
0.0
 20
1.0
 30
0.0
  9
$USERI1
 70
     0
  9
$USERI2
 70
     1
  9
$USERI3
 70
     0
  9
$USERI4
 70
     0
  9
$USERI5
 70
     0
  9
$USERR1
 40
0.0
  9
$USERR2
 40
0.0
  9
$USERR3
 40
0.0
  9
$USERR4
 40
0.0
  9
$USERR5
 40
0.0
  9
$WORLDVIEW
 70
     1
  9
$SHADEDGE
 70
     3
  9
$SHADEDIF
 70
    70
  9
$TILEMODE
 70
     1
  9
$MAXACTVP
 70
    16
  9
$PLIMCHECK
 70
     0
  9
$PEXTMIN
 10
1.0000000000000000E+20
 20
1.0000000000000000E+20
 30
1.0000000000000000E+20
  9
$PEXTMAX
 10
-1.0000000000000000E+20
 20
-1.0000000000000000E+20
 30
-1.0000000000000000E+20
  9
$PLIMMIN
 10
0.0
 20
0.0
  9
$PLIMMAX
 10
12.0
 20
9.0
  9
$UNITMODE
 70
     0
  9
$VISRETAIN
 70
     0
  9
$PLINEGEN
 70
     0
  9
$PSLTSCALE
 70
     0
  0
ENDSEC
  0
SECTION
  2
TABLES
  0
TABLE
  2
VPORT
 70
     1
  0
VPORT
  2
*ACTIVE
 70
     0
 10
0.0
 20
0.0
 11
1.0
 21
1.0
 12
305.3078817733990036
 22
130.4598556822236048
 13
0.0
 23
0.0
 14
10.0
 24
10.0
 15
10.0
 25
10.0
 16
0.0
 26
0.0
 36
1.0
 17
0.0
 27
0.0
 37
0.0
 40
260.9197113644473234
 41
2.340243902439024
 42
50.0
 43
0.0
 44
0.0
 50
0.0
 51
0.0
 71
     0
 72
   100
 73
     1
 74
     0
 75
     0
 76
     0
 77
     0
 78
     2
  0
ENDTAB
  0
TABLE
  2
LTYPE
 70
     2
  0
LTYPE
  2
CONTINUOUS
 70
     0
  3
Solid Line
 72
    65
 73
     0
 40
0.0
  0
LTYPE
  2
CENTER
 70
     0
  3
____ _ ____ _ ____ _ ____ _ ____ _ ____ _ ____
 72
    65
 73
     4
 40
2.0
 49
1.25
 49
-0.25
 49
0.25
 49
-0.25
  0
ENDTAB
  0
TABLE
  2
LAYER
 70
     3
  0
LAYER
  2
0
 70
     0
 62
     7
  6
CONTINUOUS
  0
LAYER
  2
1
 70
     0
 62
     1
  6
CENTER
  0
LAYER
  2
3
 70
     0
 62
     3
  6
CONTINUOUS
  0
ENDTAB
  0
TABLE
  2
STYLE
 70
     3
  0
STYLE
  2
STANDARD
 70
     0
 40
0.0
 41
1.0
 50
0.0
 71
     0
 42
4.0
  3
TXT
  4
BIGFONT
  0
STYLE
  2
COMPLEX
 70
     0
 40
3.5
 41
0.4
 50
0.0
 71
     0
 42
3.0
  3
COMPLEX
  4

  0
STYLE
  2
STANDARD1
 70
     0
 40
0.0
 41
1.0
 50
0.0
 71
     0
 42
3.0
  3
txt
  4

  0
ENDTAB
  0
TABLE
  2
VIEW
 70
     1
  0
VIEW
  2
ALL
 70
     0
 40
290.0821359999999913
 10
237.4285710000000051
 20
145.0410679999999957
 41
0.0
 11
0.0
 21
0.0
 31
1.0
 12
0.0
 22
0.0
 32
0.0
 42
0.0
 43
0.0
 44
0.0
 50
0.0
 71
     0
  0
ENDTAB
  0
TABLE
  2
UCS
 70
     0
  0
ENDTAB
  0
TABLE
  2
APPID
 70
     4
  0
APPID
  2
ACAD
 70
     0
  0
APPID
  2
ACAD_MLEADERVER
 70
     0
  0
APPID
  2
ACAD_EXEMPT_FROM_CAD_STANDARDS
 70
     0
  0
APPID
  2
ACAD_NAV_VCDISPLAY
 70
     0
  0
ENDTAB
  0
TABLE
  2
DIMSTYLE
 70
     1
  0
DIMSTYLE
  2
STANDARD
 70
     0
  3

  4

  5

  6

  7

 40
1.0
 41
0.18
 42
0.0625
 43
0.38
 44
0.18
 45
0.0
 46
0.0
 47
0.0
 48
0.0
140
0.18
141
0.09
142
0.0
143
25.3999999999999986
144
1.0
145
0.0
146
1.0
147
0.09
 71
     0
 72
     0
 73
     1
 74
     1
 75
     0
 76
     0
 77
     0
 78
     0
170
     0
171
     2
172
     0
173
     0
174
     0
175
     0
176
     0
177
     0
178
     0
  0
ENDTAB
  0
ENDSEC
  0
SECTION
  2
BLOCKS
  0
BLOCK
  8
0
  2
$MODEL_SPACE
 70
     0
 10
0.0
 20
0.0
 30
0.0
  3
$MODEL_SPACE
  1

  0
ENDBLK
  5
100
  8
0
  0
BLOCK
 67
     1
  8
0
  2
$PAPER_SPACE
 70
     0
 10
0.0
 20
0.0
 30
0.0
  3
$PAPER_SPACE
  1

  0
ENDBLK
  5
FE
 67
     1
  8
0
  0
ENDSEC
  0
SECTION
  2
ENTITIES
  0
LINE
  5
35
  8
0
 10
120.0878089999999929
 20
102.4809790000000049
 30
0.0
 11
127.0878089999999929
 21
102.4809790000000049
 31
0.0
  0
LINE
  5
36
  8
0
 10
118.5878089999999929
 20
103.9809790000000049
 30
0.0
 11
128.5878089999999929
 21
103.9809790000000049
 31
0.0
  0
LINE
  5
37
  8
0
 10
118.5878089999999929
 20
130.6745540000000005
 30
0.0
 11
128.5878089999999929
 21
130.6745540000000005
 31
0.0
  0
LINE
  5
38
  8
0
 10
120.0878089999999929
 20
102.4809790000000049
 30
0.0
 11
118.5878089999999929
 21
103.9809790000000049
 31
0.0
  0
LINE
  5
39
  8
0
 10
118.5878089999999929
 20
103.9809790000000049
 30
0.0
 11
118.5878089999999929
 21
132.0809790000000135
 31
0.0
  0
ARC
  5
3A
  8
0
 10
118.1878090000000014
 20
132.0809790000000135
 30
0.0
 40
0.4
 50
0.0
 51
90.0
  0
LINE
  5
3B
  8
3
 10
118.5878089999999929
 20
132.0809790000000135
 30
0.0
 11
119.3998090000000047
 21
130.6745540000000005
 31
0.0
  0
LINE
  5
3C
  8
3
 10
119.3998090000000047
 20
130.6745540000000005
 30
0.0
 11
119.3998090000000047
 21
103.1689789999999931
 31
0.0
  0
LINE
  5
3D
  8
3
 10
127.7758089999999953
 20
130.6745540000000005
 30
0.0
 11
127.7758089999999953
 21
103.1689789999999931
 31
0.0
  0
LINE
  5
3E
  8
3
 10
128.5878089999999929
 20
132.0809790000000135
 30
0.0
 11
127.7758089999999953
 21
130.6745540000000005
 31
0.0
  0
ARC
  5
3F
  8
0
 10
128.9878089999999986
 20
132.0809790000000135
 30
0.0
 40
0.4
 50
90.0
 51
180.0
  0
LINE
  5
40
  8
0
 10
128.5878089999999929
 20
103.9809790000000049
 30
0.0
 11
128.5878089999999929
 21
132.0809790000000135
 31
0.0
  0
LINE
  5
41
  8
0
 10
127.0878089999999929
 20
102.4809790000000049
 30
0.0
 11
128.5878089999999929
 21
103.9809790000000049
 31
0.0
  0
CIRCLE
  5
42
  8
0
 10
123.5878089999999929
 20
228.0170860000000062
 30
0.0
 40
20.5
  0
LINE
  5
43
  8
1
 10
98.0878089999999929
 20
228.0170860000000062
 30
0.0
 11
274.5878089999999929
 21
228.0170860000000062
 31
0.0
  0
LINE
  5
44
  8
1
 10
254.5878089999999929
 20
248.0170860000000062
 30
0.0
 11
254.5878089999999929
 21
208.0170860000000062
 31
0.0
  0
LINE
  5
45
  8
1
 10
123.5878089999999929
 20
253.5170860000000062
 30
0.0
 11
123.5878089999999929
 21
202.5170860000000062
 31
0.0
  0
ARC
  5
46
  8
0
 10
254.5878089999999929
 20
228.0170860000000062
 30
0.0
 40
15.0
 50
209.9264349999999979
 51
150.0735650000000021
  0
LINE
  5
47
  8
0
 10
241.5878089999999929
 20
235.5004010000000108
 30
0.0
 11
241.5878089999999929
 21
220.533771999999999
 31
0.0
  0
CIRCLE
  5
48
  8
0
 10
123.5878089999999929
 20
228.0170860000000062
 30
0.0
 40
18.5
  0
CIRCLE
  5
49
  8
0
 10
123.5878089999999929
 20
228.0170860000000062
 30
0.0
 40
11.0
  0
CIRCLE
  5
4A
  8
0
 10
123.5878089999999929
 20
228.0170860000000062
 30
0.0
 40
7.5
  0
TEXT
  5
4F
  8
0
 10
121.2544756666665933
 20
226.5170860000000062
 30
0.0
 40
3.5
  1
Kipp
 41
0.4
  7
COMPLEX
 72
     1
 11
123.5878089999999929
 21
226.5170860000000062
 31
0.0
  0
LINE
  5
56
  8
0
 10
143.1901049999999884
 20
234.0170860000000062
 30
0.0
 11
241.5878089999999929
 21
234.0170860000000062
 31
0.0
  0
LINE
  5
57
  8
0
 10
241.5878089999999929
 20
222.0170860000000062
 30
0.0
 11
143.1901049999999884
 21
222.0170860000000062
 31
0.0
  0
LINE
  5
58
  8
0
 10
241.5878089999999929
 20
139.9809789999999907
 30
0.0
 11
144.0878089999999929
 21
139.9809789999999907
 31
0.0
  0
LINE
  5
59
  8
0
 10
144.0878089999999929
 20
151.9809789999999907
 30
0.0
 11
241.5878089999999929
 21
151.9809789999999907
 31
0.0
  0
LINE
  5
5A
  8
0
 10
241.5878089999999929
 20
153.4642939999999953
 30
0.0
 11
241.5878089999999929
 21
138.4976639999999861
 31
0.0
  0
ARC
  5
5B
  8
0
 10
254.5878089999999929
 20
145.9809789999999907
 30
0.0
 40
15.0
 50
209.9264349999999979
 51
150.0735650000000021
  0
LINE
  5
5C
  8
1
 10
254.5878089999999929
 20
165.9809789999999907
 30
0.0
 11
254.5878089999999929
 21
125.9809790000000049
 31
0.0
  0
LINE
  5
5D
  8
1
 10
98.0878089999999929
 20
145.9809789999999907
 30
0.0
 11
274.5878089999999929
 21
145.9809789999999907
 31
0.0
  0
LINE
  5
5E
  8
0
 10
105.0878089999999929
 20
154.4809789999999907
 30
0.0
 11
103.0878089999999929
 21
152.4809789999999907
 31
0.0
  0
LINE
  5
5F
  8
0
 10
103.0878089999999929
 20
152.4809789999999907
 30
0.0
 11
103.0878089999999929
 21
135.4809789999999907
 31
0.0
  0
LINE
  5
60
  8
0
 10
103.0878089999999929
 20
135.4809789999999907
 30
0.0
 11
104.0878089999999929
 21
134.4809789999999907
 31
0.0
  0
LINE
  5
61
  8
0
 10
114.0878089999999929
 20
134.4809789999999907
 30
0.0
 11
114.0878089999999929
 21
133.0809790000000135
 31
0.0
  0
LINE
  5
62
  8
0
 10
114.0878089999999929
 20
133.0809790000000135
 30
0.0
 11
114.6878090000000014
 21
132.4809789999999907
 31
0.0
  0
LINE
  5
63
  8
0
 10
133.0878089999999929
 20
133.0809790000000135
 30
0.0
 11
132.4878089999999986
 21
132.4809789999999907
 31
0.0
  0
LINE
  5
64
  8
0
 10
133.0878089999999929
 20
134.4809789999999907
 30
0.0
 11
133.0878089999999929
 21
133.0809790000000135
 31
0.0
  0
LINE
  5
65
  8
0
 10
144.0878089999999929
 20
135.4809789999999907
 30
0.0
 11
143.0878089999999929
 21
134.4809789999999907
 31
0.0
  0
LINE
  5
66
  8
0
 10
144.0878089999999929
 20
152.4809789999999907
 30
0.0
 11
144.0878089999999929
 21
151.9809789999999907
 31
0.0
  0
LINE
  5
67
  8
0
 10
142.0878089999999929
 20
154.4809789999999907
 30
0.0
 11
144.0878089999999929
 21
152.4809789999999907
 31
0.0
  0
LINE
  5
68
  8
0
 10
105.0878089999999929
 20
154.4809789999999907
 30
0.0
 11
142.0878089999999929
 21
154.4809789999999907
 31
0.0
  0
LINE
  5
69
  8
0
 10
144.0878089999999929
 20
152.4809789999999907
 30
0.0
 11
103.0878089999999929
 21
152.4809789999999907
 31
0.0
  0
LINE
  5
6A
  8
0
 10
103.0878089999999929
 20
135.4809789999999907
 30
0.0
 11
144.0878089999999929
 21
135.4809789999999907
 31
0.0
  0
LINE
  5
6B
  8
0
 10
104.0878089999999929
 20
134.4809789999999907
 30
0.0
 11
143.0878089999999929
 21
134.4809789999999907
 31
0.0
  0
LINE
  5
6C
  8
0
 10
114.6878090000000014
 20
132.4809789999999907
 30
0.0
 11
132.4878089999999986
 21
132.4809789999999907
 31
0.0
  0
ARC
  5
6D
  8
0
 10
163.6901049999999884
 20
145.9809789999999907
 30
0.0
 40
20.5
 50
162.9813530000000128
 51
197.0186469999999872
  0
LINE
  5
6E
  8
0
 10
144.0878089999999929
 20
139.9809789999999907
 30
0.0
 11
144.0878089999999929
 21
135.4809789999999907
 31
0.0
  0
LINE
  5
6F
  8
1
 10
123.5878089999999929
 20
159.4809789999999907
 30
0.0
 11
123.5878089999999929
 21
97.4809790000000049
 31
0.0
  0
LINE
  5
70
  8
0
 10
114.0878089999999929
 20
133.0809790000000135
 30
0.0
 11
133.0878089999999929
 21
133.0809790000000135
 31
0.0
  0
LINE
  5
71
  8
0
 10
241.5878089999999929
 20
35.987409999999997
 30
0.0
 11
143.1901049999999884
 21
35.987409999999997
 31
0.0
  0
LINE
  5
72
  8
0
 10
143.1901049999999884
 20
47.9874099999999899
 30
0.0
 11
241.5878089999999929
 21
47.9874099999999899
 31
0.0
  0
LINE
  5
73
  8
0
 10
241.5878089999999929
 20
49.4707250000000016
 30
0.0
 11
241.5878089999999929
 21
34.5040949999999995
 31
0.0
  0
ARC
  5
74
  8
0
 10
254.5878089999999929
 20
41.987409999999997
 30
0.0
 40
15.0
 50
209.9264349999999979
 51
150.0735650000000021
  0
LINE
  5
75
  8
1
 10
123.5878089999999929
 20
67.487409999999997
 30
0.0
 11
123.5878089999999929
 21
16.4874100000000006
 31
0.0
  0
LINE
  5
76
  8
1
 10
254.5878089999999929
 20
61.987409999999997
 30
0.0
 11
254.5878089999999929
 21
21.9874100000000006
 31
0.0
  0
LINE
  5
77
  8
1
 10
98.0878089999999929
 20
41.987409999999997
 30
0.0
 11
274.5878089999999929
 21
41.987409999999997
 31
0.0
  0
CIRCLE
  5
78
  8
0
 10
123.5878089999999929
 20
41.987409999999997
 30
0.0
 40
20.5
  0
CIRCLE
  5
79
  8
0
 10
123.5878089999999929
 20
41.987409999999997
 30
0.0
 40
19.5
  0
CIRCLE
  5
7A
  8
0
 10
123.5878089999999929
 20
41.987409999999997
 30
0.0
 40
9.5
  0
CIRCLE
  5
7B
  8
0
 10
123.5878089999999929
 20
41.987409999999997
 30
0.0
 40
8.9000000000000004
  0
CIRCLE
  5
7C
  8
0
 10
123.5878089999999929
 20
41.987409999999997
 30
0.0
 40
5.0
  0
CIRCLE
  5
7D
  8
3
 10
123.5878089999999929
 20
41.987409999999997
 30
0.0
 40
4.1879999999999988
  0
LINE
  5
7E
  8
0
 10
318.7576189999999769
 20
133.0809790000000135
 30
0.0
 11
320.6032079999999951
 21
133.0809790000000135
 31
0.0
  0
LINE
  5
7F
  8
1
 10
328.2576189999999769
 20
165.9809789999999907
 30
0.0
 11
328.2576189999999769
 21
97.4809790000000049
 31
0.0
  0
LINE
  5
80
  8
0
 10
348.7576189999999769
 20
152.4809789999999907
 30
0.0
 11
348.7576189999999769
 21
135.4809789999999907
 31
0.0
  0
LINE
  5
81
  8
0
 10
319.3576189999999997
 20
132.4809789999999907
 30
0.0
 11
321.719270999999992
 21
132.4809789999999907
 31
0.0
  0
LINE
  5
82
  8
0
 10
308.7576189999999769
 20
134.4809789999999907
 30
0.0
 11
318.626938999999993
 21
134.4809789999999907
 31
0.0
  0
LINE
  5
83
  8
0
 10
307.7576189999999769
 20
135.4809789999999907
 30
0.0
 11
317.5454760000000078
 21
135.4809789999999907
 31
0.0
  0
LINE
  5
84
  8
0
 10
348.7576189999999769
 20
152.4809789999999907
 30
0.0
 11
341.7761249999999791
 21
152.4809789999999907
 31
0.0
  0
LINE
  5
85
  8
0
 10
309.7576189999999769
 20
154.4809789999999907
 30
0.0
 11
315.8984120000000075
 21
154.4809789999999907
 31
0.0
  0
LINE
  5
86
  8
0
 10
346.7576189999999769
 20
154.4809789999999907
 30
0.0
 11
348.7576189999999769
 21
152.4809789999999907
 31
0.0
  0
LINE
  5
87
  8
0
 10
348.7576189999999769
 20
135.4809789999999907
 30
0.0
 11
347.7576189999999769
 21
134.4809789999999907
 31
0.0
  0
LINE
  5
88
  8
0
 10
337.7576189999999769
 20
134.4809789999999907
 30
0.0
 11
337.7576189999999769
 21
133.0809790000000135
 31
0.0
  0
LINE
  5
89
  8
0
 10
337.7576189999999769
 20
133.0809790000000135
 30
0.0
 11
337.1576190000000111
 21
132.4809789999999907
 31
0.0
  0
LINE
  5
8A
  8
0
 10
318.7576189999999769
 20
133.0809790000000135
 30
0.0
 11
319.3576189999999997
 21
132.4809789999999907
 31
0.0
  0
LINE
  5
8B
  8
0
 10
318.7576189999999769
 20
134.4809789999999907
 30
0.0
 11
318.7576189999999769
 21
133.0809790000000135
 31
0.0
  0
LINE
  5
8C
  8
0
 10
307.7576189999999769
 20
135.4809789999999907
 30
0.0
 11
308.7576189999999769
 21
134.4809789999999907
 31
0.0
  0
LINE
  5
8D
  8
0
 10
307.7576189999999769
 20
152.4809789999999907
 30
0.0
 11
307.7576189999999769
 21
135.4809789999999907
 31
0.0
  0
LINE
  5
8E
  8
0
 10
309.7576189999999769
 20
154.4809789999999907
 30
0.0
 11
307.7576189999999769
 21
152.4809789999999907
 31
0.0
  0
LINE
  5
8F
  8
1
 10
302.7576189999999769
 20
145.9809789999999907
 30
0.0
 11
353.7576189999999769
 21
145.9809789999999907
 31
0.0
  0
CIRCLE
  5
90
  8
0
 10
328.2576189999999769
 20
145.9809789999999907
 30
0.0
 40
15.0
  0
LINE
  5
91
  8
0
 10
340.6168260000000032
 20
154.4809789999999907
 30
0.0
 11
346.7576189999999769
 21
154.4809789999999907
 31
0.0
  0
LINE
  5
92
  8
0
 10
314.7391129999999748
 20
152.4809789999999907
 30
0.0
 11
307.7576189999999769
 21
152.4809789999999907
 31
0.0
  0
LINE
  5
93
  8
0
 10
338.9697620000000029
 20
135.4809789999999907
 30
0.0
 11
348.7576189999999769
 21
135.4809789999999907
 31
0.0
  0
LINE
  5
94
  8
0
 10
337.8882990000000177
 20
134.4809789999999907
 30
0.0
 11
347.7576189999999769
 21
134.4809789999999907
 31
0.0
  0
LINE
  5
95
  8
0
 10
335.9120290000000182
 20
133.0809790000000135
 30
0.0
 11
337.7576189999999769
 21
133.0809790000000135
 31
0.0
  0
LINE
  5
96
  8
0
 10
334.7959670000000187
 20
132.4809789999999907
 30
0.0
 11
337.1576190000000111
 21
132.4809789999999907
 31
0.0
  0
LINE
  5
97
  8
0
 10
65.6083420000000075
 20
152.4809789999999907
 30
0.0
 11
24.6083420000000004
 21
152.4809789999999907
 31
0.0
  0
ARC
  5
98
  8
0
 10
45.1083420000000004
 20
145.9809789999999907
 30
0.0
 40
15.0
 50
244.1580669999999884
 51
250.5287789999999859
  0
LINE
  5
99
  8
1
 10
19.6083420000000004
 20
145.9809789999999907
 30
0.0
 11
70.6083420000000075
 21
145.9809789999999907
 31
0.0
  0
LINE
  5
9A
  8
0
 10
26.6083420000000004
 20
154.4809789999999907
 30
0.0
 11
24.6083420000000004
 21
152.4809789999999907
 31
0.0
  0
LINE
  5
9B
  8
0
 10
24.6083420000000004
 20
152.4809789999999907
 30
0.0
 11
24.6083420000000004
 21
135.4809789999999907
 31
0.0
  0
LINE
  5
9C
  8
0
 10
24.6083420000000004
 20
135.4809789999999907
 30
0.0
 11
25.6083420000000004
 21
134.4809789999999907
 31
0.0
  0
LINE
  5
9D
  8
0
 10
35.6083420000000004
 20
134.4809789999999907
 30
0.0
 11
35.6083420000000004
 21
133.0809790000000135
 31
0.0
  0
LINE
  5
9E
  8
0
 10
35.6083420000000004
 20
133.0809790000000135
 30
0.0
 11
36.2083420000000018
 21
132.4809789999999907
 31
0.0
  0
LINE
  5
9F
  8
0
 10
54.6083420000000004
 20
133.0809790000000135
 30
0.0
 11
54.0083420000000132
 21
132.4809789999999907
 31
0.0
  0
LINE
  5
A0
  8
0
 10
54.6083420000000004
 20
134.4809789999999907
 30
0.0
 11
54.6083420000000004
 21
133.0809790000000135
 31
0.0
  0
LINE
  5
A1
  8
0
 10
65.6083420000000075
 20
135.4809789999999907
 30
0.0
 11
64.6083419999999933
 21
134.4809789999999907
 31
0.0
  0
LINE
  5
A2
  8
0
 10
63.6083420000000075
 20
154.4809789999999907
 30
0.0
 11
65.6083420000000075
 21
152.4809789999999907
 31
0.0
  0
LINE
  5
A3
  8
0
 10
26.6083420000000004
 20
154.4809789999999907
 30
0.0
 11
63.6083420000000075
 21
154.4809789999999907
 31
0.0
  0
LINE
  5
A4
  8
0
 10
24.6083420000000004
 20
135.4809789999999907
 30
0.0
 11
65.6083420000000075
 21
135.4809789999999907
 31
0.0
  0
LINE
  5
A5
  8
0
 10
25.6083420000000004
 20
134.4809789999999907
 30
0.0
 11
64.6083419999999933
 21
134.4809789999999907
 31
0.0
  0
LINE
  5
A6
  8
0
 10
36.2083420000000018
 20
132.4809789999999907
 30
0.0
 11
54.0083420000000132
 21
132.4809789999999907
 31
0.0
  0
LINE
  5
A7
  8
0
 10
65.6083420000000075
 20
152.4809789999999907
 30
0.0
 11
65.6083420000000075
 21
135.4809789999999907
 31
0.0
  0
LINE
  5
A8
  8
1
 10
45.1083420000000004
 20
165.9809789999999907
 30
0.0
 11
45.1083420000000004
 21
97.4809790000000049
 31
0.0
  0
LINE
  5
A9
  8
0
 10
35.6083420000000004
 20
133.0809790000000135
 30
0.0
 11
54.6083420000000004
 21
133.0809790000000135
 31
0.0
  0
ARC
  5
AA
  8
0
 10
45.1083420000000004
 20
145.9809789999999907
 30
0.0
 40
15.0
 50
34.518107999999998
 51
145.4818919999999878
  0
LINE
  5
AB
  8
0
 10
48.6083420000000004
 20
102.4809790000000049
 30
0.0
 11
50.1083420000000004
 21
103.9809790000000049
 31
0.0
  0
LINE
  5
AC
  8
0
 10
50.1083420000000004
 20
103.9809790000000049
 30
0.0
 11
50.1083420000000004
 21
132.0809790000000135
 31
0.0
  0
ARC
  5
AD
  8
0
 10
50.508341999999999
 20
132.0809790000000135
 30
0.0
 40
0.4
 50
90.0
 51
180.0
  0
LINE
  5
AE
  8
3
 10
50.1083420000000004
 20
132.0809790000000135
 30
0.0
 11
49.2963419999999886
 21
130.6745540000000005
 31
0.0
  0
LINE
  5
AF
  8
3
 10
49.2963419999999886
 20
130.6745540000000005
 30
0.0
 11
49.2963419999999886
 21
103.1689789999999931
 31
0.0
  0
LINE
  5
B0
  8
3
 10
40.9203419999999909
 20
130.6745540000000005
 30
0.0
 11
40.9203419999999909
 21
103.1689789999999931
 31
0.0
  0
LINE
  5
B1
  8
3
 10
40.1083420000000004
 20
132.0809790000000135
 30
0.0
 11
40.9203419999999909
 21
130.6745540000000005
 31
0.0
  0
ARC
  5
B2
  8
0
 10
39.7083420000000018
 20
132.0809790000000135
 30
0.0
 40
0.4
 50
0.0
 51
90.0
  0
LINE
  5
B3
  8
0
 10
40.1083420000000004
 20
103.9809790000000049
 30
0.0
 11
40.1083420000000004
 21
132.0809790000000135
 31
0.0
  0
LINE
  5
B4
  8
0
 10
41.6083420000000004
 20
102.4809790000000049
 30
0.0
 11
40.1083420000000004
 21
103.9809790000000049
 31
0.0
  0
LINE
  5
B5
  8
0
 10
40.1083420000000004
 20
130.6745540000000005
 30
0.0
 11
50.1083420000000004
 21
130.6745540000000005
 31
0.0
  0
LINE
  5
B6
  8
0
 10
40.1083420000000004
 20
103.9809790000000049
 30
0.0
 11
50.1083420000000004
 21
103.9809790000000049
 31
0.0
  0
LINE
  5
B7
  8
0
 10
41.6083420000000004
 20
102.4809790000000049
 30
0.0
 11
48.6083420000000004
 21
102.4809790000000049
 31
0.0
  0
ARC
  5
B8
  8
0
 10
45.1083420000000004
 20
145.9809789999999907
 30
0.0
 40
15.0
 50
289.4712210000000141
 51
295.8419329999999832
  0
LINE
  5
B9
  8
0
 10
331.7576189999999769
 20
102.4809790000000049
 30
0.0
 11
333.2576189999999769
 21
103.9809790000000049
 31
0.0
  0
LINE
  5
BA
  8
0
 10
333.2576189999999769
 20
103.9809790000000049
 30
0.0
 11
333.2576189999999769
 21
131.8388429999999971
 31
0.0
  0
LINE
  5
BB
  8
3
 10
333.0828450000000203
 20
131.7782609999999863
 30
0.0
 11
332.445619000000022
 21
130.6745540000000005
 31
0.0
  0
LINE
  5
BC
  8
3
 10
332.445619000000022
 20
130.6745540000000005
 30
0.0
 11
332.445619000000022
 21
103.1689789999999931
 31
0.0
  0
LINE
  5
BD
  8
3
 10
324.0696189999999888
 20
130.6745540000000005
 30
0.0
 11
324.0696189999999888
 21
103.1689789999999931
 31
0.0
  0
LINE
  5
BE
  8
3
 10
323.4323929999999905
 20
131.7782609999999863
 30
0.0
 11
324.0696189999999888
 21
130.6745540000000005
 31
0.0
  0
LINE
  5
BF
  8
0
 10
323.2576189999999769
 20
103.9809790000000049
 30
0.0
 11
323.2576189999999769
 21
131.8388429999999971
 31
0.0
  0
LINE
  5
C0
  8
0
 10
324.7576189999999769
 20
102.4809790000000049
 30
0.0
 11
323.2576189999999769
 21
103.9809790000000049
 31
0.0
  0
LINE
  5
C1
  8
0
 10
323.2576189999999769
 20
130.6745540000000005
 30
0.0
 11
333.2576189999999769
 21
130.6745540000000005
 31
0.0
  0
LINE
  5
C2
  8
0
 10
323.2576189999999769
 20
103.9809790000000049
 30
0.0
 11
333.2576189999999769
 21
103.9809790000000049
 31
0.0
  0
LINE
  5
C3
  8
0
 10
324.7576189999999769
 20
102.4809790000000049
 30
0.0
 11
331.7576189999999769
 21
102.4809790000000049
 31
0.0
  0
TEXT
  5
1C1
  8
0
 62
     3
 10
0.0
 20
0.0
 30
0.0
 40
10.0
  1
FT10X30
  7
STANDARD1
  0
ENDSEC
  0
EOF
