  0
SECTION
  2
HEADER
  9
$ACADVER
  1
AC1009
  9
$INSBASE
 10
0.0
 20
0.0
 30
0.0
  9
$EXTMIN
 10
0.0
 20
-2.960436562073669
 30
0.0
  9
$EXTMAX
 10
163.0164979058797
 20
120.6388389288569
 30
0.0
  9
$LIMMIN
 10
0.0
 20
0.0
  9
$LIMMAX
 10
187.5
 20
135.0
  9
$ORTHOMODE
 70
     1
  9
$REGENMODE
 70
     1
  9
$FILLMODE
 70
     1
  9
$QTEXTMODE
 70
     0
  9
$MIRRTEXT
 70
     0
  9
$DRAGMODE
 70
     2
  9
$LTSCALE
 40
5.0
  9
$OSMODE
 70
    55
  9
$ATTMODE
 70
     1
  9
$TEXTSIZE
 40
4.0
  9
$TRACEWID
 40
0.05
  9
$TEXTSTYLE
  7
STANDARD
  9
$CLAYER
  8
0
  9
$CELTYPE
  6
BYLAYER
  9
$CECOLOR
 62
   256
  9
$DIMSCALE
 40
0.5
  9
$DIMASZ
 40
0.18
  9
$DIMEXO
 40
0.0625
  9
$DIMDLI
 40
0.3799999999999999
  9
$DIMRND
 40
0.0
  9
$DIMDLE
 40
0.0
  9
$DIMEXE
 40
0.18
  9
$DIMTP
 40
0.0
  9
$DIMTM
 40
0.0
  9
$DIMTXT
 40
0.18
  9
$DIMCEN
 40
0.09
  9
$DIMTSZ
 40
0.0
  9
$DIMTOL
 70
     0
  9
$DIMLIM
 70
     0
  9
$DIMTIH
 70
     1
  9
$DIMTOH
 70
     1
  9
$DIMSE1
 70
     0
  9
$DIMSE2
 70
     0
  9
$DIMTAD
 70
     0
  9
$DIMZIN
 70
     0
  9
$DIMBLK
  1

  9
$DIMASO
 70
     1
  9
$DIMSHO
 70
     0
  9
$DIMPOST
  1

  9
$DIMAPOST
  1

  9
$DIMALT
 70
     0
  9
$DIMALTD
 70
     2
  9
$DIMALTF
 40
25.399999999999999
  9
$DIMLFAC
 40
1.0
  9
$DIMTOFL
 70
     0
  9
$DIMTVP
 40
0.0
  9
$DIMTIX
 70
     0
  9
$DIMSOXD
 70
     0
  9
$DIMSAH
 70
     0
  9
$DIMBLK1
  1

  9
$DIMBLK2
  1

  9
$DIMSTYLE
  2
STANDARD
  9
$DIMCLRD
 70
     0
  9
$DIMCLRE
 70
     0
  9
$DIMCLRT
 70
     0
  9
$DIMTFAC
 40
1.0
  9
$DIMGAP
 40
0.09
  9
$LUNITS
 70
     2
  9
$LUPREC
 70
     4
  9
$SKETCHINC
 40
0.1
  9
$FILLETRAD
 40
0.4
  9
$AUNITS
 70
     0
  9
$AUPREC
 70
     0
  9
$MENU
  1
E:\r13\win\SUPPORT\ACAD
  9
$ELEVATION
 40
0.0
  9
$PELEVATION
 40
0.0
  9
$THICKNESS
 40
0.0
  9
$LIMCHECK
 70
     0
  9
$BLIPMODE
 70
     0
  9
$CHAMFERA
 40
0.0
  9
$CHAMFERB
 40
0.0
  9
$SKPOLY
 70
     0
  9
$TDCREATE
 40
2449840.6176388888
  9
$TDUPDATE
 40
2456598.6669939351
  9
$TDINDWG
 40
0.0001423843
  9
$TDUSRTIMER
 40
0.0001423843
  9
$USRTIMER
 70
     1
  9
$ANGBASE
 50
0.0
  9
$ANGDIR
 70
     0
  9
$PDMODE
 70
     0
  9
$PDSIZE
 40
0.0
  9
$PLINEWID
 40
0.0
  9
$COORDS
 70
     1
  9
$SPLFRAME
 70
     0
  9
$SPLINETYPE
 70
     6
  9
$SPLINESEGS
 70
     8
  9
$ATTDIA
 70
     0
  9
$ATTREQ
 70
     1
  9
$HANDLING
 70
     1
  9
$HANDSEED
  5
2C7
  9
$SURFTAB1
 70
     6
  9
$SURFTAB2
 70
     6
  9
$SURFTYPE
 70
     6
  9
$SURFU
 70
     6
  9
$SURFV
 70
     6
  9
$UCSNAME
  2

  9
$UCSORG
 10
0.0
 20
0.0
 30
0.0
  9
$UCSXDIR
 10
1.0
 20
0.0
 30
0.0
  9
$UCSYDIR
 10
0.0
 20
1.0
 30
0.0
  9
$PUCSNAME
  2

  9
$PUCSORG
 10
0.0
 20
0.0
 30
0.0
  9
$PUCSXDIR
 10
1.0
 20
0.0
 30
0.0
  9
$PUCSYDIR
 10
0.0
 20
1.0
 30
0.0
  9
$USERI1
 70
     0
  9
$USERI2
 70
     1
  9
$USERI3
 70
     1
  9
$USERI4
 70
     0
  9
$USERI5
 70
     0
  9
$USERR1
 40
0.0
  9
$USERR2
 40
0.0
  9
$USERR3
 40
0.0
  9
$USERR4
 40
0.0
  9
$USERR5
 40
0.0
  9
$WORLDVIEW
 70
     1
  9
$SHADEDGE
 70
     3
  9
$SHADEDIF
 70
    70
  9
$TILEMODE
 70
     1
  9
$MAXACTVP
 70
    16
  9
$PLIMCHECK
 70
     0
  9
$PEXTMIN
 10
1.0000000000000000E+020
 20
1.0000000000000000E+020
 30
1.0000000000000000E+020
  9
$PEXTMAX
 10
-1.0000000000000000E+020
 20
-1.0000000000000000E+020
 30
-1.0000000000000000E+020
  9
$PLIMMIN
 10
0.0
 20
0.0
  9
$PLIMMAX
 10
12.0
 20
9.0
  9
$UNITMODE
 70
     0
  9
$VISRETAIN
 70
     0
  9
$PLINEGEN
 70
     0
  9
$PSLTSCALE
 70
     0
  0
ENDSEC
  0
SECTION
  2
TABLES
  0
TABLE
  2
VPORT
 70
     1
  0
VPORT
  2
*ACTIVE
 70
     0
 10
0.0
 20
0.0
 11
1.0
 21
1.0
 12
93.74713919532617
 22
86.941769983850563
 13
0.0
 23
0.0
 14
5.0
 24
5.0
 15
5.0
 25
5.0
 16
0.0
 26
0.0
 36
1.0
 17
0.0
 27
0.0
 37
0.0
 40
181.41026326986619
 41
1.7807262569832401
 42
50.0
 43
0.0
 44
0.0
 50
0.0
 51
0.0
 71
     0
 72
   100
 73
     1
 74
     0
 75
     0
 76
     0
 77
     0
 78
     0
  0
ENDTAB
  0
TABLE
  2
LTYPE
 70
     4
  0
LTYPE
  2
CONTINUOUS
 70
     0
  3
Solid Line
 72
    65
 73
     0
 40
0.0
  0
LTYPE
  2
CENTER
 70
     0
  3
____ _ ____ _ ____ _ ____ _ ____ _ ____ _ ____
 72
    65
 73
     4
 40
2.0
 49
1.25
 49
-0.25
 49
0.25
 49
-0.25
  0
LTYPE
  2
HIDDEN
 70
     0
  3
_ _ _ _ _ _ _ _ _ _ _ _ _ _ _ _ _ _ _ _ _ _ _
 72
    65
 73
     2
 40
0.375
 49
0.25
 49
-0.125
  0
LTYPE
  2
PHANTOM2
 70
     0
  3
___ _ _ ___ _ _ ___ _ _ ___ _ _
 72
    65
 73
     6
 40
1.25
 49
0.625
 49
-0.125
 49
0.125
 49
-0.125
 49
0.125
 49
-0.125
  0
ENDTAB
  0
TABLE
  2
LAYER
 70
     3
  0
LAYER
  2
0
 70
     0
 62
     7
  6
CONTINUOUS
  0
LAYER
  2
1
 70
     0
 62
     1
  6
CENTER
  0
LAYER
  2
2
 70
     0
 62
     2
  6
HIDDEN
  0
ENDTAB
  0
TABLE
  2
STYLE
 70
     4
  0
STYLE
  2
STANDARD
 70
     0
 40
0.0
 41
1.0
 50
0.0
 71
     0
 42
4.0
  3
TXT
  4
BIGFONT
  0
STYLE
  2
COMPLEX
 70
     0
 40
3.5
 41
0.4
 50
0.0
 71
     0
 42
4.0
  3
TXT
  4

  0
STYLE
  2
COMPLEX1
 70
     0
 40
4.0
 41
0.05
 50
0.0
 71
     0
 42
4.0
  3
TXT
  4

  0
STYLE
  2
STANDARD1
 70
     0
 40
0.0
 41
1.0
 50
0.0
 71
     0
 42
3.0
  3
txt
  4

  0
ENDTAB
  0
TABLE
  2
VIEW
 70
     1
  0
VIEW
  2
ALL
 70
     0
 40
175.0
 10
143.23529411764699
 20
87.5
 41
0.0
 11
0.0
 21
0.0
 31
1.0
 12
0.0
 22
0.0
 32
0.0
 42
0.0
 43
0.0
 44
0.0
 50
0.0
 71
     0
  0
ENDTAB
  0
TABLE
  2
UCS
 70
     0
  0
ENDTAB
  0
TABLE
  2
APPID
 70
     3
  0
APPID
  2
ACAD
 70
     0
  0
APPID
  2
ACAD_MLEADERVER
 70
     0
  0
APPID
  2
ACAD_NAV_VCDISPLAY
 70
     0
  0
ENDTAB
  0
TABLE
  2
DIMSTYLE
 70
     1
  0
DIMSTYLE
  2
STANDARD
 70
     0
  3

  4

  5

  6

  7

 40
1.0
 41
0.18
 42
0.0625
 43
0.38
 44
0.18
 45
0.0
 46
0.0
 47
0.0
 48
0.0
140
0.18
141
0.09
142
0.0
143
25.399999999999999
144
1.0
145
0.0
146
1.0
147
0.09
 71
     0
 72
     0
 73
     1
 74
     1
 75
     0
 76
     0
 77
     0
 78
     0
170
     0
171
     2
172
     0
173
     0
174
     0
175
     0
176
     0
177
     0
178
     0
  0
ENDTAB
  0
ENDSEC
  0
SECTION
  2
BLOCKS
  0
BLOCK
  8
0
  2
$MODEL_SPACE
 70
     0
 10
0.0
 20
0.0
 30
0.0
  3
$MODEL_SPACE
  1

  0
ENDBLK
  5
146
  8
0
  0
BLOCK
 67
     1
  8
0
  2
$PAPER_SPACE
 70
     0
 10
0.0
 20
0.0
 30
0.0
  3
$PAPER_SPACE
  1

  0
ENDBLK
  5
144
 67
     1
  8
0
  0
ENDSEC
  0
SECTION
  2
ENTITIES
  0
LINE
  5
37
  8
1
 10
64.905660817705524
 20
111.1388389288569
 30
0.0
 11
116.9056608177055
 21
111.1388389288569
 31
0.0
  0
LINE
  5
38
  8
0
 10
80.717146116352978
 20
51.185551558753012
 30
0.0
 11
80.917146116482044
 21
51.385551558882057
 31
0.0
  0
LINE
  5
39
  8
0
 10
80.917146116482044
 20
51.385551558882057
 30
0.0
 11
81.105660817704546
 21
62.185551558753012
 31
0.0
  0
LINE
  5
3A
  8
0
 10
81.405660817705581
 20
62.185551558753012
 30
0.0
 11
67.405660817705581
 21
62.185551558753012
 31
0.0
  0
LINE
  5
3B
  8
0
 10
67.894175518929117
 20
51.385551558882057
 30
0.0
 11
67.705660817706601
 21
62.185551558753012
 31
0.0
  0
LINE
  5
3C
  8
0
 10
68.094175519058183
 20
51.185551558753012
 30
0.0
 11
67.894175518929117
 21
51.385551558882057
 31
0.0
  0
LINE
  5
3D
  8
0
 10
80.717146116352978
 20
51.185551558753012
 30
0.0
 11
68.094175519058183
 21
51.185551558753012
 31
0.0
  0
LINE
  5
3E
  8
0
 10
67.405660817705581
 20
62.185551558753012
 30
0.0
 11
67.405660817705595
 21
62.685551558784191
 31
0.0
  0
LINE
  5
3F
  8
0
 10
67.405660817705595
 20
62.685551558784191
 30
0.0
 11
68.284215280058035
 21
67.668081508651596
 31
0.0
  0
LINE
  5
40
  8
0
 10
68.886596673190738
 20
68.307367826769621
 30
0.0
 11
111.3598285925256
 21
78.42975366582229
 31
0.0
  0
LINE
  5
41
  8
0
 10
79.304640303211841
 20
116.1388389288569
 30
0.0
 11
112.4638302553081
 21
115.1740050405237
 31
0.0
  0
LINE
  5
42
  8
0
 10
79.304640303042575
 20
62.185551558753012
 30
0.0
 11
114.40566081770559
 21
74.961278218495352
 31
0.0
  0
LINE
  5
43
  8
0
 10
79.304640303343305
 20
62.18555155860308
 30
0.0
 11
76.852587826292392
 21
70.205853823675085
 31
0.0
  0
LINE
  5
44
  8
0
 10
112.2006150372338
 20
78.110409954651118
 30
0.0
 11
114.40566081770559
 21
74.961278218495352
 31
0.0
  0
LINE
  5
45
  8
0
 10
114.10566081766601
 20
74.85208333352611
 30
0.0
 11
113.945749512205
 21
71.800793856101123
 31
0.0
  0
LINE
  5
46
  8
0
 10
113.4204619990619
 20
71.090908524466641
 30
0.0
 11
103.1999144631061
 21
67.370933443475963
 31
0.0
  0
LINE
  5
47
  8
0
 10
102.27097671301431
 20
67.663826391023861
 30
0.0
 11
101.2662551929895
 21
69.098717427178229
 31
0.0
  0
LINE
  5
48
  8
0
 10
81.405660817476189
 20
62.185551558669538
 30
0.0
 11
100.8017863179433
 21
69.245163900952036
 31
0.0
  0
LINE
  5
49
  8
0
 10
67.405660817705581
 20
62.68555155878424
 30
0.0
 11
79.151774962559259
 21
62.685551558782109
 31
0.0
  0
LINE
  5
4A
  8
0
 10
22.1598121028305
 20
62.185551558753012
 30
0.0
 11
22.1598121028305
 21
62.685551558784191
 31
0.0
  0
LINE
  5
4B
  8
0
 10
22.84832680418311
 20
51.185551558753012
 30
0.0
 11
22.648326804054051
 21
51.385551558882057
 31
0.0
  0
LINE
  5
4C
  8
0
 10
22.648326804054051
 20
51.385551558882057
 30
0.0
 11
22.459812102831538
 21
62.185551558753012
 31
0.0
  0
LINE
  5
4D
  8
0
 10
22.1598121028305
 20
62.185551558753012
 30
0.0
 11
36.1598121028305
 21
62.185551558753012
 31
0.0
  0
LINE
  5
4E
  8
0
 10
35.67129740160695
 20
51.385551558882057
 30
0.0
 11
35.859812102829473
 21
62.185551558753012
 31
0.0
  0
LINE
  5
4F
  8
0
 10
35.471297401477898
 20
51.185551558753012
 30
0.0
 11
35.67129740160695
 21
51.385551558882057
 31
0.0
  0
LINE
  5
50
  8
0
 10
22.84832680418311
 20
51.185551558753012
 30
0.0
 11
35.471297401477898
 21
51.185551558753012
 31
0.0
  0
LINE
  5
51
  8
0
 10
36.1598121028305
 20
62.185551558753012
 30
0.0
 11
36.1598121028305
 21
62.685551558784191
 31
0.0
  0
LINE
  5
52
  8
0
 10
36.1598121028305
 20
62.68555155878424
 30
0.0
 11
22.1598121028305
 21
62.685551558730808
 31
0.0
  0
LINE
  5
53
  8
0
 10
79.304640303273672
 20
116.13883892885509
 30
0.0
 11
76.852587826292407
 21
115.9095165317719
 31
0.0
  0
LINE
  5
54
  8
0
 10
76.852587826292407
 20
115.9095165317719
 30
0.0
 11
110.0103982077248
 21
115.0871638297465
 31
0.0
  0
LINE
  5
55
  8
0
 10
81.715660817705512
 20
113.5388389288569
 30
0.0
 11
81.715660817705512
 21
108.73883892885689
 31
0.0
  0
LINE
  5
56
  8
0
 10
87.36566081770556
 20
113.5388389288569
 30
0.0
 11
87.365660817705589
 21
108.73883892885689
 31
0.0
  0
LINE
  5
57
  8
0
 10
82.215660817705526
 20
114.0388389288569
 30
0.0
 11
86.865660817705546
 21
114.0388389288569
 31
0.0
  0
ARC
  5
58
  8
0
 10
86.865660817705546
 20
113.5388389288569
 30
0.0
 40
0.5
 50
0.0
 51
90.0
  0
ARC
  5
59
  8
0
 10
82.215660817705526
 20
113.5388389288569
 30
0.0
 40
0.5
 50
89.999999999999844
 51
179.99999999999989
  0
ARC
  5
5A
  8
0
 10
82.215660817705526
 20
108.73883892885689
 30
0.0
 40
0.5
 50
180.00000000000011
 51
270.00000000000023
  0
LINE
  5
5B
  8
0
 10
82.215660817705526
 20
108.23883892885689
 30
0.0
 11
86.865660817705546
 21
108.23883892885689
 31
0.0
  0
ARC
  5
5C
  8
0
 10
86.865660817705546
 20
108.73883892885689
 30
0.0
 40
0.5
 50
270.0
 51
0.0
  0
LINE
  5
5D
  8
0
 10
76.852587826292208
 20
106.368161325942
 30
0.0
 11
110.0103982077248
 21
107.1905140279673
 31
0.0
  0
LINE
  5
5E
  8
0
 10
79.304640303273672
 20
106.1388389288587
 30
0.0
 11
76.852587826292407
 21
106.368161325942
 31
0.0
  0
LINE
  5
5F
  8
0
 10
79.304640303211841
 20
106.1388389288569
 30
0.0
 11
112.4638302553081
 21
107.1036728171901
 31
0.0
  0
ARC
  5
60
  8
0
 10
74.405660817705581
 20
111.1388389288569
 30
0.0
 40
7.0
 50
45.584691402704983
 51
314.41530859721217
  0
LINE
  5
61
  8
0
 10
111.96081110319111
 20
113.0877786444798
 30
0.0
 11
111.96081110319101
 21
109.189899213234
 31
0.0
  0
LINE
  5
62
  8
0
 10
114.40566081770559
 20
113.1748511403627
 30
0.0
 11
114.40566081770559
 21
109.10282671735111
 31
0.0
  0
ARC
  5
63
  8
0
 10
112.4056608177055
 20
113.1748511403627
 30
0.0
 40
2.0
 50
0.0
 51
88.333333330000045
  0
ARC
  5
64
  8
0
 10
112.4056608177055
 20
109.10282671735111
 30
0.0
 40
2.0
 50
271.66666666999993
 51
0.0
  0
ARC
  5
65
  8
0
 10
109.96081110319101
 20
109.189899213234
 30
0.0
 40
2.0
 50
271.42071148607079
 51
0.0
  0
ARC
  5
66
  8
0
 10
109.96081110319111
 20
113.0877786444798
 30
0.0
 40
2.0
 50
0.0
 51
88.579288513929114
  0
LINE
  5
67
  8
0
 10
113.6724260981597
 20
114.46989382453459
 30
0.0
 11
111.74848138780079
 21
114.3319602027409
 31
0.0
  0
LINE
  5
68
  8
0
 10
113.6724260981597
 20
107.8077840331793
 30
0.0
 11
111.74848138780079
 21
107.9457176549729
 31
0.0
  0
LINE
  5
69
  8
0
 10
26.380830220164931
 20
78.452885465071603
 30
0.0
 11
31.938793985496119
 21
78.452885465071518
 31
0.0
  0
LINE
  5
6A
  8
0
 10
24.210503478148709
 20
70.402809860295406
 30
0.0
 11
25.394029403492262
 21
77.614824182536523
 31
0.0
  0
ARC
  5
6B
  8
0
 10
26.380830220164921
 20
77.452885465071603
 30
0.0
 40
1.0
 50
89.999999999999574
 51
170.68055573744959
  0
ARC
  5
6C
  8
0
 10
31.938793985496108
 20
77.452885465071503
 30
0.0
 40
1.0
 50
9.3194442625503822
 51
89.999999999998963
  0
LINE
  5
6D
  8
0
 10
23.36184096137146
 20
69.502595970829958
 30
0.0
 11
22.1598121028305
 21
62.685551558730808
 31
0.0
  0
LINE
  5
6E
  8
0
 10
34.957783244289537
 20
69.502595970829958
 30
0.0
 11
36.1598121028305
 21
62.685551558730808
 31
0.0
  0
ARC
  5
6F
  8
0
 10
29.1598121028305
 20
95.704986936056599
 30
0.0
 40
27.51943537730358
 50
259.04266475189911
 51
280.957335248101
  0
ARC
  5
70
  8
0
 10
34.254139593323863
 20
69.387124693889803
 30
0.0
 40
0.7130553999113103
 50
281.03715720475287
 51
48.473942909635852
  0
ARC
  5
71
  8
0
 10
24.065484612337261
 20
69.387124693889803
 30
0.0
 40
0.7130553999112408
 50
131.52605709007199
 51
258.96284279571211
  0
LINE
  5
72
  8
0
 10
26.459812102829918
 20
71.244743604519414
 30
0.0
 11
31.8598121028311
 21
71.244743604519414
 31
0.0
  0
LINE
  5
73
  8
0
 10
32.059812102831103
 20
71.444743604519402
 30
0.0
 11
32.059812102831089
 21
72.391273581333451
 31
0.0
  0
LINE
  5
74
  8
0
 10
26.259812102829919
 20
71.444743604519402
 30
0.0
 11
26.259812102829901
 21
72.391273581333479
 31
0.0
  0
LINE
  5
75
  8
0
 10
26.4598121028299
 20
72.591273581333468
 30
0.0
 11
31.859812102831089
 21
72.591273581333439
 31
0.0
  0
ARC
  5
76
  8
0
 10
31.8598121028311
 20
71.444743604519402
 30
0.0
 40
0.2
 50
270.0
 51
0.0
  0
ARC
  5
77
  8
0
 10
31.859812102831089
 20
72.391273581333451
 30
0.0
 40
0.2
 50
0.0
 51
89.999999999999716
  0
ARC
  5
78
  8
0
 10
26.4598121028299
 20
72.391273581333479
 30
0.0
 40
0.2
 50
89.999999999999687
 51
179.99999999999989
  0
ARC
  5
79
  8
0
 10
26.459812102829918
 20
71.444743604519402
 30
0.0
 40
0.2
 50
180.0
 51
269.99999999999989
  0
ARC
  5
7A
  8
0
 10
23.717103069812381
 20
70.483779219027866
 30
0.0
 40
0.5
 50
287.37671312479102
 51
350.68055573744948
  0
ARC
  5
7B
  8
0
 10
23.895679049301549
 20
69.433041274198587
 30
0.0
 40
0.5743023799548847
 50
92.919366280204557
 51
121.8340599686305
  0
LINE
  5
7C
  8
0
 10
34.109120727512291
 20
70.402809860295406
 30
0.0
 11
32.925594802168753
 21
77.614824182536523
 31
0.0
  0
ARC
  5
7D
  8
0
 10
34.602521135848619
 20
70.483779219027866
 30
0.0
 40
0.5
 50
189.31944426255049
 51
252.623286875209
  0
ARC
  5
7E
  8
0
 10
34.423945156359451
 20
69.433041274198587
 30
0.0
 40
0.5743023799548847
 50
58.16594003136953
 51
87.080633719795443
  0
ARC
  5
7F
  8
0
 10
111.5452934018026
 20
77.651548805570286
 30
0.0
 40
0.8
 50
34.999999999999723
 51
103.40489505554621
  0
ARC
  5
80
  8
0
 10
113.1468458844013
 20
71.842662621095371
 30
0.0
 40
0.8
 50
289.99999999999977
 51
357.00000000000949
  0
ARC
  5
81
  8
0
 10
102.9262983484455
 20
68.122687540104693
 30
0.0
 40
0.8
 50
215.00000000000071
 51
289.99999999999977
  0
ARC
  5
82
  8
0
 10
69.072061482467731
 20
67.529162966517603
 30
0.0
 40
0.8
 50
103.40489505554621
 51
169.99999999996811
  0
ARC
  5
83
  8
0
 10
100.93859437527399
 20
68.869286852637799
 30
0.0
 40
0.4
 50
35.000000000000469
 51
110.0000000000541
  0
LINE
  5
84
  8
1
 10
29.1598121028305
 20
48.685551558752998
 30
0.0
 11
29.1598121028305
 21
80.95288546507156
 31
0.0
  0
LINE
  5
85
  8
1
 10
74.405660817705595
 20
48.685551558753012
 30
0.0
 11
74.405660817705581
 21
72.192710020560071
 31
0.0
  0
LINE
  5
86
  8
1
 10
74.405660817705581
 20
101.6388389288569
 30
0.0
 11
74.405660817705581
 21
120.6388389288569
 31
0.0
  0
LINE
  5
87
  8
1
 10
154.41250076298601
 20
48.685551558753019
 30
0.0
 11
154.41250076298601
 21
80.952885465071546
 31
0.0
  0
ARC
  5
88
  8
0
 10
159.67663381651491
 20
69.433041274198587
 30
0.0
 40
0.5743023799548847
 50
58.16594003136953
 51
87.080633719795443
  0
ARC
  5
89
  8
0
 10
159.85520979600409
 20
70.483779219027866
 30
0.0
 40
0.5
 50
189.31944426255049
 51
252.623286875209
  0
LINE
  5
8A
  8
0
 10
159.36180938766779
 20
70.402809860295406
 30
0.0
 11
158.1782834623242
 21
77.614824182536523
 31
0.0
  0
ARC
  5
8B
  8
0
 10
149.14836770945709
 20
69.433041274198587
 30
0.0
 40
0.5743023799548847
 50
92.919366280204557
 51
121.8340599686305
  0
ARC
  5
8C
  8
0
 10
148.96979172996791
 20
70.483779219027866
 30
0.0
 40
0.5
 50
287.37671312479102
 51
350.68055573744948
  0
ARC
  5
8D
  8
0
 10
149.31817327249269
 20
69.387124693889803
 30
0.0
 40
0.7130553999112408
 50
131.52605709007199
 51
170.6805557376864
  0
LINE
  5
8E
  8
0
 10
160.210471904445
 20
69.502595970829958
 30
0.0
 11
161.41250076298601
 21
62.685551558730808
 31
0.0
  0
LINE
  5
8F
  8
0
 10
148.61452962152691
 20
69.502595970829958
 30
0.0
 11
147.41250076298601
 21
62.685551558730808
 31
0.0
  0
ARC
  5
90
  8
0
 10
157.1914826456516
 20
77.452885465071503
 30
0.0
 40
1.0
 50
9.3194442625503822
 51
89.999999999998963
  0
ARC
  5
91
  8
0
 10
151.63351888032039
 20
77.452885465071603
 30
0.0
 40
1.0
 50
89.999999999999574
 51
170.68055573744959
  0
LINE
  5
92
  8
0
 10
149.46319213830421
 20
70.402809860295406
 30
0.0
 11
150.64671806364771
 21
77.614824182536523
 31
0.0
  0
LINE
  5
93
  8
0
 10
151.63351888032039
 20
78.452885465071603
 30
0.0
 11
157.1914826456516
 21
78.452885465071518
 31
0.0
  0
LINE
  5
94
  8
0
 10
161.41250076298601
 20
62.68555155878424
 30
0.0
 11
159.39413081204069
 21
62.685551558776517
 31
0.0
  0
LINE
  5
95
  8
0
 10
161.41250076298601
 20
62.185551558753012
 30
0.0
 11
161.41250076298601
 21
62.685551558784191
 31
0.0
  0
LINE
  5
96
  8
0
 10
148.10101546433859
 20
51.185551558753012
 30
0.0
 11
160.72398606163341
 21
51.185551558753012
 31
0.0
  0
LINE
  5
97
  8
0
 10
160.72398606163341
 20
51.185551558753012
 30
0.0
 11
160.92398606176241
 21
51.385551558882057
 31
0.0
  0
LINE
  5
98
  8
0
 10
160.92398606176241
 20
51.385551558882057
 30
0.0
 11
161.11250076298501
 21
62.185551558753012
 31
0.0
  0
LINE
  5
99
  8
0
 10
147.41250076298601
 20
62.185551558753012
 30
0.0
 11
161.41250076298601
 21
62.185551558753012
 31
0.0
  0
LINE
  5
9A
  8
0
 10
147.90101546420951
 20
51.385551558882057
 30
0.0
 11
147.71250076298699
 21
62.185551558753012
 31
0.0
  0
LINE
  5
9B
  8
0
 10
148.10101546433859
 20
51.185551558753012
 30
0.0
 11
147.90101546420951
 21
51.385551558882057
 31
0.0
  0
LINE
  5
9C
  8
0
 10
147.41250076298601
 20
62.185551558753012
 30
0.0
 11
147.41250076298601
 21
62.685551558784191
 31
0.0
  0
ARC
  5
9D
  8
0
 10
159.50682825347931
 20
69.387124693889803
 30
0.0
 40
0.7130553999113103
 50
9.3194442623150717
 51
48.473942909635852
  0
LINE
  5
9E
  8
0
 10
149.4308707139312
 20
69.705853823671447
 30
0.0
 11
149.4308707139312
 21
62.185551558753012
 31
0.0
  0
LINE
  5
9F
  8
0
 10
159.39413081204069
 20
69.705853823671447
 30
0.0
 11
159.39413081204069
 21
62.185551558753012
 31
0.0
  0
LINE
  5
A0
  8
0
 10
149.4308707139312
 20
62.685551558738489
 30
0.0
 11
147.41250076298601
 21
62.685551558730808
 31
0.0
  0
LINE
  5
A1
  8
0
 10
158.61374300278061
 20
74.961278218500297
 30
0.0
 11
158.33166176569421
 21
74.852087222375218
 31
0.0
  0
LINE
  5
A2
  8
0
 10
150.49333976027779
 20
74.852087222375218
 30
0.0
 11
151.12698033237979
 21
71.258532965650545
 31
0.0
  0
LINE
  5
A3
  8
0
 10
150.2112585231915
 20
74.961278218500297
 30
0.0
 11
150.49333976027779
 21
74.852087222375218
 31
0.0
  0
LINE
  5
A4
  8
0
 10
157.6684645900732
 20
71.090909137464124
 30
0.0
 11
151.1565369358988
 21
71.090909137464166
 31
0.0
  0
LINE
  5
A5
  8
0
 10
158.33166176569421
 20
74.852087222375218
 30
0.0
 11
150.49333976027779
 21
74.852087222375218
 31
0.0
  0
LINE
  5
A6
  8
0
 10
150.2316201657261
 20
69.061126230021785
 30
0.0
 11
150.46529975014971
 21
67.735863451268557
 31
0.0
  0
LINE
  5
A7
  8
0
 10
150.17224892886341
 20
69.059133897704129
 30
0.0
 11
149.4308707139312
 21
62.185551558753012
 31
0.0
  0
ARC
  5
A8
  8
0
 10
150.1421725793677
 20
71.084884787983157
 30
0.0
 40
1.0
 50
350.68055573744908
 51
10.00000000002645
  0
ARC
  5
A9
  8
0
 10
150.20207593313569
 20
69.05591678469176
 30
0.0
 40
0.03
 50
10.00000000003058
 51
173.84392913988501
  0
LINE
  5
AA
  8
0
 10
150.61275883744719
 20
67.777305818621755
 30
0.0
 11
151.12897339604041
 21
70.922946070518236
 31
0.0
  0
LINE
  5
AB
  8
0
 10
150.95770362665581
 20
67.322687540102294
 30
0.0
 11
157.6981074656907
 21
67.322687540102294
 31
0.0
  0
ARC
  5
AC
  8
0
 10
150.95770362665581
 20
67.822687540102294
 30
0.0
 40
0.5
 50
190.0000000000301
 51
269.99999999999989
  0
ARC
  5
AD
  8
0
 10
157.8672978993163
 20
67.822687540102294
 30
0.0
 40
0.5
 50
270.00000000000011
 51
349.99999999996987
  0
LINE
  5
AE
  8
0
 10
158.21224268852481
 20
67.777305818621755
 30
0.0
 11
157.6960281299317
 21
70.922946070518236
 31
0.0
  0
ARC
  5
AF
  8
0
 10
158.62292559283631
 20
69.05591678469176
 30
0.0
 40
0.03
 50
6.1560708601150163
 51
169.99999999996939
  0
ARC
  5
B0
  8
0
 10
158.6828289466043
 20
71.084884787983157
 30
0.0
 40
1.0
 50
169.99999999997351
 51
189.319444262551
  0
LINE
  5
B1
  8
0
 10
158.5933813602459
 20
69.061126230021785
 30
0.0
 11
158.35970177582229
 21
67.735863451268557
 31
0.0
  0
LINE
  5
B2
  8
0
 10
158.33166176569421
 20
74.852087222375218
 30
0.0
 11
157.69802119359221
 21
71.258532965650545
 31
0.0
  0
LINE
  5
B3
  8
0
 10
150.95770362665581
 20
67.322687540102294
 30
0.0
 11
157.8672978993163
 21
67.322687540102294
 31
0.0
  0
LINE
  5
B4
  8
0
 10
158.65275259710859
 20
69.059133897704129
 30
0.0
 11
159.39413081204069
 21
62.185551558753012
 31
0.0
  0
LINE
  5
B5
  8
0
 10
156.84004409045829
 20
67.322687540102294
 30
0.0
 11
157.3463605854235
 21
62.62844639891798
 31
0.0
  0
LINE
  5
B6
  8
0
 10
151.98495743551371
 20
67.322687540102294
 30
0.0
 11
151.4786409405485
 21
62.628446398918008
 31
0.0
  0
ARC
  5
B7
  8
0
 10
151.8763343308471
 20
62.585551558753068
 30
0.0
 40
0.4
 50
173.84392913988501
 51
269.99999999999972
  0
ARC
  5
B8
  8
0
 10
156.94866719512481
 20
62.585551558753039
 30
0.0
 40
0.4
 50
269.99999999999937
 51
6.1560708601151299
  0
LINE
  5
B9
  8
0
 10
158.61374300278061
 20
74.961278218500325
 30
0.0
 11
150.21125852319139
 21
74.961278218500297
 31
0.0
  0
TEXT
  5
BA
  8
0
 10
82.440660817705535
 20
109.8888389288569
 30
0.0
 40
3.5
  1
Kipp
 41
0.4
  7
COMPLEX
 72
     1
 11
84.540660817705529
 21
109.8888389288569
 31
0.0
  0
TEXT
  5
BB
  8
0
 10
30.436636323188299
 20
71.625820389761358
 30
0.0
 40
4.0
  1
Kipp
 50
90.0
 41
0.05
  7
COMPLEX1
 72
     1
 11
30.436636323188299
 21
71.925820389761356
 31
0.0
  0
ARC
  5
BC
  8
0
 10
73.956421742768498
 20
111.1388389288569
 30
0.0
 40
5.5809625311687068
 50
58.739047916201621
 51
301.26095208379832
  0
CIRCLE
  5
BD
  8
2
 10
74.405660817705581
 20
56.685551558753353
 30
0.0
 40
2.0
  0
LINE
  5
BE
  8
1
 10
77.905660817702355
 20
56.685551558753012
 30
0.0
 11
70.90565700300823
 21
56.685551558753012
 31
0.0
  0
LINE
  5
BF
  8
2
 10
75.405660817701943
 20
57.262900726732163
 30
0.0
 11
75.405660817701943
 21
56.108200188357102
 31
0.0
  0
LINE
  5
C0
  8
2
 10
74.405660817705538
 20
57.840250995919646
 30
0.0
 11
75.405660817701914
 21
57.262900726732127
 31
0.0
  0
LINE
  5
C1
  8
2
 10
73.405660817709176
 20
57.262900726732077
 30
0.0
 11
74.405660817705552
 21
57.840250995919618
 31
0.0
  0
LINE
  5
C2
  8
2
 10
73.405660817709247
 20
56.10820018835701
 30
0.0
 11
73.405660817709247
 21
57.262900726732077
 31
0.0
  0
LINE
  5
C3
  8
2
 10
74.405660817705652
 20
55.53084991916954
 30
0.0
 11
73.405660817709276
 21
56.10820018835706
 31
0.0
  0
LINE
  5
C4
  8
2
 10
75.405660817702014
 20
56.108200188357102
 30
0.0
 11
74.405660817705623
 21
55.53084991916954
 31
0.0
  0
LINE
  5
C5
  8
2
 10
77.105660817843372
 20
51.185551558753012
 30
0.0
 11
76.90566081770632
 21
51.385551558890079
 31
0.0
  0
LINE
  5
C6
  8
2
 10
76.90566081770632
 20
51.385551558890079
 30
0.0
 11
76.90566081770632
 21
64.185551558753019
 31
0.0
  0
LINE
  5
C7
  8
2
 10
71.90566081770487
 20
51.385551558890079
 30
0.0
 11
71.90566081770487
 21
64.185551558753019
 31
0.0
  0
LINE
  5
C8
  8
2
 10
71.705660817567804
 20
51.185551558753012
 30
0.0
 11
71.90566081770487
 21
51.385551558890079
 31
0.0
  0
LINE
  5
C9
  8
2
 10
76.90566081770632
 20
64.185551558753019
 30
0.0
 11
71.90566081770487
 21
64.185551558753019
 31
0.0
  0
LINE
  5
CA
  8
2
 10
76.905660817706334
 20
64.185551558753019
 30
0.0
 11
71.905660817704856
 21
51.385551558890079
 31
0.0
  0
LINE
  5
CB
  8
2
 10
76.905660817706334
 20
51.385551558890107
 30
0.0
 11
71.90566081770487
 21
64.185551558753019
 31
0.0
  0
LINE
  5
CC
  8
2
 10
31.65981210283126
 20
51.385551558890107
 30
0.0
 11
26.65981210282979
 21
64.185551558753019
 31
0.0
  0
LINE
  5
CD
  8
2
 10
31.65981210283126
 20
64.185551558753019
 30
0.0
 11
26.659812102829779
 21
51.385551558890079
 31
0.0
  0
LINE
  5
CE
  8
2
 10
31.65981210283125
 20
64.185551558753019
 30
0.0
 11
26.65981210282979
 21
64.185551558753019
 31
0.0
  0
LINE
  5
CF
  8
2
 10
26.459812102692741
 20
51.185551558753012
 30
0.0
 11
26.65981210282979
 21
51.385551558890079
 31
0.0
  0
LINE
  5
D0
  8
2
 10
26.65981210282979
 20
51.385551558890079
 30
0.0
 11
26.65981210282979
 21
64.185551558753019
 31
0.0
  0
LINE
  5
D1
  8
2
 10
31.65981210283125
 20
51.385551558890079
 30
0.0
 11
31.65981210283125
 21
64.185551558753019
 31
0.0
  0
LINE
  5
D2
  8
2
 10
31.859812102968299
 20
51.185551558753012
 30
0.0
 11
31.65981210283125
 21
51.385551558890079
 31
0.0
  0
LINE
  5
D3
  8
1
 10
28.6598121028298
 20
56.685551558752977
 30
0.0
 11
20.555814959937759
 21
56.685551558753012
 31
0.0
  0
LINE
  5
D4
  8
1
 10
163.0164979058797
 20
56.685551558753012
 30
0.0
 11
154.91250076298769
 21
56.685551558753041
 31
0.0
  0
LINE
  5
D5
  8
2
 10
157.11250076312379
 20
51.185551558753012
 30
0.0
 11
156.9125007629867
 21
51.385551558890079
 31
0.0
  0
LINE
  5
D6
  8
2
 10
156.9125007629867
 20
51.385551558890079
 30
0.0
 11
156.9125007629867
 21
64.185551558753019
 31
0.0
  0
LINE
  5
D7
  8
2
 10
151.9125007629853
 20
51.385551558890079
 30
0.0
 11
151.9125007629853
 21
64.185551558753019
 31
0.0
  0
LINE
  5
D8
  8
2
 10
151.71250076284821
 20
51.185551558753012
 30
0.0
 11
151.9125007629853
 21
51.385551558890079
 31
0.0
  0
LINE
  5
D9
  8
2
 10
156.9125007629867
 20
64.185551558753019
 30
0.0
 11
151.9125007629853
 21
64.185551558753019
 31
0.0
  0
LINE
  5
DA
  8
2
 10
156.9125007629867
 20
64.185551558753019
 30
0.0
 11
151.9125007629853
 21
51.385551558890079
 31
0.0
  0
LINE
  5
DB
  8
2
 10
156.9125007629867
 20
51.385551558890107
 30
0.0
 11
151.9125007629853
 21
64.185551558753019
 31
0.0
  0
LINE
  5
DC
  8
2
 10
71.905660817705581
 20
108.6388389288569
 30
0.0
 11
76.905660817705581
 21
108.6388389288569
 31
0.0
  0
LINE
  5
DD
  8
2
 10
76.905660817705581
 20
108.6388389288569
 30
0.0
 11
76.905660817705581
 21
113.6388389288569
 31
0.0
  0
LINE
  5
DE
  8
2
 10
76.905660817705581
 20
113.6388389288569
 30
0.0
 11
71.905660817705581
 21
113.6388389288569
 31
0.0
  0
LINE
  5
DF
  8
2
 10
71.905660817705581
 20
113.6388389288569
 30
0.0
 11
71.905660817705581
 21
108.6388389288569
 31
0.0
  0
LINE
  5
E0
  8
0
 10
22.648326804054051
 20
51.38555155888205
 30
0.0
 11
35.671297401606942
 21
51.385551558882057
 31
0.0
  0
LINE
  5
E1
  8
0
 10
67.894175518929131
 20
51.38555155888205
 30
0.0
 11
80.91714611648203
 21
51.38555155888205
 31
0.0
  0
LINE
  5
E2
  8
0
 10
147.90101546420951
 20
51.385551558882099
 30
0.0
 11
160.92398606176241
 21
51.38555155888205
 31
0.0
  0
LINE
  5
E3
  8
0
 10
81.817294705225862
 20
16.612457190873151
 30
0.0
 11
100.690206921277
 21
17.214746970052889
 31
0.0
  0
LINE
  5
E4
  8
0
 10
81.817294705225777
 20
22.234765031349049
 30
0.0
 11
100.6902069212771
 21
21.632475252169339
 31
0.0
  0
ARC
  5
E5
  8
0
 10
100.690206921277
 20
17.614746970052892
 30
0.0
 40
0.4
 50
270.0
 51
359.99999999999881
  0
ARC
  5
E6
  8
0
 10
100.6902069212771
 20
21.232475252169341
 30
0.0
 40
0.4
 50
359.99999999999892
 51
90.0
  0
ARC
  5
E7
  8
0
 10
81.805660817705274
 20
21.834934251316842
 30
0.0
 40
0.4
 50
88.333333330000116
 51
180.0000000000006
  0
ARC
  5
E8
  8
0
 10
81.805660817705345
 20
17.012287970905351
 30
0.0
 40
0.4
 50
180.0000000000006
 51
271.66666666999993
  0
LINE
  5
E9
  8
0
 10
81.405660817705339
 20
17.012287970905351
 30
0.0
 11
81.405660817705268
 21
21.834934251316842
 31
0.0
  0
LINE
  5
EA
  8
0
 10
101.5683408844391
 20
15.297887735030701
 30
0.0
 11
102.6230732564391
 21
15.54926415919252
 31
0.0
  0
LINE
  5
EB
  8
0
 10
101.5683408844391
 20
23.549334487191519
 30
0.0
 11
102.6230732564391
 21
23.2979580630297
 31
0.0
  0
LINE
  5
EC
  8
0
 10
101.0902069212771
 20
23.463204441750619
 30
0.0
 11
101.090206921277
 21
15.38401778047159
 31
0.0
  0
ARC
  5
ED
  8
0
 10
103.4230732564391
 20
16.39220445698804
 30
0.0
 40
0.8
 50
179.9999999999998
 51
272.99431191114161
  0
ARC
  5
EE
  8
0
 10
103.4230732564391
 20
22.455017765234171
 30
0.0
 40
0.8
 50
87.005688088857923
 51
179.99999999999989
  0
ARC
  5
EF
  8
0
 10
113.1180371811902
 20
16.899330871955769
 30
0.0
 40
0.8
 50
272.99431191114161
 51
0.0000000000002799
  0
ARC
  5
F0
  8
0
 10
113.1180371811902
 20
21.947891350266381
 30
0.0
 40
0.8
 50
0.0000000000002544
 51
87.005688088857852
  0
LINE
  5
F1
  8
0
 10
103.46486270936759
 20
15.593296676562851
 30
0.0
 11
113.1598266341186
 21
16.100423091530551
 31
0.0
  0
LINE
  5
F2
  8
0
 10
103.46486270936759
 20
23.25392554565936
 30
0.0
 11
113.1598266341186
 21
22.746799130691599
 31
0.0
  0
LINE
  5
F3
  8
0
 10
102.6230732564391
 20
22.45501871890848
 30
0.0
 11
102.6230732564391
 21
16.39220445698804
 31
0.0
  0
LINE
  5
F4
  8
0
 10
113.9180371811902
 20
21.947891350266381
 30
0.0
 11
113.9180371811902
 21
16.899330871955769
 31
0.0
  0
LINE
  5
F5
  8
0
 10
79.434078070789155
 20
14.55380414071775
 30
0.0
 11
112.2219504757427
 21
15.50783379187466
 31
0.0
  0
LINE
  5
F6
  8
0
 10
79.434078070789155
 20
24.293418081504448
 30
0.0
 11
112.2219504757427
 21
23.339388430347569
 31
0.0
  0
ARC
  5
F7
  8
0
 10
112.10566081766591
 20
17.504450108402992
 30
0.0
 40
2.0
 50
270.0
 51
0.0000000000004707
  0
ARC
  5
F8
  8
0
 10
112.10566081766591
 20
21.34277211381924
 30
0.0
 40
2.0
 50
0.0000000000001527
 51
86.66666665843367
  0
LINE
  5
F9
  8
0
 10
114.10566081766591
 20
21.34277211381924
 30
0.0
 11
114.10566081766591
 21
17.504450108402992
 31
0.0
  0
CIRCLE
  5
FA
  8
0
 10
74.405660817705581
 20
19.423611111111121
 30
0.0
 40
6.7000000000000002
  0
CIRCLE
  5
FB
  8
0
 10
74.405660817705581
 20
19.423611111111121
 30
0.0
 40
6.3114999999999988
  0
CIRCLE
  5
FC
  8
0
 10
74.405660817705581
 20
19.423611111111121
 30
0.0
 40
6.511499999999999
  0
CIRCLE
  5
FD
  8
0
 10
74.405660817705581
 20
19.423611111111121
 30
0.0
 40
7.0
  0
LINE
  5
FE
  8
1
 10
74.405660817705581
 20
9.9236111111110787
 30
0.0
 11
74.405660817705581
 21
28.923611111111111
 31
0.0
  0
ARC
  5
FF
  8
0
 10
112.4056608177055
 20
17.38759889960534
 30
0.0
 40
2.0
 50
271.66666666999993
 51
0.0
  0
ARC
  5
100
  8
0
 10
112.4056608177055
 20
21.45962332261692
 30
0.0
 40
2.0
 50
0.0
 51
88.333333330000045
  0
LINE
  5
101
  8
0
 10
114.4056608177055
 20
21.45962332261692
 30
0.0
 11
114.4056608177055
 21
17.38759889960534
 31
0.0
  0
LINE
  5
102
  8
0
 10
79.304640303211812
 20
14.42361111111112
 30
0.0
 11
112.4638302553081
 21
15.388444999444321
 31
0.0
  0
LINE
  5
103
  8
0
 10
79.304640303211812
 20
24.423611111111121
 30
0.0
 11
112.4638302553081
 21
23.45877722277794
 31
0.0
  0
LINE
  5
104
  8
1
 10
64.905660817705581
 20
19.423611111111121
 30
0.0
 11
116.9056608177055
 21
19.423611111111111
 31
0.0
  0
LINE
  5
105
  8
0
 10
71.905660817705552
 20
16.923611111111121
 30
0.0
 11
76.905660817705552
 21
16.923611111111121
 31
0.0
  0
LINE
  5
106
  8
0
 10
76.905660817705552
 20
21.923611111111128
 30
0.0
 11
71.905660817705552
 21
21.923611111111128
 31
0.0
  0
LINE
  5
107
  8
0
 10
76.905660817705552
 20
16.923611111111121
 30
0.0
 11
76.905660817705552
 21
21.923611111111128
 31
0.0
  0
LINE
  5
108
  8
0
 10
71.905660817705552
 20
21.923611111111128
 30
0.0
 11
71.905660817705552
 21
16.923611111111121
 31
0.0
  0
TEXT
  5
238
  8
0
 62
     3
 10
0.0
 20
0.0
 30
0.0
 40
10.0
  1
FLS5
  7
STANDARD1
  0
ENDSEC
  0
EOF
