  0
SECTION
  2
HEADER
  9
$ACADVER
  1
AC1009
  9
$INSBASE
 10
0.0
 20
0.0
 30
0.0
  9
$EXTMIN
 10
0.0
 20
-2.960436562073669
 30
0.0
  9
$EXTMAX
 10
342.20371129025932
 20
251.72926658673089
 30
0.0
  9
$LIMMIN
 10
0.0
 20
0.0
  9
$LIMMAX
 10
375.0
 20
270.0
  9
$ORTHOMODE
 70
     1
  9
$REGENMODE
 70
     1
  9
$FILLMODE
 70
     1
  9
$QTEXTMODE
 70
     0
  9
$MIRRTEXT
 70
     0
  9
$DRAGMODE
 70
     2
  9
$LTSCALE
 40
10.0
  9
$OSMODE
 70
    55
  9
$ATTMODE
 70
     1
  9
$TEXTSIZE
 40
0.2
  9
$TRACEWID
 40
0.05
  9
$TEXTSTYLE
  7
STANDARD
  9
$CLAYER
  8
0
  9
$CELTYPE
  6
BYLAYER
  9
$CECOLOR
 62
   256
  9
$DIMSCALE
 40
1.0
  9
$DIMASZ
 40
3.0
  9
$DIMEXO
 40
2.0
  9
$DIMDLI
 40
0.38
  9
$DIMRND
 40
0.0
  9
$DIMDLE
 40
0.0
  9
$DIMEXE
 40
2.0
  9
$DIMTP
 40
0.0
  9
$DIMTM
 40
0.0
  9
$DIMTXT
 40
3.2000000000000002
  9
$DIMCEN
 40
0.0
  9
$DIMTSZ
 40
0.0
  9
$DIMTOL
 70
     0
  9
$DIMLIM
 70
     0
  9
$DIMTIH
 70
     0
  9
$DIMTOH
 70
     0
  9
$DIMSE1
 70
     0
  9
$DIMSE2
 70
     0
  9
$DIMTAD
 70
     1
  9
$DIMZIN
 70
     0
  9
$DIMBLK
  1

  9
$DIMASO
 70
     1
  9
$DIMSHO
 70
     0
  9
$DIMPOST
  1

  9
$DIMAPOST
  1

  9
$DIMALT
 70
     0
  9
$DIMALTD
 70
     2
  9
$DIMALTF
 40
25.399999999999999
  9
$DIMLFAC
 40
1.0
  9
$DIMTOFL
 70
     1
  9
$DIMTVP
 40
1.6000000000000001
  9
$DIMTIX
 70
     1
  9
$DIMSOXD
 70
     0
  9
$DIMSAH
 70
     0
  9
$DIMBLK1
  1

  9
$DIMBLK2
  1

  9
$DIMSTYLE
  2
STANDARD
  9
$DIMCLRD
 70
     0
  9
$DIMCLRE
 70
     0
  9
$DIMCLRT
 70
     0
  9
$DIMTFAC
 40
1.0
  9
$DIMGAP
 40
0.09
  9
$LUNITS
 70
     2
  9
$LUPREC
 70
     4
  9
$SKETCHINC
 40
0.1
  9
$FILLETRAD
 40
0.0
  9
$AUNITS
 70
     0
  9
$AUPREC
 70
     4
  9
$MENU
  1
E:\r13\win\SUPPORT\ACAD
  9
$ELEVATION
 40
0.0
  9
$PELEVATION
 40
0.0
  9
$THICKNESS
 40
0.0
  9
$LIMCHECK
 70
     0
  9
$BLIPMODE
 70
     0
  9
$CHAMFERA
 40
0.0
  9
$CHAMFERB
 40
0.0
  9
$SKPOLY
 70
     0
  9
$TDCREATE
 40
2449840.6177314809
  9
$TDUPDATE
 40
2456598.666922234
  9
$TDINDWG
 40
0.0001577778
  9
$TDUSRTIMER
 40
0.0001577778
  9
$USRTIMER
 70
     1
  9
$ANGBASE
 50
0.0
  9
$ANGDIR
 70
     0
  9
$PDMODE
 70
     0
  9
$PDSIZE
 40
0.0
  9
$PLINEWID
 40
0.0
  9
$COORDS
 70
     1
  9
$SPLFRAME
 70
     0
  9
$SPLINETYPE
 70
     6
  9
$SPLINESEGS
 70
     8
  9
$ATTDIA
 70
     0
  9
$ATTREQ
 70
     1
  9
$HANDLING
 70
     1
  9
$HANDSEED
  5
2C5
  9
$SURFTAB1
 70
     6
  9
$SURFTAB2
 70
     6
  9
$SURFTYPE
 70
     6
  9
$SURFU
 70
     6
  9
$SURFV
 70
     6
  9
$UCSNAME
  2

  9
$UCSORG
 10
0.0
 20
0.0
 30
0.0
  9
$UCSXDIR
 10
1.0
 20
0.0
 30
0.0
  9
$UCSYDIR
 10
0.0
 20
1.0
 30
0.0
  9
$PUCSNAME
  2

  9
$PUCSORG
 10
0.0
 20
0.0
 30
0.0
  9
$PUCSXDIR
 10
1.0
 20
0.0
 30
0.0
  9
$PUCSYDIR
 10
0.0
 20
1.0
 30
0.0
  9
$USERI1
 70
     0
  9
$USERI2
 70
     1
  9
$USERI3
 70
     1
  9
$USERI4
 70
     0
  9
$USERI5
 70
     0
  9
$USERR1
 40
0.0
  9
$USERR2
 40
0.0
  9
$USERR3
 40
0.0
  9
$USERR4
 40
0.0
  9
$USERR5
 40
0.0
  9
$WORLDVIEW
 70
     1
  9
$SHADEDGE
 70
     3
  9
$SHADEDIF
 70
    70
  9
$TILEMODE
 70
     1
  9
$MAXACTVP
 70
    16
  9
$PLIMCHECK
 70
     0
  9
$PEXTMIN
 10
1.0000000000000000E+020
 20
1.0000000000000000E+020
 30
1.0000000000000000E+020
  9
$PEXTMAX
 10
-1.0000000000000000E+020
 20
-1.0000000000000000E+020
 30
-1.0000000000000000E+020
  9
$PLIMMIN
 10
0.0
 20
0.0
  9
$PLIMMAX
 10
12.0
 20
9.0
  9
$UNITMODE
 70
     0
  9
$VISRETAIN
 70
     0
  9
$PLINEGEN
 70
     0
  9
$PSLTSCALE
 70
     0
  0
ENDSEC
  0
SECTION
  2
TABLES
  0
TABLE
  2
VPORT
 70
     1
  0
VPORT
  2
*ACTIVE
 70
     0
 10
0.0
 20
0.0
 11
1.0
 21
1.0
 12
187.49427839065231
 22
174.91677254346851
 13
0.0
 23
0.0
 14
10.0
 24
10.0
 15
10.0
 25
10.0
 16
0.0
 26
0.0
 36
1.0
 17
0.0
 27
0.0
 37
0.0
 40
358.92027899574339
 41
1.7807262569832401
 42
50.0
 43
0.0
 44
0.0
 50
0.0
 51
0.0
 71
     0
 72
   500
 73
     1
 74
     0
 75
     0
 76
     0
 77
     0
 78
     2
  0
ENDTAB
  0
TABLE
  2
LTYPE
 70
     4
  0
LTYPE
  2
CONTINUOUS
 70
     0
  3
Solid Line
 72
    65
 73
     0
 40
0.0
  0
LTYPE
  2
CENTER
 70
     0
  3
____ _ ____ _ ____ _ ____ _ ____ _ ____ _ ____
 72
    65
 73
     4
 40
2.0
 49
1.25
 49
-0.25
 49
0.25
 49
-0.25
  0
LTYPE
  2
HIDDEN
 70
     0
  3
_ _ _ _ _ _ _ _ _ _ _ _ _ _ _ _ _ _ _ _ _ _ _
 72
    65
 73
     2
 40
0.375
 49
0.25
 49
-0.125
  0
LTYPE
  2
PHANTOM2
 70
     0
  3
___ _ _ ___ _ _ ___ _ _ ___ _ _
 72
    65
 73
     6
 40
1.25
 49
0.625
 49
-0.125
 49
0.125
 49
-0.125
 49
0.125
 49
-0.125
  0
ENDTAB
  0
TABLE
  2
LAYER
 70
     3
  0
LAYER
  2
0
 70
     0
 62
     7
  6
CONTINUOUS
  0
LAYER
  2
1
 70
     0
 62
     1
  6
CENTER
  0
LAYER
  2
2
 70
     0
 62
     2
  6
HIDDEN
  0
ENDTAB
  0
TABLE
  2
STYLE
 70
     4
  0
STYLE
  2
STANDARD
 70
     0
 40
0.0
 41
1.0
 50
0.0
 71
     0
 42
0.2
  3
TXT
  4
BIGFONT
  0
STYLE
  2
COMPLEX
 70
     0
 40
6.0
 41
0.4
 50
0.0
 71
     0
 42
4.0
  3
TXT
  4

  0
STYLE
  2
COMPLEX1
 70
     0
 40
6.0
 41
0.08
 50
0.0
 71
     0
 42
4.0
  3
TXT
  4

  0
STYLE
  2
STANDARD1
 70
     0
 40
0.0
 41
1.0
 50
0.0
 71
     0
 42
3.0
  3
txt
  4

  0
ENDTAB
  0
TABLE
  2
VIEW
 70
     1
  0
VIEW
  2
ALL
 70
     0
 40
270.0
 10
220.99159663865549
 20
135.0
 41
0.0
 11
0.0
 21
0.0
 31
1.0
 12
0.0
 22
0.0
 32
0.0
 42
0.0
 43
0.0
 44
0.0
 50
0.0
 71
     0
  0
ENDTAB
  0
TABLE
  2
UCS
 70
     0
  0
ENDTAB
  0
TABLE
  2
APPID
 70
     3
  0
APPID
  2
ACAD
 70
     0
  0
APPID
  2
ACAD_MLEADERVER
 70
     0
  0
APPID
  2
ACAD_NAV_VCDISPLAY
 70
     0
  0
ENDTAB
  0
TABLE
  2
DIMSTYLE
 70
     1
  0
DIMSTYLE
  2
STANDARD
 70
     0
  3

  4

  5

  6

  7

 40
1.0
 41
0.18
 42
0.0625
 43
0.38
 44
0.18
 45
0.0
 46
0.0
 47
0.0
 48
0.0
140
0.18
141
0.09
142
0.0
143
25.399999999999999
144
1.0
145
0.0
146
1.0
147
0.09
 71
     0
 72
     0
 73
     1
 74
     1
 75
     0
 76
     0
 77
     0
 78
     0
170
     0
171
     2
172
     0
173
     0
174
     0
175
     0
176
     0
177
     0
178
     0
  0
ENDTAB
  0
ENDSEC
  0
SECTION
  2
BLOCKS
  0
BLOCK
  8
0
  2
$MODEL_SPACE
 70
     0
 10
0.0
 20
0.0
 30
0.0
  3
$MODEL_SPACE
  1

  0
ENDBLK
  5
144
  8
0
  0
BLOCK
 67
     1
  8
0
  2
$PAPER_SPACE
 70
     0
 10
0.0
 20
0.0
 30
0.0
  3
$PAPER_SPACE
  1

  0
ENDBLK
  5
142
 67
     1
  8
0
  0
ENDSEC
  0
SECTION
  2
ENTITIES
  0
LINE
  5
37
  8
0
 10
145.9097006324574
 20
101.04955362480391
 30
0.0
 11
145.40970063245729
 21
101.54955362480391
 31
0.0
  0
LINE
  5
38
  8
0
 10
145.40970063245729
 20
101.54955362480391
 30
0.0
 11
145.1216920611505
 21
118.04955362480391
 31
0.0
  0
LINE
  5
39
  8
0
 10
144.82169206114881
 20
118.04955362480391
 30
0.0
 11
144.82169206114881
 21
119.04955362480391
 31
0.0
  0
LINE
  5
3A
  8
0
 10
247.81719453521649
 20
154.63899701901499
 30
0.0
 11
147.22537522658061
 21
127.6934291245812
 31
0.0
  0
LINE
  5
3B
  8
0
 10
170.2336834898401
 20
101.54955362480391
 30
0.0
 11
170.52169206114701
 21
118.04955362480391
 31
0.0
  0
LINE
  5
3C
  8
0
 10
169.73368348984019
 20
101.04955362480391
 30
0.0
 11
170.2336834898401
 21
101.54955362480391
 31
0.0
  0
LINE
  5
3D
  8
0
 10
146.13628560741461
 20
126.5049841039054
 30
0.0
 11
144.82169206114881
 21
119.04955362480391
 31
0.0
  0
LINE
  5
3E
  8
0
 10
144.82169206114881
 20
119.04955362480391
 30
0.0
 11
166.89679289936029
 21
119.04955362480391
 31
0.0
  0
LINE
  5
3F
  8
0
 10
144.82169206114881
 20
118.04955362480391
 30
0.0
 11
170.82169206114881
 21
118.04955362480391
 31
0.0
  0
LINE
  5
40
  8
0
 10
162.96507360928979
 20
131.90962795987539
 30
0.0
 11
167.20252358081891
 21
118.04955362480391
 31
0.0
  0
LINE
  5
41
  8
0
 10
169.73368348984019
 20
101.04955362480391
 30
0.0
 11
145.9097006324574
 21
101.04955362480391
 31
0.0
  0
LINE
  5
42
  8
0
 10
252.82169206115549
 20
149.21238243431119
 30
0.0
 11
167.20252358070411
 21
118.04955362480391
 31
0.0
  0
LINE
  5
43
  8
0
 10
170.8216920612208
 20
118.04955362480391
 30
0.0
 11
223.981200064897
 21
137.3980322063781
 31
0.0
  0
LINE
  5
44
  8
0
 10
225.14237225251429
 20
137.03191602193951
 30
0.0
 11
227.16151104222851
 21
134.1482869840456
 31
0.0
  0
LINE
  5
45
  8
0
 10
228.9032693236544
 20
133.59911270738769
 30
0.0
 11
251.53472227614299
 21
141.83628794028951
 31
0.0
  0
LINE
  5
46
  8
0
 10
252.5216920611546
 20
143.24582687146841
 30
0.0
 11
252.5216920611546
 21
149.10319136403109
 31
0.0
  0
LINE
  5
47
  8
0
 10
249.4340446120022
 20
154.05044438636449
 30
0.0
 11
252.82169206115549
 21
149.21238243431119
 31
0.0
  0
LINE
  5
48
  8
0
 10
66.159363521970235
 20
101.04955362480391
 30
0.0
 11
42.335380664587412
 21
101.04955362480391
 31
0.0
  0
LINE
  5
49
  8
0
 10
41.24737209327882
 20
118.04955362480391
 30
0.0
 11
67.247372093278827
 21
118.04955362480391
 31
0.0
  0
LINE
  5
4A
  8
0
 10
41.24737209327882
 20
119.04955362480391
 30
0.0
 11
67.247372093278841
 21
119.04955362480391
 31
0.0
  0
LINE
  5
4B
  8
0
 10
43.272013996116662
 20
130.53186843961731
 30
0.0
 11
41.24737209327882
 21
119.04955362480391
 31
0.0
  0
LINE
  5
4C
  8
0
 10
41.24737209327882
 20
118.04955362480391
 30
0.0
 11
41.24737209327882
 21
119.04955362480391
 31
0.0
  0
LINE
  5
4D
  8
0
 10
41.835380664587433
 20
101.54955362480391
 30
0.0
 11
41.547372093280558
 21
118.04955362480391
 31
0.0
  0
LINE
  5
4E
  8
0
 10
42.335380664587397
 20
101.04955362480391
 30
0.0
 11
41.835380664587433
 21
101.54955362480391
 31
0.0
  0
LINE
  5
4F
  8
0
 10
58.515014166463637
 20
154.9107417076724
 30
0.0
 11
49.97973002009401
 21
154.9107417076724
 31
0.0
  0
LINE
  5
50
  8
0
 10
47.992003726307871
 20
153.13197502566771
 30
0.0
 11
45.762936303372108
 21
133.1043590800204
 31
0.0
  0
ARC
  5
51
  8
0
 10
49.97973002009401
 20
152.9107417076724
 30
0.0
 40
2.0
 50
90.0
 51
173.64913553193031
  0
ARC
  5
52
  8
0
 10
58.515014166463637
 20
152.9107417076724
 30
0.0
 40
2.0
 50
6.3508644680707498
 51
90.0
  0
LINE
  5
53
  8
0
 10
66.159363521970263
 20
101.04955362480391
 30
0.0
 11
66.659363521970235
 21
101.54955362480391
 31
0.0
  0
LINE
  5
54
  8
0
 10
66.659363521970235
 20
101.54955362480391
 30
0.0
 11
66.94737209327711
 21
118.04955362480391
 31
0.0
  0
LINE
  5
55
  8
0
 10
67.247372093278841
 20
118.04955362480391
 30
0.0
 11
67.247372093278841
 21
119.04955362480391
 31
0.0
  0
LINE
  5
56
  8
0
 10
65.222730190441027
 20
130.53186843961731
 30
0.0
 11
67.247372093278841
 21
119.04955362480391
 31
0.0
  0
ARC
  5
57
  8
0
 10
54.247372093276852
 20
158.5805533749753
 30
0.0
 40
31.134405305503151
 50
250.93389683919739
 51
289.06610316080258
  0
LINE
  5
58
  8
0
 10
45.073459434073911
 20
132.2624270557414
 30
0.0
 11
44.372120056088569
 21
132.03831453913881
 31
0.0
  0
ARC
  5
59
  8
0
 10
44.769073156479052
 20
133.214975739018
 30
0.0
 40
1.0
 50
287.72124471573147
 51
353.64913553193031
  0
ARC
  5
5A
  8
0
 10
44.853503872665129
 20
130.53186843961731
 30
0.0
 40
1.581489876548464
 50
107.7212447157313
 51
240.59584512109549
  0
ARC
  5
5B
  8
0
 10
63.641240313892517
 20
130.53186843961731
 30
0.0
 40
1.581489876548464
 50
299.40415487890448
 51
72.278755284268655
  0
ARC
  5
5C
  8
0
 10
63.725671030078601
 20
133.214975739018
 30
0.0
 40
1.0
 50
186.35086446806969
 51
252.2787552842685
  0
LINE
  5
5D
  8
0
 10
63.421284752483743
 20
132.2624270557414
 30
0.0
 11
64.122624130469063
 21
132.03831453913881
 31
0.0
  0
LINE
  5
5E
  8
0
 10
60.502740460249782
 20
153.13197502566771
 30
0.0
 11
62.731807883185539
 21
133.1043590800204
 31
0.0
  0
LINE
  5
5F
  8
0
 10
251.1912070036359
 20
228.33467215368941
 30
0.0
 11
248.19627300586549
 21
228.42953337653151
 31
0.0
  0
LINE
  5
60
  8
0
 10
251.1912070036359
 20
239.12386101977191
 30
0.0
 11
248.19627300586549
 21
239.02899979692981
 31
0.0
  0
ARC
  5
61
  8
0
 10
244.83165794253
 20
236.2216578263654
 30
0.0
 40
4.0
 50
0.0
 51
88.514043672517445
  0
ARC
  5
62
  8
0
 10
248.82169206114881
 20
236.35269841603451
 30
0.0
 40
4.0
 50
0.0
 51
88.333333329999292
  0
ARC
  5
63
  8
0
 10
248.82169206114881
 20
231.10583475742681
 30
0.0
 40
4.0
 50
271.66666667000061
 51
0.0
  0
ARC
  5
64
  8
0
 10
244.83165794253
 20
231.236875347096
 30
0.0
 40
4.0
 50
271.48595632748248
 51
0.0
  0
ARC
  5
65
  8
0
 10
156.85294206114881
 20
233.72926658673629
 30
0.0
 40
10.56493680975314
 50
54.652791983612069
 51
305.34720801627861
  0
LINE
  5
66
  8
0
 10
248.83165794253
 20
231.236875347096
 30
0.0
 11
248.83165794253
 21
236.2216578263654
 31
0.0
  0
LINE
  5
67
  8
0
 10
252.82169206114881
 20
236.35269841603451
 30
0.0
 11
252.82169206114881
 21
231.10583475742681
 31
0.0
  0
LINE
  5
68
  8
0
 10
248.9380309363539
 20
227.1075269571048
 30
0.0
 11
167.2025235807956
 21
224.72926658673049
 31
0.0
  0
LINE
  5
69
  8
0
 10
162.96507360927339
 20
225.11185759490499
 30
0.0
 11
167.2025235807956
 21
224.72926658673049
 31
0.0
  0
LINE
  5
6A
  8
0
 10
167.2025235807956
 20
242.72926658673089
 30
0.0
 11
162.96507360928979
 21
242.3466755785559
 31
0.0
  0
LINE
  5
6B
  8
0
 10
248.9380309363539
 20
240.35100621635661
 30
0.0
 11
167.2025235807956
 21
242.72926658673089
 31
0.0
  0
LINE
  5
6C
  8
0
 10
244.93538563529799
 20
227.2382205025572
 30
0.0
 11
162.96507360928979
 21
225.11185759490539
 31
0.0
  0
LINE
  5
6D
  8
0
 10
244.93538563529799
 20
240.22031267090409
 30
0.0
 11
162.96507360928979
 21
242.3466755785559
 31
0.0
  0
LINE
  5
6E
  8
1
 10
139.82169206114881
 20
233.72926658673069
 30
0.0
 11
257.82169206114878
 21
233.72926658673069
 31
0.0
  0
LINE
  5
6F
  8
1
 10
157.8216920611487
 20
251.72926658673089
 30
0.0
 11
157.8216920611487
 21
215.72926658673049
 31
0.0
  0
LINE
  5
70
  8
1
 10
157.8216920611487
 20
135.70814735241501
 30
0.0
 11
157.8216920611487
 21
96.049553624803963
 31
0.0
  0
LINE
  5
71
  8
1
 10
54.247372093278827
 20
96.049553624803963
 30
0.0
 11
54.247372093278827
 21
159.9107417076724
 31
0.0
  0
LINE
  5
72
  8
1
 10
327.15207934214772
 20
96.049553624803963
 30
0.0
 11
327.15207934214772
 21
159.9107417076724
 31
0.0
  0
LINE
  5
73
  8
0
 10
333.40744770911863
 20
153.13197502566771
 30
0.0
 11
335.63651513205429
 21
133.1043590800204
 31
0.0
  0
LINE
  5
74
  8
0
 10
336.32599200135252
 20
132.2624270557414
 30
0.0
 11
337.02733137933791
 21
132.03831453913881
 31
0.0
  0
ARC
  5
75
  8
0
 10
336.63037827894738
 20
133.214975739018
 30
0.0
 40
1.0
 50
186.35086446806969
 51
252.2787552842685
  0
ARC
  5
76
  8
0
 10
317.75821112153398
 20
130.53186843961731
 30
0.0
 40
1.581489876548464
 50
107.7212447157313
 51
179.99999999999901
  0
ARC
  5
77
  8
0
 10
317.67378040534788
 20
133.214975739018
 30
0.0
 40
1.0
 50
287.72124471573147
 51
353.64913553193031
  0
LINE
  5
78
  8
0
 10
317.97816668294269
 20
132.2624270557414
 30
0.0
 11
317.27682730495741
 21
132.03831453913881
 31
0.0
  0
LINE
  5
79
  8
0
 10
338.12743743930992
 20
130.53186843961731
 30
0.0
 11
340.1520793421476
 21
119.04955362480391
 31
0.0
  0
LINE
  5
7A
  8
0
 10
340.1520793421476
 20
118.04955362480391
 30
0.0
 11
340.1520793421476
 21
119.04955362480391
 31
0.0
  0
LINE
  5
7B
  8
0
 10
339.56407077083901
 20
101.54955362480391
 30
0.0
 11
339.852079342146
 21
118.04955362480391
 31
0.0
  0
LINE
  5
7C
  8
0
 10
339.06407077083901
 20
101.04955362480391
 30
0.0
 11
339.56407077083901
 21
101.54955362480391
 31
0.0
  0
ARC
  5
7D
  8
0
 10
331.41972141533239
 20
152.9107417076724
 30
0.0
 40
2.0
 50
6.3508644680707498
 51
90.0
  0
ARC
  5
7E
  8
0
 10
322.88443726896293
 20
152.9107417076724
 30
0.0
 40
2.0
 50
90.0
 51
173.64913553193031
  0
LINE
  5
7F
  8
0
 10
320.89671097517669
 20
153.13197502566771
 30
0.0
 11
318.66764355224097
 21
133.1043590800204
 31
0.0
  0
LINE
  5
80
  8
0
 10
331.41972141533239
 20
154.9107417076724
 30
0.0
 11
322.88443726896293
 21
154.9107417076724
 31
0.0
  0
LINE
  5
81
  8
0
 10
315.24008791345631
 20
101.04955362480391
 30
0.0
 11
314.74008791345631
 21
101.54955362480391
 31
0.0
  0
LINE
  5
82
  8
0
 10
314.74008791345631
 20
101.54955362480391
 30
0.0
 11
314.45207934214937
 21
118.04955362480391
 31
0.0
  0
LINE
  5
83
  8
0
 10
314.15207934214772
 20
118.04955362480391
 30
0.0
 11
314.15207934214772
 21
119.04955362480391
 31
0.0
  0
LINE
  5
84
  8
0
 10
316.17672124498552
 20
130.53186843961731
 30
0.0
 11
314.15207934214772
 21
119.04955362480391
 31
0.0
  0
LINE
  5
85
  8
0
 10
314.15207934214772
 20
119.04955362480391
 30
0.0
 11
318.15207934214772
 21
119.04955362480391
 31
0.0
  0
LINE
  5
86
  8
0
 10
314.15207934214772
 20
118.04955362480391
 30
0.0
 11
340.1520793421476
 21
118.04955362480391
 31
0.0
  0
LINE
  5
87
  8
0
 10
339.06407077083901
 20
101.04955362480391
 30
0.0
 11
315.24008791345631
 21
101.04955362480391
 31
0.0
  0
ARC
  5
88
  8
0
 10
336.54594756276128
 20
130.53186843961731
 30
0.0
 40
1.581489876548464
 50
0.0000000000010178
 51
72.278755284268684
  0
LINE
  5
89
  8
0
 10
333.84369714491328
 20
149.21238243429829
 30
0.0
 11
320.46046153938198
 21
149.21238243429829
 31
0.0
  0
LINE
  5
8A
  8
0
 10
320.46046153938198
 20
149.21238243429829
 30
0.0
 11
320.7483086072541
 21
149.1031913640166
 31
0.0
  0
LINE
  5
8B
  8
0
 10
320.7483086072541
 20
149.1031913640166
 30
0.0
 11
333.55585007704121
 21
149.1031913640166
 31
0.0
  0
LINE
  5
8C
  8
0
 10
333.55585007704121
 20
149.1031913640166
 30
0.0
 11
333.84369714491328
 21
149.21238243429829
 31
0.0
  0
LINE
  5
8D
  8
0
 10
333.55585007704121
 20
149.1031913640166
 30
0.0
 11
332.4227463941528
 21
142.57310978879619
 31
0.0
  0
LINE
  5
8E
  8
0
 10
332.38873266759168
 20
141.81357623749099
 30
0.0
 11
333.05419114319182
 21
133.74655677801209
 31
0.0
  0
LINE
  5
8F
  8
0
 10
333.32668548153993
 20
133.8893646814326
 30
0.0
 11
334.458810563219
 21
137.2874312782331
 31
0.0
  0
LINE
  5
90
  8
0
 10
320.7483086072541
 20
149.1031913640166
 30
0.0
 11
321.88141229014218
 21
142.57310978879639
 31
0.0
  0
LINE
  5
91
  8
0
 10
321.91542601670329
 20
141.81357623749139
 30
0.0
 11
321.24996754110458
 21
133.74655677802531
 31
0.0
  0
LINE
  5
92
  8
0
 10
320.97747320275113
 20
133.8893646814455
 30
0.0
 11
319.84534812107808
 21
137.28743127822781
 31
0.0
  0
LINE
  5
93
  8
0
 10
336.1520793421476
 20
131.83677865005029
 30
0.0
 11
336.1520793421476
 21
118.04955362480391
 31
0.0
  0
LINE
  5
94
  8
0
 10
336.1520793421476
 20
118.04955362480391
 30
0.0
 11
334.6144541908111
 21
137.26852445146221
 31
0.0
  0
LINE
  5
95
  8
0
 10
319.68970449348598
 20
137.26852445145701
 30
0.0
 11
318.15207934214772
 21
118.04955362480391
 31
0.0
  0
LINE
  5
96
  8
0
 10
318.15207934214772
 20
118.04955362480391
 30
0.0
 11
318.15207934214772
 21
131.83677865005029
 31
0.0
  0
ARC
  5
97
  8
0
 10
335.37857725932491
 20
142.0602122390886
 30
0.0
 40
3.0
 50
170.1560196519207
 51
184.71572297900531
  0
ARC
  5
98
  8
0
 10
318.92558142497012
 20
142.0602122390888
 30
0.0
 40
3.0
 50
355.28427702099708
 51
9.8439803480761121
  0
LINE
  5
99
  8
0
 10
321.92620371228207
 20
133.2054507777589
 30
0.0
 11
332.37795497200642
 21
133.20545077774599
 31
0.0
  0
ARC
  5
9A
  8
0
 10
321.92620371228332
 20
134.2054507777589
 30
0.0
 40
1.0
 50
198.4263928863671
 51
269.9999999999298
  0
ARC
  5
9B
  8
0
 10
332.37795497200761
 20
134.20545077774599
 30
0.0
 40
1.0
 50
269.99999999992951
 51
341.57360711363219
  0
ARC
  5
9C
  8
0
 10
319.76944968031552
 20
137.26214439052271
 30
0.0
 40
0.08
 50
18.426392886367768
 51
175.42576034206519
  0
ARC
  5
9D
  8
0
 10
334.53470900398162
 20
137.26214439052799
 30
0.0
 40
0.08
 50
4.5742396579282074
 51
161.57360711363111
  0
LINE
  5
9E
  8
0
 10
332.149929396441
 20
142.1955155641611
 30
0.0
 11
322.15422928785432
 21
142.1955155641611
 31
0.0
  0
LINE
  5
9F
  8
0
 10
322.36463587619272
 20
133.2054507777583
 30
0.0
 11
321.2384654417649
 21
119.1293043865077
 31
0.0
  0
LINE
  5
A0
  8
0
 10
332.06887840716092
 20
118.04955362480651
 30
0.0
 11
322.23528027713161
 21
118.0495536248299
 31
0.0
  0
LINE
  5
A1
  8
0
 10
331.93952280810259
 20
133.2054507777583
 30
0.0
 11
333.06569324253229
 21
119.12930438648441
 31
0.0
  0
ARC
  5
A2
  8
0
 10
322.235280277134
 20
119.0495536248299
 30
0.0
 40
1.0
 50
175.42576034206539
 51
269.99999999986397
  0
ARC
  5
A3
  8
0
 10
332.06887840716331
 20
119.04955362480651
 30
0.0
 40
1.0
 50
269.9999999998638
 51
4.5742396579346822
  0
LINE
  5
A4
  8
0
 10
336.1520793421476
 20
119.04955362480391
 30
0.0
 11
340.1520793421476
 21
119.04955362480391
 31
0.0
  0
ARC
  5
A5
  8
0
 10
157.8216920611487
 20
233.72926658673069
 30
0.0
 40
13.0
 50
43.813061460427953
 51
316.18693853959581
  0
LINE
  5
A6
  8
0
 10
172.31169206114879
 20
238.22926658673069
 30
0.0
 11
172.31169206114879
 21
229.22926658673069
 31
0.0
  0
LINE
  5
A7
  8
0
 10
173.31169206114879
 20
228.22926658673069
 30
0.0
 11
181.94169206114859
 21
228.22926658673069
 31
0.0
  0
LINE
  5
A8
  8
0
 10
182.94169206114859
 20
229.22926658673069
 30
0.0
 11
182.9416920611487
 21
238.22926658673069
 31
0.0
  0
LINE
  5
A9
  8
0
 10
181.9416920611487
 20
239.22926658673069
 30
0.0
 11
173.31169206114879
 21
239.22926658673069
 31
0.0
  0
ARC
  5
AA
  8
0
 10
173.31169206114879
 20
238.22926658673069
 30
0.0
 40
1.0
 50
90.0
 51
179.99999999999989
  0
ARC
  5
AB
  8
0
 10
173.31169206114879
 20
229.22926658673069
 30
0.0
 40
1.0
 50
180.0
 51
269.99999999999989
  0
ARC
  5
AC
  8
0
 10
181.94169206114859
 20
229.22926658673069
 30
0.0
 40
1.0
 50
270.0
 51
0.0
  0
ARC
  5
AD
  8
0
 10
181.9416920611487
 20
238.22926658673069
 30
0.0
 40
1.0
 50
359.99999999999977
 51
90.0
  0
TEXT
  5
AE
  8
0
 10
174.02669206114871
 20
231.22926658673069
 30
0.0
 40
6.0
  1
Kipp
 41
0.4
  7
COMPLEX
 72
     1
 11
177.6266920611487
 21
231.22926658673069
 31
0.0
  0
LINE
  5
AF
  8
0
 10
59.747372093278742
 20
136.26077214332901
 30
0.0
 11
59.747372093278742
 21
135.41331010627471
 31
0.0
  0
LINE
  5
B0
  8
0
 10
58.747372093278742
 20
137.26077214332901
 30
0.0
 11
49.747372093278912
 21
137.26077214332909
 31
0.0
  0
LINE
  5
B1
  8
0
 10
48.747372093278912
 20
136.26077214332909
 30
0.0
 11
48.747372093278891
 21
135.41331010627471
 31
0.0
  0
LINE
  5
B2
  8
0
 10
49.747372093278898
 20
134.41331010627471
 30
0.0
 11
58.747372093278742
 21
134.41331010627471
 31
0.0
  0
ARC
  5
B3
  8
0
 10
49.747372093278912
 20
136.26077214332909
 30
0.0
 40
1.0
 50
89.999999999999844
 51
179.99999999999989
  0
ARC
  5
B4
  8
0
 10
49.747372093278898
 20
135.41331010627471
 30
0.0
 40
1.0
 50
180.0
 51
269.99999999999989
  0
ARC
  5
B5
  8
0
 10
58.747372093278742
 20
135.41331010627471
 30
0.0
 40
1.0
 50
269.99999999999977
 51
0.0
  0
ARC
  5
B6
  8
0
 10
58.747372093278742
 20
136.26077214332901
 30
0.0
 40
1.0
 50
0.0
 51
89.999999999999844
  0
TEXT
  5
B7
  8
0
 10
56.747372093280092
 20
135.11704112480189
 30
0.0
 40
6.0
  1
Kipp
 50
90.0
 41
0.08
  7
COMPLEX1
 72
     1
 11
56.747372093280092
 21
135.83704112480191
 31
0.0
  0
ARC
  5
B8
  8
0
 10
147.61349723693269
 20
126.2445118374042
 30
0.0
 40
1.5
 50
104.9957862716811
 51
169.9999999999705
  0
ARC
  5
B9
  8
0
 10
248.20531654556859
 20
153.19007973183801
 30
0.0
 40
1.5
 50
34.999999999999567
 51
104.995786271681
  0
ARC
  5
BA
  8
0
 10
251.02169206115451
 20
143.24582687146841
 30
0.0
 40
1.5
 50
289.99999999999989
 51
359.99999999999972
  0
ARC
  5
BB
  8
0
 10
228.3902391086659
 20
135.00865163856659
 30
0.0
 40
1.5
 50
214.99999999974011
 51
289.99999999999977
  0
ARC
  5
BC
  8
0
 10
224.32322020822269
 20
136.45833958559211
 30
0.0
 40
1.0
 50
34.999999999740112
 51
109.9999999999999
  0
CIRCLE
  5
BD
  8
2
 10
157.8216920611487
 20
109.5495536248041
 30
0.0
 40
2.5
  0
LINE
  5
BE
  8
2
 10
163.32169206115731
 20
101.04955362480391
 30
0.0
 11
162.82169206114841
 21
101.5495536248129
 31
0.0
  0
LINE
  5
BF
  8
2
 10
162.82169206114841
 20
101.5495536248129
 30
0.0
 11
162.82169206114841
 21
121.04955362480391
 31
0.0
  0
LINE
  5
C0
  8
2
 10
159.07169206114881
 20
110.2712414612154
 30
0.0
 11
159.07169206114881
 21
108.8278657883924
 31
0.0
  0
LINE
  5
C1
  8
1
 10
161.8216920611487
 20
109.5495536247284
 30
0.0
 11
153.8216920611487
 21
109.5495536247284
 31
0.0
  0
LINE
  5
C2
  8
2
 10
152.82169206114909
 20
101.5495536248129
 30
0.0
 11
152.82169206114909
 21
121.04955362480391
 31
0.0
  0
LINE
  5
C3
  8
2
 10
152.3216920611402
 20
101.04955362480391
 30
0.0
 11
152.82169206114909
 21
101.5495536248129
 31
0.0
  0
LINE
  5
C4
  8
2
 10
157.8216920611487
 20
110.9929292977025
 30
0.0
 11
159.07169206101801
 21
110.2712414612909
 31
0.0
  0
LINE
  5
C5
  8
2
 10
156.5716920611487
 20
110.2712414612154
 30
0.0
 11
157.82169206101801
 21
110.9929292976269
 31
0.0
  0
LINE
  5
C6
  8
2
 10
156.57169206114881
 20
108.8278657882413
 30
0.0
 11
156.57169206114881
 21
110.27124146106441
 31
0.0
  0
LINE
  5
C7
  8
2
 10
157.82169206114881
 20
108.1061779517543
 30
0.0
 11
156.57169206127961
 21
108.82786578816579
 31
0.0
  0
LINE
  5
C8
  8
2
 10
159.07169206114881
 20
108.8278657882414
 30
0.0
 11
157.82169206127961
 21
108.10617795182991
 31
0.0
  0
LINE
  5
C9
  8
2
 10
162.82169206114841
 20
121.04955362480391
 30
0.0
 11
152.82169206114909
 21
121.04955362480391
 31
0.0
  0
LINE
  5
CA
  8
2
 10
59.247372093278457
 20
121.04955362480401
 30
0.0
 11
49.247372093279189
 21
121.04955362480401
 31
0.0
  0
LINE
  5
CB
  8
2
 10
48.7473720932703
 20
101.04955362480401
 30
0.0
 11
49.247372093279189
 21
101.5495536248129
 31
0.0
  0
LINE
  5
CC
  8
2
 10
49.247372093279189
 20
101.5495536248129
 30
0.0
 11
49.247372093279189
 21
121.04955362480401
 31
0.0
  0
LINE
  5
CD
  8
1
 10
342.20371129025932
 20
109.54955362471659
 30
0.0
 11
329.65207934214578
 21
109.54955362471659
 31
0.0
  0
LINE
  5
CE
  8
2
 10
59.247372093278457
 20
101.5495536248129
 30
0.0
 11
59.247372093278457
 21
121.04955362480401
 31
0.0
  0
LINE
  5
CF
  8
2
 10
59.747372093287353
 20
101.04955362480401
 30
0.0
 11
59.247372093278457
 21
101.5495536248129
 31
0.0
  0
LINE
  5
D0
  8
2
 10
332.65207934215618
 20
101.04955362480401
 30
0.0
 11
332.15207934214732
 21
101.5495536248129
 31
0.0
  0
LINE
  5
D1
  8
2
 10
332.15207934214732
 20
101.5495536248129
 30
0.0
 11
332.15207934214732
 21
121.04955362480401
 31
0.0
  0
LINE
  5
D2
  8
2
 10
322.152079342148
 20
101.5495536248129
 30
0.0
 11
322.152079342148
 21
121.04955362480401
 31
0.0
  0
LINE
  5
D3
  8
2
 10
321.65207934213907
 20
101.04955362480401
 30
0.0
 11
322.152079342148
 21
101.5495536248129
 31
0.0
  0
LINE
  5
D4
  8
2
 10
332.15207934214732
 20
121.04955362480401
 30
0.0
 11
322.152079342148
 21
121.04955362480401
 31
0.0
  0
LINE
  5
D5
  8
2
 10
162.82169206114881
 20
238.72926658673069
 30
0.0
 11
152.82169206114881
 21
238.72926658673069
 31
0.0
  0
LINE
  5
D6
  8
2
 10
152.82169206114881
 20
238.72926658673069
 30
0.0
 11
152.82169206114881
 21
228.72926658673069
 31
0.0
  0
LINE
  5
D7
  8
2
 10
152.82169206114881
 20
228.72926658673069
 30
0.0
 11
162.82169206114881
 21
228.72926658673069
 31
0.0
  0
LINE
  5
D8
  8
2
 10
162.82169206114881
 20
228.72926658673069
 30
0.0
 11
162.82169206114881
 21
238.72926658673069
 31
0.0
  0
LINE
  5
D9
  8
2
 10
49.247372093279189
 20
101.5495536248129
 30
0.0
 11
59.247372093278457
 21
121.04955362480401
 31
0.0
  0
LINE
  5
DA
  8
2
 10
49.247372093279189
 20
121.04955362480401
 30
0.0
 11
59.247372093278457
 21
101.5495536248129
 31
0.0
  0
LINE
  5
DB
  8
2
 10
152.82169206114909
 20
121.04955362480401
 30
0.0
 11
162.82169206114841
 21
101.5495536248129
 31
0.0
  0
LINE
  5
DC
  8
2
 10
152.82169206114909
 20
101.5495536248129
 30
0.0
 11
162.82169206114841
 21
121.04955362480401
 31
0.0
  0
LINE
  5
DD
  8
2
 10
322.152079342148
 20
121.04955362480401
 30
0.0
 11
332.15207934214732
 21
101.5495536248129
 31
0.0
  0
LINE
  5
DE
  8
2
 10
322.152079342148
 20
101.5495536248129
 30
0.0
 11
332.15207934214732
 21
121.04955362480401
 31
0.0
  0
LINE
  5
E8
  8
0
 10
223.70225157323421
 20
32.786702359112937
 30
0.0
 11
171.82169206114881
 21
31.217719092430102
 31
0.0
  0
LINE
  5
E9
  8
0
 10
171.82169206114881
 20
43.217719092429647
 30
0.0
 11
223.70225157323421
 21
41.648735825746812
 31
0.0
  0
ARC
  5
EA
  8
0
 10
171.82169206114881
 20
32.217719092430102
 30
0.0
 40
1.0
 50
180.0
 51
269.99999999999989
  0
ARC
  5
EB
  8
0
 10
171.82169206114881
 20
42.217719092429647
 30
0.0
 40
1.0
 50
90.0
 51
179.99999999999989
  0
LINE
  5
EC
  8
0
 10
170.82169206114881
 20
32.217719092430102
 30
0.0
 11
170.82169206114881
 21
42.217719092429647
 31
0.0
  0
ARC
  5
ED
  8
0
 10
223.70225157323421
 20
33.786702359112951
 30
0.0
 40
1.0
 50
270.0
 51
0.0
  0
ARC
  5
EE
  8
0
 10
223.70225157323421
 20
40.648735825746819
 30
0.0
 40
1.0
 50
0.0
 51
90.0
  0
ARC
  5
EF
  8
0
 10
229.12169206114879
 20
32.570970783954181
 30
0.0
 40
1.3
 50
180.0
 51
270.0
  0
LINE
  5
F0
  8
0
 10
251.36017676502539
 20
31.995614703394889
 30
0.0
 11
229.12169206114879
 21
31.27097078395418
 31
0.0
  0
LINE
  5
F1
  8
0
 10
251.36017676502539
 20
42.43982348146487
 30
0.0
 11
229.12169206114879
 21
43.164467400905579
 31
0.0
  0
ARC
  5
F2
  8
0
 10
229.12169206114879
 20
41.864467400905582
 30
0.0
 40
1.3
 50
90.0
 51
179.99999999999989
  0
LINE
  5
F3
  8
0
 10
225.20225157323421
 20
30.331947954709101
 30
0.0
 11
227.716181664305
 21
31.39320118490313
 31
0.0
  0
LINE
  5
F4
  8
0
 10
225.20225157323421
 20
44.103490230150641
 30
0.0
 11
227.716181664305
 21
43.042236999956678
 31
0.0
  0
LINE
  5
F5
  8
0
 10
224.70225157323421
 20
44.114480115420022
 30
0.0
 11
224.70225157323421
 21
30.320958069439762
 31
0.0
  0
LINE
  5
F6
  8
0
 10
227.82169206114881
 20
41.864467400905582
 30
0.0
 11
227.82169206114881
 21
32.517719092430113
 31
0.0
  0
ARC
  5
F7
  8
0
 10
251.22169206115461
 20
33.288217498840488
 30
0.0
 40
1.3
 50
276.11513313768552
 51
359.99999999999972
  0
ARC
  5
F8
  8
0
 10
251.22169206115461
 20
41.147220686019267
 30
0.0
 40
1.3
 50
0.0
 51
83.884866858886426
  0
LINE
  5
F9
  8
0
 10
248.7542713773081
 20
43.614722460380051
 30
0.0
 11
167.42385186349281
 21
45.98119597836051
 31
0.0
  0
LINE
  5
FA
  8
0
 10
248.7542713773081
 20
30.820715724479712
 30
0.0
 11
167.42385186349281
 21
28.45424220649927
 31
0.0
  0
ARC
  5
FB
  8
0
 10
248.52169206115451
 20
34.813948357536347
 30
0.0
 40
4.0
 50
273.33333334067243
 51
315.2041015184372
  0
ARC
  5
FC
  8
0
 10
248.52169206115451
 20
39.621489827323408
 30
0.0
 40
4.0
 50
44.79589848156288
 51
86.666666659775075
  0
LINE
  5
FD
  8
0
 10
252.5216920611546
 20
41.147220686019267
 30
0.0
 11
252.5216920611546
 21
33.288217498840488
 31
0.0
  0
CIRCLE
  5
FE
  8
0
 10
157.8216920611487
 20
37.217719092429881
 30
0.0
 40
12.699999999999999
  0
CIRCLE
  5
FF
  8
0
 10
157.8216920611487
 20
37.217719092429881
 30
0.0
 40
12.412000000000001
  0
CIRCLE
  5
100
  8
0
 10
157.8216920611487
 20
37.217719092429881
 30
0.0
 40
11.912000000000001
  0
CIRCLE
  5
101
  8
0
 10
157.8216920611487
 20
37.217719092429881
 30
0.0
 40
13.0
  0
ARC
  5
102
  8
0
 10
248.82169206114881
 20
39.841150921733743
 30
0.0
 40
4.0
 50
0.0
 51
88.333333329999292
  0
ARC
  5
103
  8
0
 10
248.82169206114881
 20
34.594287263126027
 30
0.0
 40
4.0
 50
271.66666667000061
 51
0.0
  0
LINE
  5
104
  8
0
 10
252.82169206114881
 20
39.841150921733743
 30
0.0
 11
252.82169206114881
 21
34.594287263126027
 31
0.0
  0
LINE
  5
105
  8
0
 10
248.9380309363539
 20
30.595979462803989
 30
0.0
 11
167.2025235807956
 21
28.217719092429679
 31
0.0
  0
LINE
  5
106
  8
0
 10
248.9380309363539
 20
43.839458722055767
 30
0.0
 11
167.2025235807956
 21
46.217719092430073
 31
0.0
  0
LINE
  5
107
  8
1
 10
139.82169206114881
 20
37.217719092429881
 30
0.0
 11
257.82169206114878
 21
37.217719092429881
 31
0.0
  0
LINE
  5
108
  8
1
 10
157.8216920611487
 20
55.217719092429853
 30
0.0
 11
157.8216920611487
 21
19.2177190924297
 31
0.0
  0
LINE
  5
109
  8
0
 10
41.83538066458744
 20
101.54955362480391
 30
0.0
 11
66.659363521970235
 21
101.54955362480391
 31
0.0
  0
LINE
  5
10A
  8
0
 10
145.40970063245729
 20
101.54955362480391
 30
0.0
 11
170.23368348984019
 21
101.54955362480401
 31
0.0
  0
LINE
  5
10B
  8
0
 10
152.82169206114881
 20
32.217719092429867
 30
0.0
 11
162.82169206114881
 21
32.217719092429867
 31
0.0
  0
LINE
  5
10C
  8
0
 10
152.82169206114881
 20
42.217719092429867
 30
0.0
 11
152.82169206114881
 21
32.217719092429867
 31
0.0
  0
LINE
  5
10D
  8
0
 10
162.82169206114881
 20
42.217719092429867
 30
0.0
 11
152.82169206114881
 21
42.217719092429867
 31
0.0
  0
LINE
  5
10E
  8
0
 10
162.82169206114881
 20
32.217719092429867
 30
0.0
 11
162.82169206114881
 21
42.217719092429867
 31
0.0
  0
LINE
  5
10F
  8
0
 10
314.74008791345631
 20
101.54955362480391
 30
0.0
 11
339.56407077083901
 21
101.54955362480391
 31
0.0
  0
TEXT
  5
236
  8
0
 62
     3
 10
0.0
 20
0.0
 30
0.0
 40
10.0
  1
FLS10
  7
STANDARD1
  0
ENDSEC
  0
EOF
