  0
SECTION
  2
HEADER
  9
$ACADVER
  1
AC1009
  9
$INSBASE
 10
0.0
 20
0.0
 30
0.0
  9
$EXTMIN
 10
0.0
 20
-2.960436562073669
 30
0.0
  9
$EXTMAX
 10
332.26051173691712
 20
238.44954036770571
 30
0.0
  9
$LIMMIN
 10
0.0
 20
0.0
  9
$LIMMAX
 10
375.0
 20
270.0
  9
$ORTHOMODE
 70
     1
  9
$REGENMODE
 70
     1
  9
$FILLMODE
 70
     1
  9
$QTEXTMODE
 70
     0
  9
$MIRRTEXT
 70
     0
  9
$DRAGMODE
 70
     2
  9
$LTSCALE
 40
10.0
  9
$OSMODE
 70
    55
  9
$ATTMODE
 70
     1
  9
$TEXTSIZE
 40
0.2
  9
$TRACEWID
 40
0.05
  9
$TEXTSTYLE
  7
STANDARD
  9
$CLAYER
  8
0
  9
$CELTYPE
  6
BYLAYER
  9
$CECOLOR
 62
   256
  9
$DIMSCALE
 40
1.0
  9
$DIMASZ
 40
3.0
  9
$DIMEXO
 40
2.0
  9
$DIMDLI
 40
0.38
  9
$DIMRND
 40
0.0
  9
$DIMDLE
 40
0.0
  9
$DIMEXE
 40
2.0
  9
$DIMTP
 40
0.0
  9
$DIMTM
 40
0.0
  9
$DIMTXT
 40
3.2000000000000002
  9
$DIMCEN
 40
0.0
  9
$DIMTSZ
 40
0.0
  9
$DIMTOL
 70
     0
  9
$DIMLIM
 70
     0
  9
$DIMTIH
 70
     0
  9
$DIMTOH
 70
     0
  9
$DIMSE1
 70
     0
  9
$DIMSE2
 70
     0
  9
$DIMTAD
 70
     1
  9
$DIMZIN
 70
     0
  9
$DIMBLK
  1

  9
$DIMASO
 70
     1
  9
$DIMSHO
 70
     0
  9
$DIMPOST
  1

  9
$DIMAPOST
  1

  9
$DIMALT
 70
     0
  9
$DIMALTD
 70
     2
  9
$DIMALTF
 40
25.399999999999999
  9
$DIMLFAC
 40
1.0
  9
$DIMTOFL
 70
     1
  9
$DIMTVP
 40
1.6000000000000001
  9
$DIMTIX
 70
     1
  9
$DIMSOXD
 70
     0
  9
$DIMSAH
 70
     0
  9
$DIMBLK1
  1

  9
$DIMBLK2
  1

  9
$DIMSTYLE
  2
STANDARD
  9
$DIMCLRD
 70
     0
  9
$DIMCLRE
 70
     0
  9
$DIMCLRT
 70
     0
  9
$DIMTFAC
 40
1.0
  9
$DIMGAP
 40
0.09
  9
$LUNITS
 70
     2
  9
$LUPREC
 70
     4
  9
$SKETCHINC
 40
0.1
  9
$FILLETRAD
 40
1.0
  9
$AUNITS
 70
     0
  9
$AUPREC
 70
     4
  9
$MENU
  1
E:\r13\win\SUPPORT\ACAD
  9
$ELEVATION
 40
0.0
  9
$PELEVATION
 40
0.0
  9
$THICKNESS
 40
0.0
  9
$LIMCHECK
 70
     0
  9
$BLIPMODE
 70
     0
  9
$CHAMFERA
 40
0.0
  9
$CHAMFERB
 40
0.0
  9
$SKPOLY
 70
     0
  9
$TDCREATE
 40
2449840.6175810192
  9
$TDUPDATE
 40
2456598.6627514581
  9
$TDINDWG
 40
0.0001589468
  9
$TDUSRTIMER
 40
0.0001589468
  9
$USRTIMER
 70
     1
  9
$ANGBASE
 50
0.0
  9
$ANGDIR
 70
     0
  9
$PDMODE
 70
     0
  9
$PDSIZE
 40
0.0
  9
$PLINEWID
 40
0.0
  9
$COORDS
 70
     1
  9
$SPLFRAME
 70
     0
  9
$SPLINETYPE
 70
     6
  9
$SPLINESEGS
 70
     8
  9
$ATTDIA
 70
     0
  9
$ATTREQ
 70
     1
  9
$HANDLING
 70
     1
  9
$HANDSEED
  5
2ED
  9
$SURFTAB1
 70
     6
  9
$SURFTAB2
 70
     6
  9
$SURFTYPE
 70
     6
  9
$SURFU
 70
     6
  9
$SURFV
 70
     6
  9
$UCSNAME
  2

  9
$UCSORG
 10
0.0
 20
0.0
 30
0.0
  9
$UCSXDIR
 10
1.0
 20
0.0
 30
0.0
  9
$UCSYDIR
 10
0.0
 20
1.0
 30
0.0
  9
$PUCSNAME
  2

  9
$PUCSORG
 10
0.0
 20
0.0
 30
0.0
  9
$PUCSXDIR
 10
1.0
 20
0.0
 30
0.0
  9
$PUCSYDIR
 10
0.0
 20
1.0
 30
0.0
  9
$USERI1
 70
     0
  9
$USERI2
 70
     1
  9
$USERI3
 70
     1
  9
$USERI4
 70
     0
  9
$USERI5
 70
     0
  9
$USERR1
 40
0.0
  9
$USERR2
 40
0.0
  9
$USERR3
 40
0.0
  9
$USERR4
 40
0.0
  9
$USERR5
 40
0.0
  9
$WORLDVIEW
 70
     1
  9
$SHADEDGE
 70
     3
  9
$SHADEDIF
 70
    70
  9
$TILEMODE
 70
     1
  9
$MAXACTVP
 70
    16
  9
$PLIMCHECK
 70
     0
  9
$PEXTMIN
 10
1.0000000000000000E+020
 20
1.0000000000000000E+020
 30
1.0000000000000000E+020
  9
$PEXTMAX
 10
-1.0000000000000000E+020
 20
-1.0000000000000000E+020
 30
-1.0000000000000000E+020
  9
$PLIMMIN
 10
0.0
 20
0.0
  9
$PLIMMAX
 10
12.0
 20
9.0
  9
$UNITMODE
 70
     0
  9
$VISRETAIN
 70
     0
  9
$PLINEGEN
 70
     0
  9
$PSLTSCALE
 70
     0
  0
ENDSEC
  0
SECTION
  2
TABLES
  0
TABLE
  2
VPORT
 70
     1
  0
VPORT
  2
*ACTIVE
 70
     0
 10
0.0
 20
0.0
 11
1.0
 21
1.0
 12
187.49427839065231
 22
174.91677254346851
 13
0.0
 23
0.0
 14
10.0
 24
10.0
 15
10.0
 25
10.0
 16
0.0
 26
0.0
 36
1.0
 17
0.0
 27
0.0
 37
0.0
 40
358.92027899574339
 41
1.7807262569832401
 42
50.0
 43
0.0
 44
0.0
 50
0.0
 51
0.0
 71
     0
 72
   500
 73
     1
 74
     0
 75
     0
 76
     0
 77
     0
 78
     2
  0
ENDTAB
  0
TABLE
  2
LTYPE
 70
     4
  0
LTYPE
  2
CONTINUOUS
 70
     0
  3
Solid Line
 72
    65
 73
     0
 40
0.0
  0
LTYPE
  2
CENTER
 70
     0
  3
____ _ ____ _ ____ _ ____ _ ____ _ ____ _ ____
 72
    65
 73
     4
 40
2.0
 49
1.25
 49
-0.25
 49
0.25
 49
-0.25
  0
LTYPE
  2
HIDDEN
 70
     0
  3
_ _ _ _ _ _ _ _ _ _ _ _ _ _ _ _ _ _ _ _ _ _ _
 72
    65
 73
     2
 40
0.375
 49
0.25
 49
-0.125
  0
LTYPE
  2
PHANTOM2
 70
     0
  3
___ _ _ ___ _ _ ___ _ _ ___ _ _
 72
    65
 73
     6
 40
1.25
 49
0.625
 49
-0.125
 49
0.125
 49
-0.125
 49
0.125
 49
-0.125
  0
ENDTAB
  0
TABLE
  2
LAYER
 70
     3
  0
LAYER
  2
0
 70
     0
 62
     7
  6
CONTINUOUS
  0
LAYER
  2
1
 70
     0
 62
     1
  6
CENTER
  0
LAYER
  2
2
 70
     0
 62
     2
  6
HIDDEN
  0
ENDTAB
  0
TABLE
  2
STYLE
 70
     4
  0
STYLE
  2
STANDARD
 70
     0
 40
0.0
 41
1.0
 50
0.0
 71
     0
 42
0.2
  3
TXT
  4
BIGFONT
  0
STYLE
  2
COMPLEX
 70
     0
 40
7.0
 41
0.4
 50
0.0
 71
     0
 42
4.0
  3
TXT
  4

  0
STYLE
  2
COMPLEX1
 70
     0
 40
7.0
 41
0.08
 50
0.0
 71
     0
 42
4.0
  3
TXT
  4

  0
STYLE
  2
STANDARD1
 70
     0
 40
0.0
 41
1.0
 50
0.0
 71
     0
 42
3.0
  3
txt
  4

  0
ENDTAB
  0
TABLE
  2
VIEW
 70
     1
  0
VIEW
  2
ALL
 70
     0
 40
270.0
 10
220.99159663865549
 20
135.0
 41
0.0
 11
0.0
 21
0.0
 31
1.0
 12
0.0
 22
0.0
 32
0.0
 42
0.0
 43
0.0
 44
0.0
 50
0.0
 71
     0
  0
ENDTAB
  0
TABLE
  2
UCS
 70
     0
  0
ENDTAB
  0
TABLE
  2
APPID
 70
     3
  0
APPID
  2
ACAD
 70
     0
  0
APPID
  2
ACAD_MLEADERVER
 70
     0
  0
APPID
  2
ACAD_NAV_VCDISPLAY
 70
     0
  0
ENDTAB
  0
TABLE
  2
DIMSTYLE
 70
     1
  0
DIMSTYLE
  2
STANDARD
 70
     0
  3

  4

  5

  6

  7

 40
1.0
 41
0.18
 42
0.0625
 43
0.38
 44
0.18
 45
0.0
 46
0.0
 47
0.0
 48
0.0
140
0.18
141
0.09
142
0.0
143
25.399999999999999
144
1.0
145
0.0
146
1.0
147
0.09
 71
     0
 72
     0
 73
     1
 74
     1
 75
     0
 76
     0
 77
     0
 78
     0
170
     0
171
     2
172
     0
173
     0
174
     0
175
     0
176
     0
177
     0
178
     0
  0
ENDTAB
  0
ENDSEC
  0
SECTION
  2
BLOCKS
  0
BLOCK
  8
0
  2
$MODEL_SPACE
 70
     0
 10
0.0
 20
0.0
 30
0.0
  3
$MODEL_SPACE
  1

  0
ENDBLK
  5
133
  8
0
  0
BLOCK
 67
     1
  8
0
  2
$PAPER_SPACE
 70
     0
 10
0.0
 20
0.0
 30
0.0
  3
$PAPER_SPACE
  1

  0
ENDBLK
  5
131
 67
     1
  8
0
  0
ENDSEC
  0
SECTION
  2
ENTITIES
  0
CIRCLE
  5
37
  8
2
 10
156.4932278776885
 20
222.44954036770591
 30
0.0
 40
5.0
  0
LINE
  5
38
  8
1
 10
332.26051173691712
 20
114.0256018341169
 30
0.0
 11
322.68269719142597
 21
114.0256018341169
 31
0.0
  0
LINE
  5
39
  8
2
 10
324.68269719141489
 20
125.0256018341169
 30
0.0
 11
314.68269719141477
 21
125.0256018341169
 31
0.0
  0
LINE
  5
3A
  8
2
 10
314.68269719139732
 20
107.5256018341169
 30
0.0
 11
314.68269719141477
 21
125.0256018341169
 31
0.0
  0
LINE
  5
3B
  8
2
 10
314.18269719139732
 20
107.0256018341169
 30
0.0
 11
314.68269719139732
 21
107.5256018341169
 31
0.0
  0
LINE
  5
3C
  8
2
 10
324.6826971914324
 20
107.5256018341169
 30
0.0
 11
324.68269719141489
 21
125.0256018341169
 31
0.0
  0
LINE
  5
3D
  8
2
 10
325.1826971914324
 20
107.0256018341169
 30
0.0
 11
324.6826971914324
 21
107.5256018341169
 31
0.0
  0
LINE
  5
3E
  8
2
 10
69.740242742981934
 20
107.0256018341169
 30
0.0
 11
69.240242742981948
 21
107.5256018341169
 31
0.0
  0
LINE
  5
3F
  8
2
 10
69.240242742981948
 20
107.5256018341169
 30
0.0
 11
69.240242742964412
 21
125.0256018341169
 31
0.0
  0
LINE
  5
40
  8
1
 10
61.240242742953207
 20
114.0256018341169
 30
0.0
 11
51.662428197462091
 21
114.0256018341169
 31
0.0
  0
LINE
  5
41
  8
2
 10
58.740242742946819
 20
107.0256018341169
 30
0.0
 11
59.240242742946819
 21
107.5256018341169
 31
0.0
  0
LINE
  5
42
  8
2
 10
59.240242742946819
 20
107.5256018341169
 30
0.0
 11
59.240242742964348
 21
125.0256018341169
 31
0.0
  0
LINE
  5
43
  8
2
 10
69.240242742964412
 20
125.0256018341169
 30
0.0
 11
59.240242742964348
 21
125.0256018341169
 31
0.0
  0
LINE
  5
44
  8
2
 10
161.4932278776885
 20
125.0256018341169
 30
0.0
 11
151.49322787768841
 21
125.0256018341169
 31
0.0
  0
LINE
  5
45
  8
2
 10
151.4932278776709
 20
107.5256018341169
 30
0.0
 11
151.49322787768841
 21
125.0256018341169
 31
0.0
  0
LINE
  5
46
  8
2
 10
150.9932278776709
 20
107.0256018341169
 30
0.0
 11
151.4932278776709
 21
107.5256018341169
 31
0.0
  0
LINE
  5
47
  8
1
 10
160.3932278776885
 20
114.0256018341169
 30
0.0
 11
152.59322787768849
 21
114.0256018341169
 31
0.0
  0
LINE
  5
48
  8
2
 10
161.493227877706
 20
107.5256018341169
 30
0.0
 11
161.4932278776885
 21
125.0256018341169
 31
0.0
  0
LINE
  5
49
  8
2
 10
161.993227877706
 20
107.0256018341169
 30
0.0
 11
161.493227877706
 21
107.5256018341169
 31
0.0
  0
CIRCLE
  5
4A
  8
2
 10
156.4932278776885
 20
114.0256018341169
 30
0.0
 40
1.8999999999999999
  0
ARC
  5
4B
  8
0
 10
212.1492153817089
 20
136.21487429488371
 30
0.0
 40
1.0
 50
35.000000000000213
 51
110.00000000001791
  0
ARC
  5
4C
  8
0
 10
215.9670170839573
 20
134.6852436938284
 30
0.0
 40
1.25
 50
214.9999999999996
 51
289.99999999999989
  0
ARC
  5
4D
  8
0
 10
234.94322787769431
 20
141.5920195819096
 30
0.0
 40
1.25
 50
290.0
 51
0.0
  0
ARC
  5
4E
  8
0
 10
232.3658433272395
 20
150.92965481378999
 30
0.0
 40
1.25
 50
34.999999999999957
 51
104.9510094969994
  0
ARC
  5
4F
  8
0
 10
147.91810951872941
 20
128.37932589569331
 30
0.0
 40
1.25
 50
104.9510094969995
 51
169.9999999999998
  0
TEXT
  5
50
  8
0
 10
66.240242742964654
 20
135.9104534824809
 30
0.0
 40
4.5
  1
Kipp
 50
90.0
 41
0.08
  7
COMPLEX1
 72
     1
 11
66.240242742964654
 21
136.4504534824809
 31
0.0
  0
ARC
  5
51
  8
0
 10
67.690242742965381
 20
136.74662381214429
 30
0.0
 40
0.8
 50
0.0000000000005598
 51
90.0
  0
ARC
  5
52
  8
0
 10
67.690242742965395
 20
136.15428315278831
 30
0.0
 40
0.8
 50
270.0
 51
0.0
  0
ARC
  5
53
  8
0
 10
60.790242742963457
 20
136.15428315278831
 30
0.0
 40
0.8
 50
180.00000000000031
 51
269.99999999999989
  0
ARC
  5
54
  8
0
 10
60.790242742963457
 20
136.74662381214429
 30
0.0
 40
0.8
 50
90.0
 51
179.99999999999989
  0
LINE
  5
55
  8
0
 10
67.690242742965381
 20
137.5466238121443
 30
0.0
 11
60.790242742963457
 21
137.5466238121443
 31
0.0
  0
LINE
  5
56
  8
0
 10
68.490242742965393
 20
136.15428315278831
 30
0.0
 11
68.490242742965378
 21
136.74662381214429
 31
0.0
  0
LINE
  5
57
  8
0
 10
60.790242742963457
 20
135.3542831527883
 30
0.0
 11
67.690242742965395
 21
135.3542831527883
 31
0.0
  0
LINE
  5
58
  8
0
 10
59.990242742963453
 20
136.74662381214429
 30
0.0
 11
59.990242742963453
 21
136.15428315278831
 31
0.0
  0
TEXT
  5
59
  8
0
 10
170.5982278776884
 20
220.44954036770579
 30
0.0
 40
4.5
  1
Kipp
 41
0.4
  7
COMPLEX
 72
     1
 11
173.29822787768839
 21
220.44954036770579
 31
0.0
  0
LINE
  5
5A
  8
0
 10
177.40322787768841
 20
222.44954036770591
 30
0.0
 11
169.19322787768851
 21
222.44954036770579
 31
0.0
  0
ARC
  5
5B
  8
0
 10
176.6032278776884
 20
225.89954036770581
 30
0.0
 40
0.8
 50
0.0
 51
90.0
  0
ARC
  5
5C
  8
0
 10
176.6032278776884
 20
218.99954036770589
 30
0.0
 40
0.8
 50
270.0
 51
0.0
  0
ARC
  5
5D
  8
0
 10
169.9932278776885
 20
218.99954036770589
 30
0.0
 40
0.8
 50
180.0
 51
269.99999999999989
  0
ARC
  5
5E
  8
0
 10
169.9932278776885
 20
225.89954036770581
 30
0.0
 40
0.8
 50
90.0
 51
179.99999999999989
  0
LINE
  5
5F
  8
0
 10
176.6032278776884
 20
226.69954036770579
 30
0.0
 11
169.9932278776885
 21
226.69954036770579
 31
0.0
  0
LINE
  5
60
  8
0
 10
177.40322787768849
 20
218.99954036770589
 30
0.0
 11
177.40322787768849
 21
225.89954036770581
 31
0.0
  0
LINE
  5
61
  8
0
 10
169.9932278776885
 20
218.19954036770591
 30
0.0
 11
176.6032278776884
 21
218.19954036770591
 31
0.0
  0
LINE
  5
62
  8
0
 10
169.19322787768851
 20
225.89954036770581
 30
0.0
 11
169.19322787768851
 21
218.99954036770589
 31
0.0
  0
ARC
  5
63
  8
0
 10
322.78775216148961
 20
122.0256018341169
 30
0.0
 40
1.0
 50
270.0
 51
3.4391344797086361
  0
ARC
  5
64
  8
0
 10
316.57764222134028
 20
122.0256018341169
 30
0.0
 40
1.0
 50
176.56086552029129
 51
269.99999999999989
  0
LINE
  5
65
  8
0
 10
323.11906219571028
 20
133.18257630983069
 30
0.0
 11
323.78595124879843
 21
122.08559001708539
 31
0.0
  0
LINE
  5
66
  8
0
 10
316.24633218711932
 20
133.1825763098276
 30
0.0
 11
315.57944313403152
 21
122.08559001708539
 31
0.0
  0
LINE
  5
67
  8
0
 10
326.84965273467731
 20
121.8256018340978
 30
0.0
 11
330.68269719139909
 21
121.8256018341052
 31
0.0
  0
LINE
  5
68
  8
0
 10
326.84965273467731
 20
133.26156432161099
 30
0.0
 11
326.84965273467731
 21
121.0256018341169
 31
0.0
  0
LINE
  5
69
  8
0
 10
325.88001827361029
 20
137.1602501292237
 30
0.0
 11
326.84965273467708
 21
121.0256018341169
 31
0.0
  0
LINE
  5
6A
  8
0
 10
324.67161870159049
 20
133.86425559617231
 30
0.0
 11
325.78270916515811
 21
137.17316675575799
 31
0.0
  0
ARC
  5
6B
  8
0
 10
325.83010831924503
 20
137.1572507200753
 30
0.0
 40
0.05
 50
3.4391344797087631
 51
161.43860087562629
  0
LINE
  5
6C
  8
0
 10
323.82950408532628
 20
140.71676015912081
 30
0.0
 11
315.53589029750361
 21
140.71676015912081
 31
0.0
  0
ARC
  5
6D
  8
0
 10
313.53528606358492
 20
137.1572507200753
 30
0.0
 40
0.05
 50
18.56139912437364
 51
176.5608655202912
  0
ARC
  5
6E
  8
0
 10
323.72363561985549
 20
134.18257630983089
 30
0.0
 40
1.0
 50
270.0000000000253
 51
341.43860087562717
  0
ARC
  5
6F
  8
0
 10
315.6417587629756
 20
134.1825763098274
 30
0.0
 40
1.0
 50
198.56139912437271
 51
270.00000000002518
  0
ARC
  5
70
  8
0
 10
325.84403790139919
 20
140.61944920625459
 30
0.0
 40
2.0
 50
169.81590817595941
 51
184.65310849152019
  0
ARC
  5
71
  8
0
 10
313.52135648143059
 20
140.61944920625459
 30
0.0
 40
2.0
 50
355.3468915084797
 51
10.18409182404206
  0
LINE
  5
72
  8
0
 10
323.8755484261597
 20
140.97307214933289
 30
0.0
 11
324.9771448561014
 21
147.1052562192489
 31
0.0
  0
LINE
  5
73
  8
0
 10
324.39872255405697
 20
133.72313772086409
 30
0.0
 11
323.85062967653408
 21
140.45720356212229
 31
0.0
  0
LINE
  5
74
  8
0
 10
315.64175876297611
 20
133.1825763098274
 30
0.0
 11
323.723635619856
 21
133.18257630983089
 31
0.0
  0
LINE
  5
75
  8
0
 10
313.48537610921937
 20
137.1602501292237
 30
0.0
 11
312.51574164815258
 21
121.0256018341169
 31
0.0
  0
LINE
  5
76
  8
0
 10
314.69377568123929
 20
133.86425559617231
 30
0.0
 11
313.58268521767161
 21
137.17316675575799
 31
0.0
  0
LINE
  5
77
  8
0
 10
315.51476470629581
 20
140.45720356212229
 30
0.0
 11
314.96667182877252
 21
133.72313772086039
 31
0.0
  0
LINE
  5
78
  8
0
 10
314.38824952672832
 20
147.1052562192489
 30
0.0
 11
315.48984595667008
 21
140.97307214933301
 31
0.0
  0
LINE
  5
79
  8
0
 10
314.10052335526262
 20
147.2144472895306
 30
0.0
 11
325.26487102756693
 21
147.2144472895306
 31
0.0
  0
LINE
  5
7A
  8
0
 10
314.38824952672832
 20
147.1052562192489
 30
0.0
 11
314.10052335526262
 21
147.2144472895306
 31
0.0
  0
LINE
  5
7B
  8
0
 10
324.9771448561014
 20
147.1052562192489
 30
0.0
 11
314.38824952672832
 21
147.1052562192489
 31
0.0
  0
LINE
  5
7C
  8
0
 10
325.26487102756693
 20
147.2144472895306
 30
0.0
 11
324.9771448561014
 21
147.1052562192489
 31
0.0
  0
LINE
  5
7D
  8
0
 10
312.51574164815258
 20
133.26156432161099
 30
0.0
 11
312.51574164815258
 21
121.0256018341169
 31
0.0
  0
ARC
  5
7E
  8
0
 10
327.54262603777408
 20
131.9629645620935
 30
0.0
 40
1.3525806167306009
 50
359.99999616190979
 51
68.730669558954517
  0
LINE
  5
7F
  8
0
 10
309.71834056788413
 20
107.0256018341169
 30
0.0
 11
329.64705381494571
 21
107.0256018341169
 31
0.0
  0
LINE
  5
80
  8
0
 10
308.68269719141489
 20
121.82560183406279
 30
0.0
 11
312.51574164815258
 21
121.8256018340702
 31
0.0
  0
LINE
  5
81
  8
0
 10
330.68269719141489
 20
121.0256018341169
 30
0.0
 11
308.68269719141489
 21
121.0256018341169
 31
0.0
  0
LINE
  5
82
  8
0
 10
330.38269719141471
 20
121.0256018341169
 30
0.0
 11
330.1470538148838
 21
107.5256018341169
 31
0.0
  0
LINE
  5
83
  8
0
 10
330.1470538148838
 20
107.5256018341169
 30
0.0
 11
329.64705381494571
 21
107.0256018341169
 31
0.0
  0
LINE
  5
84
  8
0
 10
308.68269719142228
 20
121.8256018341052
 30
0.0
 11
310.47018773762761
 21
131.96296447148771
 31
0.0
  0
LINE
  5
85
  8
0
 10
309.21834056794597
 20
107.5256018341169
 30
0.0
 11
309.71834056788413
 21
107.0256018341169
 31
0.0
  0
LINE
  5
86
  8
0
 10
308.98269719141513
 20
121.0256018341169
 30
0.0
 11
309.21834056794597
 21
107.5256018341169
 31
0.0
  0
LINE
  5
87
  8
0
 10
308.68269719141489
 20
121.8256018341052
 30
0.0
 11
308.68269719141489
 21
121.0256018341169
 31
0.0
  0
LINE
  5
88
  8
0
 10
323.34530816001069
 20
152.36294371363891
 30
0.0
 11
316.02008622282068
 21
152.3629437136421
 31
0.0
  0
LINE
  5
89
  8
0
 10
314.52947383590111
 20
151.03049881491901
 30
0.0
 11
312.616319083154
 21
134.0105922241637
 31
0.0
  0
LINE
  5
8A
  8
0
 10
312.3008245166734
 20
133.60050115611239
 30
0.0
 11
311.33211640126302
 21
133.223414876389
 31
0.0
  0
ARC
  5
8B
  8
0
 10
312.11944828751427
 20
134.06644392458941
 30
0.0
 40
0.5
 50
291.26933044104561
 51
353.58648150999932
  0
ARC
  5
8C
  8
0
 10
311.82276834505558
 20
131.9629645620935
 30
0.0
 40
1.3525806167306009
 50
111.2693304410454
 51
180.00000383809021
  0
LINE
  5
8D
  8
0
 10
324.835920546929
 20
151.0304988149158
 30
0.0
 11
326.74907529967578
 21
134.0105922241637
 31
0.0
  0
ARC
  5
8E
  8
0
 10
327.24594609531528
 20
134.06644392458941
 30
0.0
 40
0.5
 50
186.41351849000071
 51
248.7306695589543
  0
LINE
  5
8F
  8
0
 10
327.06456986615632
 20
133.60050115611239
 30
0.0
 11
328.03327798156681
 21
133.223414876389
 31
0.0
  0
ARC
  5
90
  8
0
 10
316.02008622282
 20
150.8629437136421
 30
0.0
 40
1.5
 50
89.999999999975245
 51
173.58648150999929
  0
ARC
  5
91
  8
0
 10
323.34530816001012
 20
150.86294371363891
 30
0.0
 40
1.5
 50
6.4135184900006061
 51
89.999999999975046
  0
LINE
  5
92
  8
0
 10
330.68269719141489
 20
121.8256018341052
 30
0.0
 11
330.68269719141489
 21
121.0256018341169
 31
0.0
  0
LINE
  5
93
  8
0
 10
330.68269719140739
 20
121.8256018341052
 30
0.0
 11
328.89520664520222
 21
131.96296447148771
 31
0.0
  0
LINE
  5
94
  8
1
 10
319.68269719141489
 20
157.3629437136405
 30
0.0
 11
319.68269719141477
 21
102.0256018341169
 31
0.0
  0
LINE
  5
95
  8
1
 10
64.240242742964412
 20
157.3629437136405
 30
0.0
 11
64.240242742964426
 21
102.0256018341169
 31
0.0
  0
LINE
  5
96
  8
1
 10
140.49322787768841
 20
222.44954036770591
 30
0.0
 11
241.49322787768841
 21
222.44954036770591
 31
0.0
  0
LINE
  5
97
  8
1
 10
156.4932278776885
 20
238.44954036770571
 30
0.0
 11
156.4932278776885
 21
206.44954036770579
 31
0.0
  0
LINE
  5
98
  8
1
 10
156.4932278776885
 20
137.13816158241761
 30
0.0
 11
156.4932278776885
 21
102.0256018341169
 31
0.0
  0
LINE
  5
99
  8
0
 10
75.240242742956951
 20
121.8256018341052
 30
0.0
 11
73.452752196751732
 21
131.96296447148771
 31
0.0
  0
LINE
  5
9A
  8
0
 10
75.240242742964412
 20
121.8256018341052
 30
0.0
 11
75.240242742964412
 21
121.0256018341169
 31
0.0
  0
ARC
  5
9B
  8
0
 10
67.902853711559644
 20
150.86294371363891
 30
0.0
 40
1.5
 50
6.4135184900006061
 51
89.999999999975046
  0
ARC
  5
9C
  8
0
 10
60.57763177436955
 20
150.8629437136421
 30
0.0
 40
1.5
 50
89.999999999975245
 51
173.58648150999929
  0
ARC
  5
9D
  8
0
 10
72.100171589323665
 20
131.9629645620935
 30
0.0
 40
1.3525806167306009
 50
300.86469680290833
 51
68.730669558954531
  0
LINE
  5
9E
  8
0
 10
71.622115417705814
 20
133.60050115611239
 30
0.0
 11
72.590823533116279
 21
133.223414876389
 31
0.0
  0
ARC
  5
9F
  8
0
 10
71.803491646864927
 20
134.06644392458941
 30
0.0
 40
0.5
 50
186.41351849000071
 51
248.7306695589543
  0
LINE
  5
A0
  8
0
 10
69.393466098478541
 20
151.0304988149158
 30
0.0
 11
71.30662085122529
 21
134.0105922241637
 31
0.0
  0
ARC
  5
A1
  8
0
 10
56.380313896605159
 20
131.9629645620935
 30
0.0
 40
1.3525806167306009
 50
111.2693304410454
 51
239.1353031970917
  0
ARC
  5
A2
  8
0
 10
56.676993839063897
 20
134.06644392458941
 30
0.0
 40
0.5
 50
291.26933044104561
 51
353.58648150999932
  0
LINE
  5
A3
  8
0
 10
56.858370068223017
 20
133.60050115611239
 30
0.0
 11
55.889661952812553
 21
133.223414876389
 31
0.0
  0
ARC
  5
A4
  8
0
 10
64.240242742964583
 20
150.50895761011199
 30
0.0
 40
21.483355775995101
 50
246.536779304758
 51
293.46322069524211
  0
LINE
  5
A5
  8
0
 10
59.087019387450638
 20
151.03049881491901
 30
0.0
 11
57.173864634703527
 21
134.0105922241637
 31
0.0
  0
LINE
  5
A6
  8
0
 10
67.902853711560297
 20
152.36294371363891
 30
0.0
 11
60.57763177437019
 21
152.3629437136421
 31
0.0
  0
LINE
  5
A7
  8
0
 10
53.240242742964412
 20
121.8256018341052
 30
0.0
 11
53.240242742964412
 21
121.0256018341169
 31
0.0
  0
LINE
  5
A8
  8
0
 10
53.540242742964558
 20
121.0256018341169
 30
0.0
 11
53.77588611949551
 21
107.5256018341169
 31
0.0
  0
LINE
  5
A9
  8
0
 10
53.77588611949551
 20
107.5256018341169
 30
0.0
 11
54.275886119433672
 21
107.0256018341169
 31
0.0
  0
LINE
  5
AA
  8
0
 10
53.240242742971873
 20
121.8256018341052
 30
0.0
 11
55.027733289177093
 21
131.96296447148771
 31
0.0
  0
LINE
  5
AB
  8
0
 10
74.704599366433328
 20
107.5256018341169
 30
0.0
 11
74.204599366495174
 21
107.0256018341169
 31
0.0
  0
LINE
  5
AC
  8
0
 10
74.940242742964259
 20
121.0256018341169
 30
0.0
 11
74.704599366433328
 21
107.5256018341169
 31
0.0
  0
LINE
  5
AD
  8
0
 10
75.240242742964412
 20
121.0256018341169
 30
0.0
 11
53.240242742964412
 21
121.0256018341169
 31
0.0
  0
LINE
  5
AE
  8
0
 10
53.240242742964419
 20
121.82560183406279
 30
0.0
 11
75.240242742948681
 21
121.8256018341052
 31
0.0
  0
LINE
  5
AF
  8
0
 10
54.275886119433629
 20
107.0256018341169
 30
0.0
 11
74.204599366495174
 21
107.0256018341169
 31
0.0
  0
ARC
  5
B0
  8
0
 10
156.4932278776885
 20
222.44954036770591
 30
0.0
 40
11.0
 50
42.985886080111371
 51
317.01411391980719
  0
LINE
  5
B1
  8
0
 10
235.00408739979909
 20
218.02010200379161
 30
0.0
 11
232.39469571705089
 21
218.1031827964697
 31
0.0
  0
LINE
  5
B2
  8
0
 10
235.00408739979909
 20
226.87897873162009
 30
0.0
 11
232.39469571705089
 21
226.79589793894201
 31
0.0
  0
ARC
  5
B3
  8
0
 10
232.9932278776885
 20
224.45627257857279
 30
0.0
 40
3.5
 50
359.99999999999972
 51
88.333333330000002
  0
ARC
  5
B4
  8
0
 10
232.9932278776885
 20
220.44280815683891
 30
0.0
 40
3.5
 50
271.66666666999993
 51
0.0
  0
ARC
  5
B5
  8
0
 10
229.38821187106669
 20
220.56168906849231
 30
0.0
 40
3.5
 50
271.48499988951579
 51
359.99999999997482
  0
ARC
  5
B6
  8
0
 10
229.38821187106831
 20
224.33739166691939
 30
0.0
 40
3.5
 50
359.99999999997482
 51
88.515000110484124
  0
LINE
  5
B7
  8
0
 10
164.53996634740369
 20
214.9495403677052
 30
0.0
 11
160.84111663345271
 21
215.2835022199161
 31
0.0
  0
LINE
  5
B8
  8
0
 10
164.53996634742609
 20
229.94954036770591
 30
0.0
 11
160.8411166334522
 21
229.6155785154958
 31
0.0
  0
ARC
  5
B9
  8
0
 10
155.6652766413755
 20
222.44954036770591
 30
0.0
 40
8.83976370493912
 50
54.160413410038508
 51
305.83958658996158
  0
LINE
  5
BA
  8
0
 10
236.4932278776885
 20
224.45627257857279
 30
0.0
 11
236.4932278776885
 21
220.44280815683891
 31
0.0
  0
LINE
  5
BB
  8
0
 10
232.88821187106669
 20
220.56168906849069
 30
0.0
 11
232.88821187106839
 21
224.33739166691791
 31
0.0
  0
LINE
  5
BC
  8
0
 10
160.8411166334522
 20
215.2835022199161
 30
0.0
 11
229.47891519640331
 21
217.06286456492359
 31
0.0
  0
LINE
  5
BD
  8
0
 10
229.4789151964049
 20
227.83621617048809
 30
0.0
 11
160.8411166334522
 21
229.6155785154956
 31
0.0
  0
LINE
  5
BE
  8
0
 10
233.09502439349291
 20
216.94428883155709
 30
0.0
 11
164.53996634742609
 21
214.94954036770579
 31
0.0
  0
LINE
  5
BF
  8
0
 10
233.09502439349291
 20
227.95479190385461
 30
0.0
 11
164.53996634742609
 21
229.94954036770591
 31
0.0
  0
LINE
  5
C0
  8
0
 10
146.52887125415771
 20
107.0256018341169
 30
0.0
 11
166.4575845012192
 21
107.0256018341169
 31
0.0
  0
LINE
  5
C1
  8
0
 10
211.80719523838289
 20
137.15456691566939
 30
0.0
 11
167.4932278776885
 21
121.0256018341169
 31
0.0
  0
LINE
  5
C2
  8
0
 10
236.4932278776966
 20
147.21444728952289
 30
0.0
 11
164.539966347404
 21
121.02560183400171
 31
0.0
  0
LINE
  5
C3
  8
0
 10
214.94307702859601
 20
133.96827314838961
 30
0.0
 11
212.96836587380199
 21
136.78845294800021
 31
0.0
  0
LINE
  5
C4
  8
0
 10
235.37075543871401
 20
140.41740467285439
 30
0.0
 11
216.3945422631144
 21
133.51062791784611
 31
0.0
  0
LINE
  5
C5
  8
0
 10
236.19322787769431
 20
147.10525621924231
 30
0.0
 11
236.1932278776944
 21
141.5920195819096
 31
0.0
  0
LINE
  5
C6
  8
0
 10
233.3897833826008
 20
151.64662535922881
 30
0.0
 11
236.4932278776966
 21
147.21444728952289
 31
0.0
  0
LINE
  5
C7
  8
0
 10
160.8411166334522
 20
133.1239941062604
 30
0.0
 11
164.539966347404
 21
121.0256018340018
 31
0.0
  0
LINE
  5
C8
  8
0
 10
145.4932278776885
 20
121.82560183406279
 30
0.0
 11
164.29538180220541
 21
121.8256018341053
 31
0.0
  0
LINE
  5
C9
  8
0
 10
167.4932278776885
 20
121.0256018341169
 30
0.0
 11
145.4932278776885
 21
121.0256018341169
 31
0.0
  0
LINE
  5
CA
  8
0
 10
167.19322787768829
 20
121.0256018341169
 30
0.0
 11
166.95758450115741
 21
107.5256018341169
 31
0.0
  0
LINE
  5
CB
  8
0
 10
166.95758450115741
 20
107.5256018341169
 30
0.0
 11
166.4575845012192
 21
107.0256018341169
 31
0.0
  0
LINE
  5
CC
  8
0
 10
145.493227877696
 20
121.8256018341052
 30
0.0
 11
146.6870998274641
 21
128.596386117777
 31
0.0
  0
LINE
  5
CD
  8
0
 10
232.04335202726011
 20
152.13733828284859
 30
0.0
 11
147.59561821874999
 21
129.58700936475199
 31
0.0
  0
LINE
  5
CE
  8
0
 10
146.02887125421961
 20
107.5256018341169
 30
0.0
 11
146.52887125415771
 21
107.0256018341169
 31
0.0
  0
LINE
  5
CF
  8
0
 10
145.79322787768859
 20
121.0256018341169
 30
0.0
 11
146.02887125421961
 21
107.5256018341169
 31
0.0
  0
LINE
  5
D0
  8
0
 10
145.4932278776885
 20
121.8256018341052
 30
0.0
 11
145.4932278776885
 21
121.0256018341169
 31
0.0
  0
LINE
  5
D4
  8
0
 10
233.09502439349291
 20
46.691052895061617
 30
0.0
 11
164.53996634742609
 21
48.685801358912848
 31
0.0
  0
LINE
  5
D5
  8
0
 10
233.09502439349291
 20
35.680549822764149
 30
0.0
 11
164.53996634742609
 21
33.68580135891289
 31
0.0
  0
LINE
  5
D6
  8
0
 10
236.4932278776885
 20
43.192533569779819
 30
0.0
 11
236.4932278776885
 21
39.179069148045912
 31
0.0
  0
ARC
  5
D7
  8
0
 10
232.9932278776885
 20
39.179069148045912
 30
0.0
 40
3.5
 50
271.66666666999993
 51
0.0
  0
ARC
  5
D8
  8
0
 10
232.9932278776885
 20
43.192533569779819
 30
0.0
 40
3.5
 50
359.99999999999972
 51
88.333333330000002
  0
LINE
  5
D9
  8
1
 10
156.4932278776885
 20
57.185801358912741
 30
0.0
 11
156.4932278776885
 21
25.185801358912862
 31
0.0
  0
LINE
  5
DA
  8
1
 10
140.49322787768841
 20
41.185801358912848
 30
0.0
 11
241.49322787768841
 21
41.185801358912883
 31
0.0
  0
CIRCLE
  5
DB
  8
0
 10
156.4932278776885
 20
41.185801358912848
 30
0.0
 40
5.0
  0
CIRCLE
  5
DC
  8
0
 10
156.4932278776885
 20
41.185801358912848
 30
0.0
 40
11.0
  0
LINE
  5
DD
  8
0
 10
146.02887125421961
 20
107.5256018341169
 30
0.0
 11
166.95758450115741
 21
107.5256018341169
 31
0.0
  0
LINE
  5
DE
  8
0
 10
53.77588611949551
 20
107.5256018341169
 30
0.0
 11
74.704599366433328
 21
107.5256018341169
 31
0.0
  0
LINE
  5
DF
  8
0
 10
309.21834056794597
 20
107.5256018341169
 30
0.0
 11
330.1470538148838
 21
107.5256018341169
 31
0.0
  0
CIRCLE
  5
E0
  8
0
 10
156.4932278776885
 20
41.185801358912848
 30
0.0
 40
10.46435
  0
CIRCLE
  5
E1
  8
0
 10
156.4932278776885
 20
41.185801358912848
 30
0.0
 40
9.9643499999999996
  0
CIRCLE
  5
E2
  8
0
 10
156.4932278776885
 20
41.185801358912848
 30
0.0
 40
10.699999999999999
  0
LINE
  5
E3
  8
0
 10
236.19322787769431
 20
44.099471313657062
 30
0.0
 11
236.1932278776944
 21
38.27213140416869
 31
0.0
  0
ARC
  5
E4
  8
0
 10
232.69322787769431
 20
42.980249023599342
 30
0.0
 40
3.5
 50
41.307261447069259
 51
77.12077735735636
  0
ARC
  5
E5
  8
0
 10
232.69322787769431
 20
39.391353694226417
 30
0.0
 40
3.5
 50
282.8792226426437
 51
318.69273855293011
  0
LINE
  5
E6
  8
0
 10
233.47336604935779
 20
46.392196331679251
 30
0.0
 11
164.8056469168173
 21
48.39022289835156
 31
0.0
  0
LINE
  5
E7
  8
0
 10
233.47336604935779
 20
35.979406386146508
 30
0.0
 11
164.8056469168173
 21
33.981379819474192
 31
0.0
  0
ARC
  5
E8
  8
0
 10
234.94322787769431
 20
44.099471313657062
 30
0.0
 40
1.25
 50
0.0
 51
89.999999999999943
  0
ARC
  5
E9
  8
0
 10
234.94322787769431
 20
38.27213140416869
 30
0.0
 40
1.25
 50
270.0
 51
0.0000000000003435
  0
LINE
  5
EA
  8
0
 10
215.49322787769719
 20
44.695823597472838
 30
0.0
 11
215.49322787769719
 21
37.675779120352928
 31
0.0
  0
ARC
  5
EB
  8
0
 10
216.74322787769719
 20
44.695823597472838
 30
0.0
 40
1.25
 50
90.0
 51
179.99999999999989
  0
ARC
  5
EC
  8
0
 10
216.74322787769719
 20
37.675779120352928
 30
0.0
 40
1.25
 50
180.0
 51
269.99999999999989
  0
LINE
  5
ED
  8
0
 10
216.74322787769719
 20
45.945823597472838
 30
0.0
 11
234.94322787769431
 21
45.349471313657062
 31
0.0
  0
LINE
  5
EE
  8
0
 10
216.74322787769719
 20
36.425779120352928
 30
0.0
 11
234.94322787769431
 21
37.02213140416869
 31
0.0
  0
LINE
  5
EF
  8
0
 10
212.5282467467168
 20
46.801552414913537
 30
0.0
 11
212.5282467467168
 21
35.570050302912207
 31
0.0
  0
LINE
  5
F0
  8
0
 10
213.0282467467168
 20
46.788204412637953
 30
0.0
 11
215.37473513404231
 21
45.786569952298422
 31
0.0
  0
LINE
  5
F1
  8
0
 10
213.02824674671689
 20
35.583398305187799
 30
0.0
 11
215.37473513404311
 21
36.585032765527707
 31
0.0
  0
ARC
  5
F2
  8
0
 10
211.5282467467168
 20
43.367692202342518
 30
0.0
 40
1.0
 50
0.0000000000002926
 51
89.999999999999943
  0
ARC
  5
F3
  8
0
 10
211.5282467467168
 20
39.003910515483241
 30
0.0
 40
1.0
 50
270.0
 51
0.0000000000002036
  0
LINE
  5
F4
  8
0
 10
167.49322787768841
 20
38.018845815650721
 30
0.0
 11
167.49322787768841
 21
44.352756902175003
 31
0.0
  0
ARC
  5
F5
  8
0
 10
168.49322787768841
 20
44.352756902175003
 30
0.0
 40
1.0
 50
90.0
 51
179.9999999999998
  0
ARC
  5
F6
  8
0
 10
168.49322787768841
 20
38.018845815650721
 30
0.0
 40
1.0
 50
180.0
 51
269.99999999999989
  0
LINE
  5
F7
  8
0
 10
168.49322787768841
 20
45.352756902175003
 30
0.0
 11
211.5282467467168
 21
44.367692202342511
 31
0.0
  0
LINE
  5
F8
  8
0
 10
211.5282467467168
 20
38.003910515483241
 30
0.0
 11
168.49322787768841
 21
37.018845815650721
 31
0.0
  0
TEXT
  5
25E
  8
0
 62
     3
 10
0.0
 20
0.0
 30
0.0
 40
10.0
  1
FLR10
  7
STANDARD1
  0
ENDSEC
  0
EOF
