  0
SECTION
  2
HEADER
  9
$ACADVER
  1
AC1009
  9
$INSBASE
 10
0.0
 20
0.0
 30
0.0
  9
$EXTMIN
 10
0.0
 20
-2.960436562073669
 30
0.0
  9
$EXTMAX
 10
251.5754745329553
 20
246.15016535621601
 30
0.0
  9
$LIMMIN
 10
0.0
 20
0.0
  9
$LIMMAX
 10
750.0
 20
540.0
  9
$ORTHOMODE
 70
     1
  9
$REGENMODE
 70
     1
  9
$FILLMODE
 70
     1
  9
$QTEXTMODE
 70
     0
  9
$MIRRTEXT
 70
     0
  9
$DRAGMODE
 70
     2
  9
$LTSCALE
 40
20.0
  9
$OSMODE
 70
    55
  9
$ATTMODE
 70
     1
  9
$TEXTSIZE
 40
0.2
  9
$TRACEWID
 40
0.05
  9
$TEXTSTYLE
  7
STANDARD
  9
$CLAYER
  8
0
  9
$CELTYPE
  6
BYLAYER
  9
$CECOLOR
 62
   256
  9
$DIMSCALE
 40
1.0
  9
$DIMASZ
 40
3.0
  9
$DIMEXO
 40
2.0
  9
$DIMDLI
 40
0.38
  9
$DIMRND
 40
0.0
  9
$DIMDLE
 40
0.0
  9
$DIMEXE
 40
2.0
  9
$DIMTP
 40
0.0
  9
$DIMTM
 40
0.0
  9
$DIMTXT
 40
3.2000000000000002
  9
$DIMCEN
 40
0.0
  9
$DIMTSZ
 40
0.0
  9
$DIMTOL
 70
     0
  9
$DIMLIM
 70
     0
  9
$DIMTIH
 70
     0
  9
$DIMTOH
 70
     0
  9
$DIMSE1
 70
     0
  9
$DIMSE2
 70
     0
  9
$DIMTAD
 70
     1
  9
$DIMZIN
 70
     0
  9
$DIMBLK
  1

  9
$DIMASO
 70
     0
  9
$DIMSHO
 70
     0
  9
$DIMPOST
  1

  9
$DIMAPOST
  1

  9
$DIMALT
 70
     0
  9
$DIMALTD
 70
     2
  9
$DIMALTF
 40
25.399999999999999
  9
$DIMLFAC
 40
1.0
  9
$DIMTOFL
 70
     0
  9
$DIMTVP
 40
1.6000000000000001
  9
$DIMTIX
 70
     1
  9
$DIMSOXD
 70
     0
  9
$DIMSAH
 70
     0
  9
$DIMBLK1
  1

  9
$DIMBLK2
  1

  9
$DIMSTYLE
  2
STANDARD
  9
$DIMCLRD
 70
     0
  9
$DIMCLRE
 70
     0
  9
$DIMCLRT
 70
     0
  9
$DIMTFAC
 40
1.0
  9
$DIMGAP
 40
0.09
  9
$LUNITS
 70
     2
  9
$LUPREC
 70
     4
  9
$SKETCHINC
 40
0.1
  9
$FILLETRAD
 40
0.0
  9
$AUNITS
 70
     0
  9
$AUPREC
 70
     4
  9
$MENU
  1
E:\r13\win\SUPPORT\ACAD
  9
$ELEVATION
 40
0.0
  9
$PELEVATION
 40
0.0
  9
$THICKNESS
 40
0.0
  9
$LIMCHECK
 70
     0
  9
$BLIPMODE
 70
     0
  9
$CHAMFERA
 40
0.0
  9
$CHAMFERB
 40
0.0
  9
$SKPOLY
 70
     0
  9
$TDCREATE
 40
2449840.6227546302
  9
$TDUPDATE
 40
2456598.6619460299
  9
$TDINDWG
 40
0.0518327431
  9
$TDUSRTIMER
 40
2456429.1005645022
  9
$USRTIMER
 70
     1
  9
$ANGBASE
 50
0.0
  9
$ANGDIR
 70
     0
  9
$PDMODE
 70
     0
  9
$PDSIZE
 40
0.0
  9
$PLINEWID
 40
0.0
  9
$COORDS
 70
     1
  9
$SPLFRAME
 70
     0
  9
$SPLINETYPE
 70
     6
  9
$SPLINESEGS
 70
     8
  9
$ATTDIA
 70
     0
  9
$ATTREQ
 70
     1
  9
$HANDLING
 70
     1
  9
$HANDSEED
  5
24A6
  9
$SURFTAB1
 70
     6
  9
$SURFTAB2
 70
     6
  9
$SURFTYPE
 70
     6
  9
$SURFU
 70
     6
  9
$SURFV
 70
     6
  9
$UCSNAME
  2

  9
$UCSORG
 10
0.0
 20
0.0
 30
0.0
  9
$UCSXDIR
 10
1.0
 20
0.0
 30
0.0
  9
$UCSYDIR
 10
0.0
 20
1.0
 30
0.0
  9
$PUCSNAME
  2

  9
$PUCSORG
 10
0.0
 20
0.0
 30
0.0
  9
$PUCSXDIR
 10
1.0
 20
0.0
 30
0.0
  9
$PUCSYDIR
 10
0.0
 20
1.0
 30
0.0
  9
$USERI1
 70
     0
  9
$USERI2
 70
     1
  9
$USERI3
 70
     0
  9
$USERI4
 70
     0
  9
$USERI5
 70
     0
  9
$USERR1
 40
0.0
  9
$USERR2
 40
0.0
  9
$USERR3
 40
0.0
  9
$USERR4
 40
0.0
  9
$USERR5
 40
0.0
  9
$WORLDVIEW
 70
     1
  9
$SHADEDGE
 70
     3
  9
$SHADEDIF
 70
    70
  9
$TILEMODE
 70
     1
  9
$MAXACTVP
 70
    16
  9
$PLIMCHECK
 70
     0
  9
$PEXTMIN
 10
1.0000000000000000E+020
 20
1.0000000000000000E+020
 30
1.0000000000000000E+020
  9
$PEXTMAX
 10
-1.0000000000000000E+020
 20
-1.0000000000000000E+020
 30
-1.0000000000000000E+020
  9
$PLIMMIN
 10
0.0
 20
0.0
  9
$PLIMMAX
 10
12.0
 20
9.0
  9
$UNITMODE
 70
     0
  9
$VISRETAIN
 70
     0
  9
$PLINEGEN
 70
     0
  9
$PSLTSCALE
 70
     0
  0
ENDSEC
  0
SECTION
  2
TABLES
  0
TABLE
  2
VPORT
 70
     1
  0
VPORT
  2
*ACTIVE
 70
     0
 10
0.0
 20
0.0
 11
1.0
 21
1.0
 12
374.98855678130462
 22
350.86677766270412
 13
0.0
 23
0.0
 14
20.0
 24
20.0
 15
20.0
 25
20.0
 16
0.0
 26
0.0
 36
1.0
 17
0.0
 27
0.0
 37
0.0
 40
713.9403104474975
 41
1.7807262569832401
 42
50.0
 43
0.0
 44
0.0
 50
0.0
 51
0.0
 71
    16
 72
   100
 73
     1
 74
     0
 75
     0
 76
     0
 77
     0
 78
     2
  0
ENDTAB
  0
TABLE
  2
LTYPE
 70
     3
  0
LTYPE
  2
CONTINUOUS
 70
     0
  3
Solid Line
 72
    65
 73
     0
 40
0.0
  0
LTYPE
  2
PHANTOM2
 70
     0
  3
___ _ _ ___ _ _ ___ _ _ ___ _ _
 72
    65
 73
     6
 40
1.25
 49
0.625
 49
-0.125
 49
0.125
 49
-0.125
 49
0.125
 49
-0.125
  0
LTYPE
  2
CENTER
 70
     0
  3
____ _ ____ _ ____ _ ____ _ ____ _ ____ _ ____
 72
    65
 73
     4
 40
2.0
 49
1.25
 49
-0.25
 49
0.25
 49
-0.25
  0
ENDTAB
  0
TABLE
  2
LAYER
 70
     3
  0
LAYER
  2
0
 70
     0
 62
     7
  6
CONTINUOUS
  0
LAYER
  2
1
 70
     0
 62
     1
  6
CENTER
  0
LAYER
  2
3
 70
     0
 62
     3
  6
CONTINUOUS
  0
ENDTAB
  0
TABLE
  2
STYLE
 70
     3
  0
STYLE
  2
STANDARD
 70
     0
 40
0.0
 41
1.0
 50
0.0
 71
     0
 42
0.2
  3
TXT
  4
BIGFONT
  0
STYLE
  2
ANNOTATIVE
 70
     0
 40
0.0
 41
1.0
 50
0.0
 71
     0
 42
0.2
  3
txt
  4

  0
STYLE
  2
STANDARD1
 70
     0
 40
0.0
 41
1.0
 50
0.0
 71
     0
 42
3.0
  3
txt
  4

  0
ENDTAB
  0
TABLE
  2
VIEW
 70
     1
  0
VIEW
  2
ALL
 70
     0
 40
540.0
 10
441.98319299999991
 20
270.0
 41
0.0
 11
0.0
 21
0.0
 31
1.0
 12
0.0
 22
0.0
 32
0.0
 42
0.0
 43
0.0
 44
0.0
 50
0.0
 71
     0
  0
ENDTAB
  0
TABLE
  2
UCS
 70
     0
  0
ENDTAB
  0
TABLE
  2
APPID
 70
     7
  0
APPID
  2
ACAD
 70
     0
  0
APPID
  2
ACADANNOTATIVE
 70
     0
  0
APPID
  2
ACAD_NAV_VCDISPLAY
 70
     0
  0
APPID
  2
ACAD_EXEMPT_FROM_CAD_STANDARDS
 70
     0
  0
APPID
  2
ACAD_DSTYLE_DIMJAG
 70
     0
  0
APPID
  2
ACAD_DSTYLE_DIMTALN
 70
     0
  0
APPID
  2
ACAD_MLEADERVER
 70
     0
  0
ENDTAB
  0
TABLE
  2
DIMSTYLE
 70
     2
  0
DIMSTYLE
  2
STANDARD
 70
     0
  3

  4

  5

  6

  7

 40
1.0
 41
0.18
 42
0.0625
 43
0.38
 44
0.18
 45
0.0
 46
0.0
 47
0.0
 48
0.0
140
0.18
141
0.09
142
0.0
143
25.399999999999999
144
1.0
145
0.0
146
1.0
147
0.09
 71
     0
 72
     0
 73
     1
 74
     1
 75
     0
 76
     0
 77
     0
 78
     0
170
     0
171
     2
172
     0
173
     0
174
     0
175
     0
176
     0
177
     0
178
     0
  0
DIMSTYLE
  2
ANNOTATIVE
 70
     0
  3

  4

  5

  6

  7

 40
1.0
 41
0.18
 42
0.0625
 43
0.38
 44
0.18
 45
0.0
 46
0.0
 47
0.0
 48
0.0
140
0.18
141
0.09
142
0.0
143
25.399999999999999
144
1.0
145
0.0
146
1.0
147
0.09
 71
     0
 72
     0
 73
     1
 74
     1
 75
     0
 76
     0
 77
     0
 78
     0
170
     0
171
     2
172
     0
173
     0
174
     0
175
     0
176
     0
177
     0
178
     0
  0
ENDTAB
  0
ENDSEC
  0
SECTION
  2
BLOCKS
  0
BLOCK
  8
0
  2
$MODEL_SPACE
 70
     0
 10
0.0
 20
0.0
 30
0.0
  3
$MODEL_SPACE
  1

  0
ENDBLK
  5
1835
  8
0
  0
BLOCK
 67
     1
  8
0
  2
$PAPER_SPACE
 70
     0
 10
0.0
 20
0.0
 30
0.0
  3
$PAPER_SPACE
  1

  0
ENDBLK
  5
1831
 67
     1
  8
0
  0
ENDSEC
  0
SECTION
  2
ENTITIES
  0
LINE
  5
A39
  8
0
 10
116.35663070632491
 20
165.9645260810311
 30
0.0
 11
116.35663070632491
 21
151.5106634099615
 31
0.0
  0
LINE
  5
A3A
  8
0
 10
134.85663070632489
 20
151.5106634099615
 30
0.0
 11
134.85663070632489
 21
162.2607011628121
 31
0.0
  0
ARC
  5
A3B
  8
0
 10
125.6166307063249
 20
168.76070116281201
 30
0.0
 40
8.0000000000000089
 50
55.15009542095342
 51
124.84990457904649
  0
ARC
  5
A3C
  8
0
 10
121.6166307063249
 20
174.50526380935011
 30
0.0
 40
0.9999999999999975
 50
124.8499045790476
 51
180.0
  0
ARC
  5
A3D
  8
0
 10
129.61663070632491
 20
174.50526380935011
 30
0.0
 40
0.9999999999999982
 50
0.0
 51
55.15009542095234
  0
LINE
  5
A3E
  8
0
 10
129.61663070632491
 20
95.527701162812065
 30
0.0
 11
129.61663070632491
 21
144.7607011628121
 31
0.0
  0
LINE
  5
A3F
  8
0
 10
121.6166307063249
 20
144.7607011628121
 30
0.0
 11
121.6166307063249
 21
95.527701162812065
 31
0.0
  0
LINE
  5
A40
  8
0
 10
128.84963070632489
 20
94.760701162812055
 30
0.0
 11
129.61663070632491
 21
95.527701162812065
 31
0.0
  0
LINE
  5
A41
  8
0
 10
121.6166307063249
 20
95.527701162812065
 30
0.0
 11
122.38363070632479
 21
94.760701162812055
 31
0.0
  0
LINE
  5
A42
  8
0
 10
130.61663070632491
 20
174.32952349257121
 30
0.0
 11
130.61663070632491
 21
174.50526380935011
 31
0.0
  0
LINE
  5
A43
  8
0
 10
120.6166307063249
 20
174.50526380935011
 30
0.0
 11
120.6166307063249
 21
170.33953844190739
 31
0.0
  0
LINE
  5
A44
  8
0
 10
132.36663070632491
 20
144.7607011628121
 30
0.0
 11
132.36663070632491
 21
151.26070116281201
 31
0.0
  0
LINE
  5
A45
  8
0
 10
118.8666307063249
 20
151.26070116281201
 30
0.0
 11
118.8666307063249
 21
144.7607011628121
 31
0.0
  0
POLYLINE
  5
A47
  8
0
 66
     1
 10
0.0
 20
0.0
 30
0.0
  0
VERTEX
  5
18D8
  8
0
 10
116.35663070632491
 20
165.9645260810311
 30
0.0
  0
VERTEX
  5
18D9
  8
0
 10
116.35673067682831
 20
165.99227068198891
 30
0.0
  0
VERTEX
  5
18DA
  8
0
 10
116.3575278873524
 20
166.04763738578791
 30
0.0
  0
VERTEX
  5
18DB
  8
0
 10
116.35911328731071
 20
166.1027639571098
 30
0.0
  0
VERTEX
  5
18DC
  8
0
 10
116.3601973221792
 20
166.13020716422841
 30
0.0
  0
VERTEX
  5
18DD
  8
0
 10
116.3614727170236
 20
166.15755467298791
 30
0.0
  0
VERTEX
  5
18DE
  8
0
 10
116.3645874411104
 20
166.21191958987981
 30
0.0
  0
VERTEX
  5
18DF
  8
0
 10
116.3684352116163
 20
166.26578235797649
 30
0.0
  0
VERTEX
  5
18E0
  8
0
 10
116.3729911322534
 20
166.31907877967171
 30
0.0
  0
VERTEX
  5
18E1
  8
0
 10
116.3782274480848
 20
166.3717465278371
 30
0.0
  0
VERTEX
  5
18E2
  8
0
 10
116.3841138227253
 20
166.4237261187015
 30
0.0
  0
VERTEX
  5
18E3
  8
0
 10
116.3872906984563
 20
166.4494404077881
 30
0.0
  0
VERTEX
  5
18E4
  8
0
 10
116.3906177456506
 20
166.47496225134651
 30
0.0
  0
VERTEX
  5
18E5
  8
0
 10
116.397704974215
 20
166.52540464834411
 30
0.0
  0
VERTEX
  5
18E6
  8
0
 10
116.4053423419888
 20
166.5750232318544
 30
0.0
  0
VERTEX
  5
18E7
  8
0
 10
116.41349447684421
 20
166.62378137649799
 30
0.0
  0
VERTEX
  5
18E8
  8
0
 10
116.4221236267898
 20
166.67163722148169
 30
0.0
  0
VERTEX
  5
18E9
  8
0
 10
116.4311902973763
 20
166.7185484404333
 30
0.0
  0
VERTEX
  5
18EA
  8
0
 10
116.43587484186369
 20
166.7416362473729
 30
0.0
  0
VERTEX
  5
18EB
  8
0
 10
116.44065307784631
 20
166.76447139278591
 30
0.0
  0
VERTEX
  5
18EC
  8
0
 10
116.4504684617073
 20
166.8093604980084
 30
0.0
  0
VERTEX
  5
18ED
  8
0
 10
116.4605906808292
 20
166.85316781276799
 30
0.0
  0
VERTEX
  5
18EE
  8
0
 10
116.46575189786
 20
166.87465010575451
 30
0.0
  0
VERTEX
  5
18EF
  8
0
 10
116.4709715670468
 20
166.89584278072459
 30
0.0
  0
VERTEX
  5
18F0
  8
0
 10
116.4815604514784
 20
166.93733212359979
 30
0.0
  0
VERTEX
  5
18F1
  8
0
 10
116.4923048515484
 20
166.9775825673826
 30
0.0
  0
VERTEX
  5
18F2
  8
0
 10
116.4977655812048
 20
166.9973956195829
 30
0.0
  0
VERTEX
  5
18F3
  8
0
 10
116.5033241571691
 20
167.01715165690331
 30
0.0
  0
VERTEX
  5
18F4
  8
0
 10
116.5147340204082
 20
167.05649625485341
 30
0.0
  0
VERTEX
  5
18F5
  8
0
 10
116.52653281902219
 20
167.0956226904639
 30
0.0
  0
VERTEX
  5
18F6
  8
0
 10
116.57086749858721
 20
167.23090907888809
 30
0.0
  0
VERTEX
  5
18F7
  8
0
 10
116.6576585952712
 20
167.45693921249409
 30
0.0
  0
VERTEX
  5
18F8
  8
0
 10
116.7574890425997
 20
167.67505868333811
 30
0.0
  0
VERTEX
  5
18F9
  8
0
 10
116.86928508916
 20
167.88406358563751
 30
0.0
  0
VERTEX
  5
18FA
  8
0
 10
116.99143159700159
 20
168.08230668520301
 30
0.0
  0
VERTEX
  5
18FB
  8
0
 10
117.0557167844555
 20
168.1768193384836
 30
0.0
  0
VERTEX
  5
18FC
  8
0
 10
117.1217060917552
 20
168.2679453052329
 30
0.0
  0
VERTEX
  5
18FD
  8
0
 10
117.25728668982239
 20
168.43917148438121
 30
0.0
  0
VERTEX
  5
18FE
  8
0
 10
117.4019291965952
 20
168.6019773964718
 30
0.0
  0
VERTEX
  5
18FF
  8
0
 10
117.55983986449139
 20
168.7604156066717
 30
0.0
  0
VERTEX
  5
1900
  8
0
 10
117.73095683107471
 20
168.91300685312439
 30
0.0
  0
VERTEX
  5
1901
  8
0
 10
117.9150893139353
 20
169.0582839977022
 30
0.0
  0
VERTEX
  5
1902
  8
0
 10
118.01194145694259
 20
169.1277268490264
 30
0.0
  0
VERTEX
  5
1903
  8
0
 10
118.1119154415872
 20
169.19479974740599
 30
0.0
  0
VERTEX
  5
1904
  8
0
 10
118.3209670167512
 20
169.32112740526131
 30
0.0
  0
VERTEX
  5
1905
  8
0
 10
118.5416376234834
 20
169.43588000048251
 30
0.0
  0
VERTEX
  5
1906
  8
0
 10
118.6561279002669
 20
169.4885069334772
 30
0.0
  0
SEQEND
  5
1907
  8
0
  0
POLYLINE
  5
A48
  8
0
 66
     1
 10
0.0
 20
0.0
 30
0.0
  0
VERTEX
  5
1908
  8
0
 10
153.85460415265609
 20
170.5828007198389
 30
0.0
  0
VERTEX
  5
1909
  8
0
 10
153.3190712204098
 20
170.38409287437679
 30
0.0
  0
VERTEX
  5
190A
  8
0
 10
152.24508826696689
 20
169.9795926242513
 30
0.0
  0
VERTEX
  5
190B
  8
0
 10
151.16811964859559
 20
169.56587433979979
 30
0.0
  0
VERTEX
  5
190C
  8
0
 10
150.6287118196644
 20
169.35559494375559
 30
0.0
  0
VERTEX
  5
190D
  8
0
 10
150.0888474468463
 20
169.143078442644
 30
0.0
  0
VERTEX
  5
190E
  8
0
 10
149.008320481016
 20
168.71151116414291
 30
0.0
  0
VERTEX
  5
190F
  8
0
 10
147.92768012037641
 20
168.27154648980101
 30
0.0
  0
VERTEX
  5
1910
  8
0
 10
146.84805996023221
 20
167.82358838017419
 30
0.0
  0
VERTEX
  5
1911
  8
0
 10
145.770579244549
 20
167.36806828613879
 30
0.0
  0
VERTEX
  5
1912
  8
0
 10
144.69634721944541
 20
166.90544704097221
 30
0.0
  0
VERTEX
  5
1913
  8
0
 10
144.1607948751566
 20
166.67162621821819
 30
0.0
  0
VERTEX
  5
1914
  8
0
 10
143.6264680692714
 20
166.43621715062221
 30
0.0
  0
VERTEX
  5
1915
  8
0
 10
142.56203486102021
 20
165.96090030208421
 30
0.0
  0
VERTEX
  5
1916
  8
0
 10
141.50411555631771
 20
165.48004087740941
 30
0.0
  0
VERTEX
  5
1917
  8
0
 10
140.4537193528935
 20
164.99418954617909
 30
0.0
  0
VERTEX
  5
1918
  8
0
 10
139.41188144570191
 20
164.5039413614227
 30
0.0
  0
VERTEX
  5
1919
  8
0
 10
138.3796316402763
 20
164.00992180829471
 30
0.0
  0
VERTEX
  5
191A
  8
0
 10
137.8674188066347
 20
163.76169966825341
 30
0.0
  0
VERTEX
  5
191B
  8
0
 10
137.35797981469449
 20
163.512779535173
 30
0.0
  0
VERTEX
  5
191C
  8
0
 10
136.34791011064809
 20
163.0131826591265
 30
0.0
  0
VERTEX
  5
191D
  8
0
 10
135.35038862018621
 20
162.51182155021081
 30
0.0
  0
VERTEX
  5
191E
  8
0
 10
134.85663070632489
 20
162.2607011628121
 30
0.0
  0
SEQEND
  5
191F
  8
0
  0
LINE
  5
A4A
  8
0
 10
155.96391685774981
 20
171.34624447777139
 30
0.0
 11
153.85460415265609
 21
170.5828007198389
 31
0.0
  0
LINE
  5
A4C
  8
0
 10
186.06460313422829
 20
177.32796511046041
 30
0.0
 11
179.44608145686399
 21
175.2436929364975
 31
0.0
  0
POLYLINE
  5
A4D
  8
0
 66
     1
 10
0.0
 20
0.0
 30
0.0
  0
VERTEX
  5
1920
  8
0
 10
179.44608145686399
 20
175.2436929364975
 30
0.0
  0
VERTEX
  5
1921
  8
0
 10
179.37194139011521
 20
175.22068996105961
 30
0.0
  0
VERTEX
  5
1922
  8
0
 10
179.22308976967969
 20
175.1765729820614
 30
0.0
  0
VERTEX
  5
1923
  8
0
 10
179.07351182246481
 20
175.13498511785579
 30
0.0
  0
VERTEX
  5
1924
  8
0
 10
178.99846389614461
 20
175.1151433656263
 30
0.0
  0
VERTEX
  5
1925
  8
0
 10
178.92325051692711
 20
175.0959383151658
 30
0.0
  0
VERTEX
  5
1926
  8
0
 10
178.77234901782771
 20
175.0594437907578
 30
0.0
  0
VERTEX
  5
1927
  8
0
 10
178.6208506738329
 20
175.0255120282182
 30
0.0
  0
VERTEX
  5
1928
  8
0
 10
178.4687990050613
 20
174.9941527749433
 30
0.0
  0
VERTEX
  5
1929
  8
0
 10
178.31623769058211
 20
174.96537503933769
 30
0.0
  0
VERTEX
  5
192A
  8
0
 10
178.16321055586781
 20
174.93918708822741
 30
0.0
  0
VERTEX
  5
192B
  8
0
 10
178.0865360383174
 20
174.92706666187701
 30
0.0
  0
VERTEX
  5
192C
  8
0
 10
178.00976156020471
 20
174.91559644448509
 30
0.0
  0
VERTEX
  5
192D
  8
0
 10
177.85593478406449
 20
174.89460988486911
 30
0.0
  0
VERTEX
  5
192E
  8
0
 10
177.70177441644211
 20
174.8762334380757
 30
0.0
  0
VERTEX
  5
192F
  8
0
 10
177.54732474216161
 20
174.8604723830085
 30
0.0
  0
VERTEX
  5
1930
  8
0
 10
177.39263012915421
 20
174.84733124726159
 30
0.0
  0
VERTEX
  5
1931
  8
0
 10
177.23773501571389
 20
174.83681380581859
 30
0.0
  0
VERTEX
  5
1932
  8
0
 10
177.1602261743966
 20
174.83253994408031
 30
0.0
  0
VERTEX
  5
1933
  8
0
 10
177.0826838977309
 20
174.82892307996869
 30
0.0
  0
VERTEX
  5
1934
  8
0
 10
176.9275213159103
 20
174.82366133643851
 30
0.0
  0
VERTEX
  5
1935
  8
0
 10
176.77229184297661
 20
174.8210300867409
 30
0.0
  0
VERTEX
  5
1936
  8
0
 10
176.69466595692339
 20
174.82070116281199
 30
0.0
  0
SEQEND
  5
1937
  8
0
  0
LINE
  5
A4E
  8
0
 10
176.69466595692339
 20
174.82070116281199
 30
0.0
 11
167.8561125074699
 21
174.82070116281199
 31
0.0
  0
POLYLINE
  5
A4F
  8
0
 66
     1
 10
0.0
 20
0.0
 30
0.0
  0
VERTEX
  5
1938
  8
0
 10
167.8561125074699
 20
174.82070116281199
 30
0.0
  0
VERTEX
  5
1939
  8
0
 10
167.80159121718251
 20
174.82048822467181
 30
0.0
  0
VERTEX
  5
193A
  8
0
 10
167.69256194260771
 20
174.81878479750239
 30
0.0
  0
VERTEX
  5
193B
  8
0
 10
167.58357258278579
 20
174.81537835888739
 30
0.0
  0
VERTEX
  5
193C
  8
0
 10
167.52910118365631
 20
174.81303675385311
 30
0.0
  0
VERTEX
  5
193D
  8
0
 10
167.47464973672831
 20
174.81026974017311
 30
0.0
  0
VERTEX
  5
193E
  8
0
 10
167.365819987214
 20
174.80346018812531
 30
0.0
  0
VERTEX
  5
193F
  8
0
 10
167.25710989430141
 20
174.79495136462509
 30
0.0
  0
VERTEX
  5
1940
  8
0
 10
167.14854598884639
 20
174.78474534626321
 30
0.0
  0
VERTEX
  5
1941
  8
0
 10
167.040154766028
 20
174.77284462383329
 30
0.0
  0
VERTEX
  5
1942
  8
0
 10
166.9319626788814
 20
174.759252101724
 30
0.0
  0
VERTEX
  5
1943
  8
0
 10
166.877949564646
 20
174.751822436331
 30
0.0
  0
VERTEX
  5
1944
  8
0
 10
166.8239961318427
 20
174.74397109720991
 30
0.0
  0
VERTEX
  5
1945
  8
0
 10
166.71628147430431
 20
174.72700533964249
 30
0.0
  0
VERTEX
  5
1946
  8
0
 10
166.60884499418509
 20
174.7083589695394
 30
0.0
  0
VERTEX
  5
1947
  8
0
 10
166.50171291151401
 20
174.68803653757459
 30
0.0
  0
VERTEX
  5
1948
  8
0
 10
166.3949113720312
 20
174.6660430034668
 30
0.0
  0
VERTEX
  5
1949
  8
0
 10
166.28846644080781
 20
174.64238373477019
 30
0.0
  0
VERTEX
  5
194A
  8
0
 10
166.2353858250039
 20
174.62993123850859
 30
0.0
  0
VERTEX
  5
194B
  8
0
 10
166.18240409588361
 20
174.61706450556341
 30
0.0
  0
VERTEX
  5
194C
  8
0
 10
166.07675022192811
 20
174.59009149504141
 30
0.0
  0
VERTEX
  5
194D
  8
0
 10
165.97153060392259
 20
174.56147128600639
 30
0.0
  0
VERTEX
  5
194E
  8
0
 10
165.9190916699001
 20
174.5465456491404
 30
0.0
  0
SEQEND
  5
194F
  8
0
  0
POLYLINE
  5
A50
  8
0
 66
     1
 10
0.0
 20
0.0
 30
0.0
  0
VERTEX
  5
1950
  8
0
 10
165.9190916699001
 20
174.5465456491404
 30
0.0
  0
VERTEX
  5
1951
  8
0
 10
164.24690744603279
 20
174.05450399278379
 30
0.0
  0
VERTEX
  5
1952
  8
0
 10
160.91763196603461
 20
173.02065460496331
 30
0.0
  0
VERTEX
  5
1953
  8
0
 10
157.6095771808026
 20
171.9207940154709
 30
0.0
  0
VERTEX
  5
1954
  8
0
 10
155.96391685774981
 20
171.34624447777139
 30
0.0
  0
SEQEND
  5
1955
  8
0
  0
POLYLINE
  5
A52
  8
0
 66
     1
 10
0.0
 20
0.0
 30
0.0
  0
VERTEX
  5
1956
  8
0
 10
187.891538427131
 20
187.0376061949851
 30
0.0
  0
VERTEX
  5
1957
  8
0
 10
187.91553465519681
 20
187.0394579461574
 30
0.0
  0
VERTEX
  5
1958
  8
0
 10
187.96318478952651
 20
187.04242460060769
 30
0.0
  0
VERTEX
  5
1959
  8
0
 10
188.01033946401591
 20
187.04443285148341
 30
0.0
  0
VERTEX
  5
195A
  8
0
 10
188.0337165467572
 20
187.04508709641971
 30
0.0
  0
VERTEX
  5
195B
  8
0
 10
188.0569525359688
 20
187.04551342600911
 30
0.0
  0
VERTEX
  5
195C
  8
0
 10
188.10300017299301
 20
187.0456989947852
 30
0.0
  0
VERTEX
  5
195D
  8
0
 10
188.14880370790331
 20
187.04501422554901
 30
0.0
  0
VERTEX
  5
195E
  8
0
 10
188.19446951358
 20
187.0434676462684
 30
0.0
  0
VERTEX
  5
195F
  8
0
 10
188.2399775412679
 20
187.0410666606964
 30
0.0
  0
VERTEX
  5
1960
  8
0
 10
188.28530786280839
 20
187.0378192635861
 30
0.0
  0
VERTEX
  5
1961
  8
0
 10
188.30790020989861
 20
187.03588082021551
 30
0.0
  0
VERTEX
  5
1962
  8
0
 10
188.33044075425161
 20
187.0337340382315
 30
0.0
  0
VERTEX
  5
1963
  8
0
 10
188.37535677344559
 20
187.028820146642
 30
0.0
  0
VERTEX
  5
1964
  8
0
 10
188.42003683145461
 20
187.0230873131533
 30
0.0
  0
VERTEX
  5
1965
  8
0
 10
188.46446225776589
 20
187.01654580223811
 30
0.0
  0
VERTEX
  5
1966
  8
0
 10
188.50861485933891
 20
187.00920639124291
 30
0.0
  0
VERTEX
  5
1967
  8
0
 10
188.5524769736258
 20
187.0010803387249
 30
0.0
  0
VERTEX
  5
1968
  8
0
 10
188.57429373527501
 20
186.99672596312081
 30
0.0
  0
VERTEX
  5
1969
  8
0
 10
188.5960315157553
 20
186.99217934900889
 30
0.0
  0
VERTEX
  5
196A
  8
0
 10
188.6392620201164
 20
186.98251553352881
 30
0.0
  0
VERTEX
  5
196B
  8
0
 10
188.6821526628986
 20
186.97210137292109
 30
0.0
  0
VERTEX
  5
196C
  8
0
 10
188.7034657254213
 20
186.96661691685199
 30
0.0
  0
VERTEX
  5
196D
  8
0
 10
188.724688080297
 20
186.96094973264309
 30
0.0
  0
VERTEX
  5
196E
  8
0
 10
188.76685315649439
 20
186.9490739091446
 30
0.0
  0
VERTEX
  5
196F
  8
0
 10
188.80863305739609
 20
186.93648762526661
 30
0.0
  0
VERTEX
  5
1970
  8
0
 10
188.8293740222185
 20
186.9299324621266
 30
0.0
  0
VERTEX
  5
1971
  8
0
 10
188.850013285919
 20
186.9232050155629
 30
0.0
  0
VERTEX
  5
1972
  8
0
 10
188.8909797314042
 20
186.909240608103
 30
0.0
  0
VERTEX
  5
1973
  8
0
 10
188.9315187135096
 20
186.8946093032923
 30
0.0
  0
VERTEX
  5
1974
  8
0
 10
188.9716170209029
 20
186.879326350209
 30
0.0
  0
VERTEX
  5
1975
  8
0
 10
189.01126194509081
 20
186.86340732088871
 30
0.0
  0
VERTEX
  5
1976
  8
0
 10
189.05044130973999
 20
186.8468680829298
 30
0.0
  0
VERTEX
  5
1977
  8
0
 10
189.0698527539196
 20
186.83837091809971
 30
0.0
  0
VERTEX
  5
1978
  8
0
 10
189.08914349584751
 20
186.82972477073511
 30
0.0
  0
VERTEX
  5
1979
  8
0
 10
189.12735746311409
 20
186.81199375564961
 30
0.0
  0
VERTEX
  5
197A
  8
0
 10
189.165072985884
 20
186.79369150706719
 30
0.0
  0
VERTEX
  5
197B
  8
0
 10
189.2022844879597
 20
186.77483255977319
 30
0.0
  0
VERTEX
  5
197C
  8
0
 10
189.23898414142889
 20
186.75543276873239
 30
0.0
  0
VERTEX
  5
197D
  8
0
 10
189.2751627971511
 20
186.73550906615191
 30
0.0
  0
VERTEX
  5
197E
  8
0
 10
189.29305399663289
 20
186.7253561124752
 30
0.0
  0
VERTEX
  5
197F
  8
0
 10
189.31081169263101
 20
186.71507864984969
 30
0.0
  0
VERTEX
  5
1980
  8
0
 10
189.34592248176131
 20
186.6941589647557
 30
0.0
  0
VERTEX
  5
1981
  8
0
 10
189.38048726060109
 20
186.67276768339971
 30
0.0
  0
VERTEX
  5
1982
  8
0
 10
189.4144985895125
 20
186.65092268562341
 30
0.0
  0
VERTEX
  5
1983
  8
0
 10
189.4479495119711
 20
186.628642037714
 30
0.0
  0
VERTEX
  5
1984
  8
0
 10
189.4808335703496
 20
186.6059439711166
 30
0.0
  0
VERTEX
  5
1985
  8
0
 10
189.49706114717961
 20
186.59444414298889
 30
0.0
  0
VERTEX
  5
1986
  8
0
 10
189.5131448189635
 20
186.58284686084701
 30
0.0
  0
VERTEX
  5
1987
  8
0
 10
189.5448778346518
 20
186.55936920369891
 30
0.0
  0
VERTEX
  5
1988
  8
0
 10
189.57602772514309
 20
186.535529596305
 30
0.0
  0
VERTEX
  5
1989
  8
0
 10
189.680401368068
 20
186.4495114385476
 30
0.0
  0
VERTEX
  5
198A
  8
0
 10
189.8422099566277
 20
186.29462960992981
 30
0.0
  0
VERTEX
  5
198B
  8
0
 10
189.91492804849531
 20
186.21477464297439
 30
0.0
  0
VERTEX
  5
198C
  8
0
 10
189.98320035943701
 20
186.1327733540588
 30
0.0
  0
VERTEX
  5
198D
  8
0
 10
190.10944162538431
 20
185.95883626395971
 30
0.0
  0
VERTEX
  5
198E
  8
0
 10
190.21982715745031
 20
185.7742469081854
 30
0.0
  0
VERTEX
  5
198F
  8
0
 10
190.31279768496509
 20
185.58195835238729
 30
0.0
  0
VERTEX
  5
1990
  8
0
 10
190.3587183332005
 20
185.46721270438681
 30
0.0
  0
VERTEX
  5
1991
  8
0
 10
190.37067394108499
 20
185.43424440237641
 30
0.0
  0
VERTEX
  5
1992
  8
0
 10
190.38211018020229
 20
185.40122565771611
 30
0.0
  0
VERTEX
  5
1993
  8
0
 10
190.38763701985229
 20
185.38469214430421
 30
0.0
  0
VERTEX
  5
1994
  8
0
 10
190.39303814286109
 20
185.36813932798771
 30
0.0
  0
VERTEX
  5
1995
  8
0
 10
190.40346846194311
 20
185.33496476175861
 30
0.0
  0
VERTEX
  5
1996
  8
0
 10
190.4134112172672
 20
185.301677353619
 30
0.0
  0
VERTEX
  5
1997
  8
0
 10
190.42287580175071
 20
185.26824809237721
 30
0.0
  0
VERTEX
  5
1998
  8
0
 10
190.43187074157541
 20
185.23464311741509
 30
0.0
  0
VERTEX
  5
1999
  8
0
 10
190.44040346368379
 20
185.20082330632209
 30
0.0
  0
VERTEX
  5
199A
  8
0
 10
190.44449844280311
 20
185.1838190853347
 30
0.0
  0
VERTEX
  5
199B
  8
0
 10
190.44848000324239
 20
185.16674392844411
 30
0.0
  0
VERTEX
  5
199C
  8
0
 10
190.45610464354681
 20
185.1323544150178
 30
0.0
  0
VERTEX
  5
199D
  8
0
 10
190.46327940454151
 20
185.0975987066075
 30
0.0
  0
VERTEX
  5
199E
  8
0
 10
190.46669462707541
 20
185.0800820805384
 30
0.0
  0
VERTEX
  5
199F
  8
0
 10
190.46999291522141
 20
185.0624735227633
 30
0.0
  0
VERTEX
  5
19A0
  8
0
 10
190.47624228291261
 20
185.02692218456781
 30
0.0
  0
VERTEX
  5
19A1
  8
0
 10
190.4820320825028
 20
184.99081407565239
 30
0.0
  0
VERTEX
  5
19A2
  8
0
 10
190.4847546776893
 20
184.9725040225789
 30
0.0
  0
VERTEX
  5
19A3
  8
0
 10
190.48736158802029
 20
184.95399512013381
 30
0.0
  0
VERTEX
  5
19A4
  8
0
 10
190.4922226586003
 20
184.9162877793116
 30
0.0
  0
VERTEX
  5
19A5
  8
0
 10
190.49659688764581
 20
184.87749606141691
 30
0.0
  0
VERTEX
  5
19A6
  8
0
 10
190.50045132932999
 20
184.83742929542569
 30
0.0
  0
VERTEX
  5
19A7
  8
0
 10
190.5024437056951
 20
184.81336322588709
 30
0.0
  0
VERTEX
  5
19A8
  8
0
 10
190.5029764793085
 20
184.80638161534
 30
0.0
  0
VERTEX
  5
19A9
  8
0
 10
190.5034925259904
 20
184.7993501790634
 30
0.0
  0
VERTEX
  5
19AA
  8
0
 10
190.50374417974081
 20
184.79581527125211
 30
0.0
  0
VERTEX
  5
19AB
  8
0
 10
190.50399153275001
 20
184.79226729875521
 30
0.0
  0
VERTEX
  5
19AC
  8
0
 10
190.5044731653561
 20
184.78513133997609
 30
0.0
  0
VERTEX
  5
19AD
  8
0
 10
190.50493706738541
 20
184.7779406578768
 30
0.0
  0
VERTEX
  5
19AE
  8
0
 10
190.5053828593237
 20
184.77069360341341
 30
0.0
  0
VERTEX
  5
19AF
  8
0
 10
190.5058101377347
 20
184.76338853010481
 30
0.0
  0
VERTEX
  5
19B0
  8
0
 10
190.50621847439291
 20
184.7560238034192
 30
0.0
  0
VERTEX
  5
19B1
  8
0
 10
190.50641539930709
 20
184.75231855495409
 30
0.0
  0
VERTEX
  5
19B2
  8
0
 10
190.5066074177868
 20
184.74859776671681
 30
0.0
  0
VERTEX
  5
19B3
  8
0
 10
190.50697649454389
 20
184.7411086953185
 30
0.0
  0
VERTEX
  5
19B4
  8
0
 10
190.5073252079797
 20
184.7335547951846
 30
0.0
  0
VERTEX
  5
19B5
  8
0
 10
190.50749176644109
 20
184.72975295558771
 30
0.0
  0
VERTEX
  5
19B6
  8
0
 10
190.5076530363776
 20
184.72593420647479
 30
0.0
  0
VERTEX
  5
19B7
  8
0
 10
190.50795943124299
 20
184.71824500842561
 30
0.0
  0
VERTEX
  5
19B8
  8
0
 10
190.5082438155589
 20
184.7104852255238
 30
0.0
  0
VERTEX
  5
19B9
  8
0
 10
190.5083775652221
 20
184.7065782342379
 30
0.0
  0
VERTEX
  5
19BA
  8
0
 10
190.50850558207719
 20
184.70265283493401
 30
0.0
  0
VERTEX
  5
19BB
  8
0
 10
190.5087440916775
 20
184.69474577510911
 30
0.0
  0
VERTEX
  5
19BC
  8
0
 10
190.50895867182371
 20
184.6867619554838
 30
0.0
  0
VERTEX
  5
19BD
  8
0
 10
190.50914861515469
 20
184.67869926712439
 30
0.0
  0
VERTEX
  5
19BE
  8
0
 10
190.5093131782335
 20
184.67055559417571
 30
0.0
  0
VERTEX
  5
19BF
  8
0
 10
190.5094515804897
 20
184.6623288259224
 30
0.0
  0
VERTEX
  5
19C0
  8
0
 10
190.50951071701411
 20
184.6581836259266
 30
0.0
  0
VERTEX
  5
19C1
  8
0
 10
190.5095630033727
 20
184.6540168692552
 30
0.0
  0
VERTEX
  5
19C2
  8
0
 10
190.50964658974161
 20
184.64561766131089
 30
0.0
  0
VERTEX
  5
19C3
  8
0
 10
190.5097014435008
 20
184.6371291820432
 30
0.0
  0
VERTEX
  5
19C4
  8
0
 10
190.5097266294957
 20
184.6285494664647
 30
0.0
  0
VERTEX
  5
19C5
  8
0
 10
190.50972127648879
 20
184.6199192432916
 30
0.0
  0
VERTEX
  5
19C6
  8
0
 10
190.5096856372719
 20
184.6113715593068
 30
0.0
  0
VERTEX
  5
19C7
  8
0
 10
190.50965675767819
 20
184.60713179938401
 30
0.0
  0
VERTEX
  5
19C8
  8
0
 10
190.5096206607929
 20
184.6029144334743
 30
0.0
  0
VERTEX
  5
19C9
  8
0
 10
190.50952726859151
 20
184.59454588024971
 30
0.0
  0
VERTEX
  5
19CA
  8
0
 10
190.50940634315501
 20
184.5862638632446
 30
0.0
  0
VERTEX
  5
19CB
  8
0
 10
190.5092587281145
 20
184.57806630761371
 30
0.0
  0
VERTEX
  5
19CC
  8
0
 10
190.50908522869611
 20
184.5699511126769
 30
0.0
  0
VERTEX
  5
19CD
  8
0
 10
190.5088866124151
 20
184.56191616452759
 30
0.0
  0
VERTEX
  5
19CE
  8
0
 10
190.50877811521059
 20
184.55792812183361
 30
0.0
  0
VERTEX
  5
19CF
  8
0
 10
190.50866360999851
 20
184.5539593483812
 30
0.0
  0
VERTEX
  5
19D0
  8
0
 10
190.50841691651439
 20
184.5460785604464
 30
0.0
  0
VERTEX
  5
19D1
  8
0
 10
190.5081471926797
 20
184.53827171911209
 30
0.0
  0
VERTEX
  5
19D2
  8
0
 10
190.50785506632079
 20
184.5305367752816
 30
0.0
  0
VERTEX
  5
19D3
  8
0
 10
190.50754113395391
 20
184.52287172170071
 30
0.0
  0
VERTEX
  5
19D4
  8
0
 10
190.50720596245441
 20
184.5152746011658
 30
0.0
  0
VERTEX
  5
19D5
  8
0
 10
190.5070305814973
 20
184.51150091959789
 30
0.0
  0
VERTEX
  5
19D6
  8
0
 10
190.5068500907814
 20
184.50774351352069
 30
0.0
  0
VERTEX
  5
19D7
  8
0
 10
190.5064740317253
 20
184.50027662138169
 30
0.0
  0
VERTEX
  5
19D8
  8
0
 10
190.50607827364931
 20
184.49287215455681
 30
0.0
  0
VERTEX
  5
19D9
  8
0
 10
190.50566328219239
 20
184.4855284131433
 30
0.0
  0
VERTEX
  5
19DA
  8
0
 10
190.5052295011194
 20
184.4782437563926
 30
0.0
  0
VERTEX
  5
19DB
  8
0
 10
190.50477734995769
 20
184.4710165451628
 30
0.0
  0
VERTEX
  5
19DC
  8
0
 10
190.50454450996469
 20
184.46742396663291
 30
0.0
  0
VERTEX
  5
19DD
  8
0
 10
190.5043072237097
 20
184.46384513123749
 30
0.0
  0
VERTEX
  5
19DE
  8
0
 10
190.50381949374039
 20
184.4567278663007
 30
0.0
  0
VERTEX
  5
19DF
  8
0
 10
190.5033145086303
 20
184.4496631084512
 30
0.0
  0
VERTEX
  5
19E0
  8
0
 10
190.50305564832351
 20
184.446149909843
 30
0.0
  0
VERTEX
  5
19E1
  8
0
 10
190.5014157076146
 20
184.4253266003125
 30
0.0
  0
VERTEX
  5
19E2
  8
0
 10
190.49771114529131
 20
184.3848651921723
 30
0.0
  0
VERTEX
  5
19E3
  8
0
 10
190.4934762110984
 20
184.34574286201169
 30
0.0
  0
VERTEX
  5
19E4
  8
0
 10
190.4911715553437
 20
184.32661981463701
 30
0.0
  0
SEQEND
  5
19E5
  8
0
  0
LINE
  5
A53
  8
0
 10
190.4911715553437
 20
184.32661981463681
 30
0.0
 11
190.2440358971746
 21
182.3424962179061
 31
0.0
  0
POLYLINE
  5
A54
  8
0
 66
     1
 10
0.0
 20
0.0
 30
0.0
  0
VERTEX
  5
19E6
  8
0
 10
190.2440358971746
 20
182.3424962179063
 30
0.0
  0
VERTEX
  5
19E7
  8
0
 10
190.2401099975115
 20
182.3116257906884
 30
0.0
  0
VERTEX
  5
19E8
  8
0
 10
190.23182117863229
 20
182.2502318685396
 30
0.0
  0
VERTEX
  5
19E9
  8
0
 10
190.22295623917239
 20
182.1892788525216
 30
0.0
  0
VERTEX
  5
19EA
  8
0
 10
190.21830989511051
 20
182.15895960682749
 30
0.0
  0
VERTEX
  5
19EB
  8
0
 10
190.2135219773954
 20
182.12874095612111
 30
0.0
  0
VERTEX
  5
19EC
  8
0
 10
190.203524033115
 20
182.0685929910496
 30
0.0
  0
VERTEX
  5
19ED
  8
0
 10
190.19296699102679
 20
182.00881069511789
 30
0.0
  0
VERTEX
  5
19EE
  8
0
 10
190.1818544887121
 20
181.9493709931179
 30
0.0
  0
VERTEX
  5
19EF
  8
0
 10
190.17018932497399
 20
181.8902521923315
 30
0.0
  0
VERTEX
  5
19F0
  8
0
 10
190.15797356485641
 20
181.8314341165289
 30
0.0
  0
VERTEX
  5
19F1
  8
0
 10
190.1516596803126
 20
181.80213198028221
 30
0.0
  0
VERTEX
  5
19F2
  8
0
 10
190.14520863838709
 20
181.7728981837239
 30
0.0
  0
VERTEX
  5
19F3
  8
0
 10
190.1318955695709
 20
181.7146280279625
 30
0.0
  0
VERTEX
  5
19F4
  8
0
 10
190.11803792378359
 20
181.65662110270381
 30
0.0
  0
VERTEX
  5
19F5
  8
0
 10
190.06526411450571
 20
181.45552981346319
 30
0.0
  0
VERTEX
  5
19F6
  8
0
 10
190.0147319038669
 20
181.28529951319311
 30
0.0
  0
VERTEX
  5
19F7
  8
0
 10
189.9592767601338
 20
181.11680002082869
 30
0.0
  0
VERTEX
  5
19F8
  8
0
 10
189.83338833133061
 20
180.7844246405638
 30
0.0
  0
VERTEX
  5
19F9
  8
0
 10
189.6870616063045
 20
180.45774191474931
 30
0.0
  0
VERTEX
  5
19FA
  8
0
 10
189.52012784354901
 20
180.13760001223869
 30
0.0
  0
VERTEX
  5
19FB
  8
0
 10
189.3326416451128
 20
179.8253209439564
 30
0.0
  0
VERTEX
  5
19FC
  8
0
 10
189.12463597666959
 20
179.52212526780801
 30
0.0
  0
VERTEX
  5
19FD
  8
0
 10
189.01297989260641
 20
179.3743531931448
 30
0.0
  0
VERTEX
  5
19FE
  8
0
 10
188.89625603130759
 20
179.2293643874745
 30
0.0
  0
VERTEX
  5
19FF
  8
0
 10
188.64774653367999
 20
178.94845588849211
 30
0.0
  0
VERTEX
  5
1A00
  8
0
 10
188.37945483430761
 20
178.68086340377531
 30
0.0
  0
VERTEX
  5
1A01
  8
0
 10
188.2139837367294
 20
178.5315042426698
 30
0.0
  0
VERTEX
  5
1A02
  8
0
 10
188.16550937718
 20
178.48979541299079
 30
0.0
  0
VERTEX
  5
1A03
  8
0
 10
188.11650707043941
 20
178.4485279188678
 30
0.0
  0
VERTEX
  5
1A04
  8
0
 10
188.09180862238961
 20
178.4280617659941
 30
0.0
  0
VERTEX
  5
1A05
  8
0
 10
188.0669709446523
 20
178.4077018805217
 30
0.0
  0
VERTEX
  5
1A06
  8
0
 10
188.0166466011151
 20
178.36711972378211
 30
0.0
  0
VERTEX
  5
1A07
  8
0
 10
187.96542076667629
 20
178.32671183606581
 30
0.0
  0
VERTEX
  5
1A08
  8
0
 10
187.9133061845782
 20
178.2865123848577
 30
0.0
  0
VERTEX
  5
1A09
  8
0
 10
187.8603164671089
 20
178.24655502064181
 30
0.0
  0
VERTEX
  5
1A0A
  8
0
 10
187.80646607607011
 20
178.20687282850591
 30
0.0
  0
VERTEX
  5
1A0B
  8
0
 10
187.77922287345751
 20
178.1871450944268
 30
0.0
  0
VERTEX
  5
1A0C
  8
0
 10
187.75177029743281
 20
178.16749827920691
 30
0.0
  0
VERTEX
  5
1A0D
  8
0
 10
187.69624520946499
 20
178.12846317964861
 30
0.0
  0
VERTEX
  5
1A0E
  8
0
 10
187.6399076435749
 20
178.08979862278051
 30
0.0
  0
VERTEX
  5
1A0F
  8
0
 10
187.58277513710041
 20
178.05153493699621
 30
0.0
  0
VERTEX
  5
1A10
  8
0
 10
187.52486587725269
 20
178.01370163517569
 30
0.0
  0
VERTEX
  5
1A11
  8
0
 10
187.46619863541559
 20
177.97632736359191
 30
0.0
  0
VERTEX
  5
1A12
  8
0
 10
187.43658677853301
 20
177.95782106659391
 30
0.0
  0
VERTEX
  5
1A13
  8
0
 10
187.40679269097279
 20
177.93943985096121
 30
0.0
  0
VERTEX
  5
1A14
  8
0
 10
187.34666776961751
 20
177.90306587338989
 30
0.0
  0
VERTEX
  5
1A15
  8
0
 10
187.28584431786649
 20
177.86723142030911
 30
0.0
  0
VERTEX
  5
1A16
  8
0
 10
187.25517731519261
 20
177.84952446722889
 30
0.0
  0
VERTEX
  5
1A17
  8
0
 10
187.22434381512741
 20
177.83196185546839
 30
0.0
  0
VERTEX
  5
1A18
  8
0
 10
187.16218875377601
 20
177.79728186635421
 30
0.0
  0
VERTEX
  5
1A19
  8
0
 10
187.0994025808273
 20
177.76321539553641
 30
0.0
  0
VERTEX
  5
1A1A
  8
0
 10
187.06778039955799
 20
177.7464194913197
 30
0.0
  0
VERTEX
  5
1A1B
  8
0
 10
187.03600963149131
 20
177.7297855736299
 30
0.0
  0
VERTEX
  5
1A1C
  8
0
 10
186.97203505382291
 20
177.69701465408119
 30
0.0
  0
VERTEX
  5
1A1D
  8
0
 10
186.9075047236928
 20
177.66492395007381
 30
0.0
  0
VERTEX
  5
1A1E
  8
0
 10
186.8424451493315
 20
177.63353377392451
 30
0.0
  0
VERTEX
  5
1A1F
  8
0
 10
186.77688336475219
 20
177.60286337942779
 30
0.0
  0
VERTEX
  5
1A20
  8
0
 10
186.71084681141869
 20
177.5729309076919
 30
0.0
  0
VERTEX
  5
1A21
  8
0
 10
186.67765915145159
 20
177.5582467452935
 30
0.0
  0
VERTEX
  5
1A22
  8
0
 10
186.6443631625028
 20
177.5437533176144
 30
0.0
  0
VERTEX
  5
1A23
  8
0
 10
186.5774475588203
 20
177.51534107453071
 30
0.0
  0
VERTEX
  5
1A24
  8
0
 10
186.51011921015061
 20
177.4877057626737
 30
0.0
  0
VERTEX
  5
1A25
  8
0
 10
186.44240864034151
 20
177.46086263838859
 30
0.0
  0
VERTEX
  5
1A26
  8
0
 10
186.37434723639271
 20
177.43482594096849
 30
0.0
  0
VERTEX
  5
1A27
  8
0
 10
186.3059671236484
 20
177.40960881985851
 30
0.0
  0
VERTEX
  5
1A28
  8
0
 10
186.27166775957571
 20
177.39731139517201
 30
0.0
  0
VERTEX
  5
1A29
  8
0
 10
186.2373010309982
 20
177.3852232684165
 30
0.0
  0
VERTEX
  5
1A2A
  8
0
 10
186.16838214580449
 20
177.36168006476751
 30
0.0
  0
VERTEX
  5
1A2B
  8
0
 10
186.09924395837439
 20
177.33898872033009
 30
0.0
  0
VERTEX
  5
1A2C
  8
0
 10
186.06460313422829
 20
177.32796511046041
 30
0.0
  0
SEQEND
  5
1A2D
  8
0
  0
LINE
  5
A56
  8
0
 10
134.60666845917541
 20
151.26070116281201
 30
0.0
 11
116.6065929534743
 21
151.26070116281201
 31
0.0
  0
LINE
  5
A57
  8
0
 10
116.35663070632491
 20
151.5106634099615
 30
0.0
 11
116.6065929534743
 21
151.26070116281201
 31
0.0
  0
LINE
  5
A58
  8
0
 10
130.61669993584329
 20
174.32955235449529
 30
0.0
 11
131.43626464894021
 21
174.6311998231526
 31
0.0
  0
POLYLINE
  5
A59
  8
0
 66
     1
 10
0.0
 20
0.0
 30
0.0
  0
VERTEX
  5
1A2E
  8
0
 10
155.96391685774981
 20
181.98486966626231
 30
0.0
  0
VERTEX
  5
1A2F
  8
0
 10
160.89554747368419
 20
183.08876928772889
 30
0.0
  0
VERTEX
  5
1A30
  8
0
 10
170.82958284312241
 20
184.94867105150959
 30
0.0
  0
VERTEX
  5
1A31
  8
0
 10
180.8398053451759
 20
186.34141609334159
 30
0.0
  0
VERTEX
  5
1A32
  8
0
 10
185.86663070632491
 20
186.86160999450229
 30
0.0
  0
SEQEND
  5
1A33
  8
0
  0
LINE
  5
A5A
  8
0
 10
153.85460415265609
 20
181.4755040578695
 30
0.0
 11
155.96391685774981
 21
181.9848696662624
 31
0.0
  0
POLYLINE
  5
A5B
  8
0
 66
     1
 10
0.0
 20
0.0
 30
0.0
  0
VERTEX
  5
1A34
  8
0
 10
132.46037158297489
 20
175.00285131278059
 30
0.0
  0
VERTEX
  5
1A35
  8
0
 10
133.02442011938251
 20
175.2050522446205
 30
0.0
  0
VERTEX
  5
1A36
  8
0
 10
134.152170627624
 20
175.60404341277601
 30
0.0
  0
VERTEX
  5
1A37
  8
0
 10
135.27683445125811
 20
175.9949577543471
 30
0.0
  0
VERTEX
  5
1A38
  8
0
 10
135.83700496157951
 20
176.18707383363409
 30
0.0
  0
VERTEX
  5
1A39
  8
0
 10
136.3951881243556
 20
176.37680182699179
 30
0.0
  0
VERTEX
  5
1A3A
  8
0
 10
137.51188893006531
 20
176.75127745913829
 30
0.0
  0
VERTEX
  5
1A3B
  8
0
 10
138.6519619834225
 20
177.1266154495197
 30
0.0
  0
VERTEX
  5
1A3C
  8
0
 10
139.81496571712231
 20
177.50228090413921
 30
0.0
  0
VERTEX
  5
1A3D
  8
0
 10
140.9979272575732
 20
177.87695133971101
 30
0.0
  0
VERTEX
  5
1A3E
  8
0
 10
142.19782856494831
 20
178.2493617782356
 30
0.0
  0
VERTEX
  5
1A3F
  8
0
 10
142.8031867399846
 20
178.43434397613191
 30
0.0
  0
VERTEX
  5
1A40
  8
0
 10
143.41164662553231
 20
178.6183201997068
 30
0.0
  0
VERTEX
  5
1A41
  8
0
 10
144.63631656697081
 20
178.9826982646139
 30
0.0
  0
VERTEX
  5
1A42
  8
0
 10
145.86870748746071
 20
179.34142662507779
 30
0.0
  0
VERTEX
  5
1A43
  8
0
 10
147.10567233183619
 20
179.69351152272881
 30
0.0
  0
VERTEX
  5
1A44
  8
0
 10
148.34404275928441
 20
180.03803384090321
 30
0.0
  0
VERTEX
  5
1A45
  8
0
 10
149.58094173822661
 20
180.37423321710651
 30
0.0
  0
VERTEX
  5
1A46
  8
0
 10
150.19793603844809
 20
180.5389927942075
 30
0.0
  0
VERTEX
  5
1A47
  8
0
 10
150.81342975946649
 20
180.7014050242573
 30
0.0
  0
VERTEX
  5
1A48
  8
0
 10
152.03833494666421
 20
181.0188575631793
 30
0.0
  0
VERTEX
  5
1A49
  8
0
 10
153.2525136283941
 20
181.32598267317411
 30
0.0
  0
VERTEX
  5
1A4A
  8
0
 10
153.85460415265609
 20
181.4755040578695
 30
0.0
  0
SEQEND
  5
1A4B
  8
0
  0
POLYLINE
  5
A5C
  8
0
 66
     1
 10
0.0
 20
0.0
 30
0.0
  0
VERTEX
  5
1A4C
  8
0
 10
118.6561279002669
 20
169.4885069334774
 30
0.0
  0
VERTEX
  5
1A4D
  8
0
 10
118.7064930870782
 20
169.51065925542321
 30
0.0
  0
VERTEX
  5
1A4E
  8
0
 10
118.8082133595699
 20
169.5553525708458
 30
0.0
  0
VERTEX
  5
1A4F
  8
0
 10
118.91119707456799
 20
169.6005373822648
 30
0.0
  0
VERTEX
  5
1A50
  8
0
 10
118.9631411603397
 20
169.62330393029069
 30
0.0
  0
VERTEX
  5
1A51
  8
0
 10
119.01537524434499
 20
169.64618117402571
 30
0.0
  0
VERTEX
  5
1A52
  8
0
 10
119.1206780603285
 20
169.6922512211718
 30
0.0
  0
VERTEX
  5
1A53
  8
0
 10
119.2270332412258
 20
169.7387138755565
 30
0.0
  0
VERTEX
  5
1A54
  8
0
 10
119.3343662102158
 20
169.78553465540591
 30
0.0
  0
VERTEX
  5
1A55
  8
0
 10
119.44260024998481
 20
169.83267832441999
 30
0.0
  0
VERTEX
  5
1A56
  8
0
 10
119.5516566410483
 20
169.8801089628254
 30
0.0
  0
VERTEX
  5
1A57
  8
0
 10
119.6064681062129
 20
169.90392050155231
 30
0.0
  0
VERTEX
  5
1A58
  8
0
 10
119.6614548052264
 20
169.92779003989631
 30
0.0
  0
VERTEX
  5
1A59
  8
0
 10
119.77191245417551
 20
169.97568448783241
 30
0.0
  0
VERTEX
  5
1A5A
  8
0
 10
119.8829457430631
 20
170.02375477696719
 30
0.0
  0
VERTEX
  5
1A5B
  8
0
 10
119.99446942964801
 20
170.0719629923554
 30
0.0
  0
VERTEX
  5
1A5C
  8
0
 10
120.1063970392118
 20
170.12027091187511
 30
0.0
  0
VERTEX
  5
1A5D
  8
0
 10
120.218706839193
 20
170.16866842045431
 30
0.0
  0
VERTEX
  5
1A5E
  8
0
 10
120.2753219946555
 20
170.1930369097289
 30
0.0
  0
VERTEX
  5
1A5F
  8
0
 10
120.3323541977208
 20
170.21756553111931
 30
0.0
  0
VERTEX
  5
1A60
  8
0
 10
120.4476506404912
 20
170.26709328940021
 30
0.0
  0
VERTEX
  5
1A61
  8
0
 10
120.5645569153143
 20
170.3172315266302
 30
0.0
  0
VERTEX
  5
1A62
  8
0
 10
120.62360103966419
 20
170.34252310471629
 30
0.0
  0
VERTEX
  5
1A63
  8
0
 10
120.6830321966702
 20
170.3679594683492
 30
0.0
  0
VERTEX
  5
1A64
  8
0
 10
120.803034216716
 20
170.41925579955381
 30
0.0
  0
VERTEX
  5
1A65
  8
0
 10
120.9245193990069
 20
170.4710987306232
 30
0.0
  0
VERTEX
  5
1A66
  8
0
 10
120.9858042341329
 20
170.49721824847239
 30
0.0
  0
VERTEX
  5
1A67
  8
0
 10
121.04744299530419
 20
170.52346606403231
 30
0.0
  0
VERTEX
  5
1A68
  8
0
 10
121.17175922583419
 20
170.57633526195301
 30
0.0
  0
VERTEX
  5
1A69
  8
0
 10
121.2974214233556
 20
170.6296835148448
 30
0.0
  0
VERTEX
  5
1A6A
  8
0
 10
121.4243821813768
 20
170.6834878111263
 30
0.0
  0
VERTEX
  5
1A6B
  8
0
 10
121.55259350685679
 20
170.7377250080161
 30
0.0
  0
VERTEX
  5
1A6C
  8
0
 10
121.6820069776979
 20
170.7923719036186
 30
0.0
  0
VERTEX
  5
1A6D
  8
0
 10
121.747149303575
 20
170.81984173772381
 30
0.0
  0
VERTEX
  5
1A6E
  8
0
 10
121.8125738384623
 20
170.84740528217239
 30
0.0
  0
VERTEX
  5
1A6F
  8
0
 10
121.9442445042946
 20
170.9028017099871
 30
0.0
  0
VERTEX
  5
1A70
  8
0
 10
122.0769681059252
 20
170.95853735082659
 30
0.0
  0
VERTEX
  5
1A71
  8
0
 10
122.2106925708901
 20
171.01458800790351
 30
0.0
  0
VERTEX
  5
1A72
  8
0
 10
122.3453647505539
 20
171.07092918456451
 30
0.0
  0
VERTEX
  5
1A73
  8
0
 10
122.48093054813759
 20
171.12753614470591
 30
0.0
  0
VERTEX
  5
1A74
  8
0
 10
122.5490314209528
 20
171.15593151290361
 30
0.0
  0
VERTEX
  5
1A75
  8
0
 10
122.6173350480929
 20
171.1843839730254
 30
0.0
  0
VERTEX
  5
1A76
  8
0
 10
122.7545226471797
 20
171.24144763523421
 30
0.0
  0
VERTEX
  5
1A77
  8
0
 10
122.8924371876161
 20
171.29870203834861
 30
0.0
  0
VERTEX
  5
1A78
  8
0
 10
123.03102209267981
 20
171.35612209119259
 30
0.0
  0
VERTEX
  5
1A79
  8
0
 10
123.17022050514839
 20
171.41368276523991
 30
0.0
  0
VERTEX
  5
1A7A
  8
0
 10
123.30997542896731
 20
171.47135915592611
 30
0.0
  0
VERTEX
  5
1A7B
  8
0
 10
123.3800441421202
 20
171.50023316509839
 30
0.0
  0
VERTEX
  5
1A7C
  8
0
 10
123.4502357043097
 20
171.52912894331109
 30
0.0
  0
VERTEX
  5
1A7D
  8
0
 10
123.5909630330161
 20
171.5869752543318
 30
0.0
  0
VERTEX
  5
1A7E
  8
0
 10
123.7321009853752
 20
171.64487390930219
 30
0.0
  0
VERTEX
  5
1A7F
  8
0
 10
123.87359077282019
 20
171.70279994848701
 30
0.0
  0
VERTEX
  5
1A80
  8
0
 10
124.0153727995492
 20
171.7607282760402
 30
0.0
  0
VERTEX
  5
1A81
  8
0
 10
124.15738679456901
 20
171.81863371782191
 30
0.0
  0
VERTEX
  5
1A82
  8
0
 10
124.22846179352339
 20
171.84756998231691
 30
0.0
  0
VERTEX
  5
1A83
  8
0
 10
124.29957194442019
 20
171.87649107863541
 30
0.0
  0
VERTEX
  5
1A84
  8
0
 10
124.4418670269212
 20
171.9342751990074
 30
0.0
  0
VERTEX
  5
1A85
  8
0
 10
124.5842105462969
 20
171.99196101164861
 30
0.0
  0
VERTEX
  5
1A86
  8
0
 10
124.7265408700864
 20
172.04952359774151
 30
0.0
  0
VERTEX
  5
1A87
  8
0
 10
124.86879636825149
 20
172.10693824321541
 30
0.0
  0
VERTEX
  5
1A88
  8
0
 10
125.0109155549289
 20
172.16418049517759
 30
0.0
  0
VERTEX
  5
1A89
  8
0
 10
125.081904892129
 20
172.19272941743779
 30
0.0
  0
VERTEX
  5
1A8A
  8
0
 10
125.1528372329371
 20
172.22122621853219
 30
0.0
  0
VERTEX
  5
1A8B
  8
0
 10
125.2945004738817
 20
172.27805158579861
 30
0.0
  0
VERTEX
  5
1A8C
  8
0
 10
125.4358439332962
 20
172.3346328009053
 30
0.0
  0
VERTEX
  5
1A8D
  8
0
 10
125.5063763805728
 20
172.3628243916489
 30
0.0
  0
VERTEX
  5
1A8E
  8
0
 10
125.57680556963081
 20
172.3909459873073
 30
0.0
  0
VERTEX
  5
1A8F
  8
0
 10
125.7173227817768
 20
172.44696724393691
 30
0.0
  0
VERTEX
  5
1A90
  8
0
 10
125.8573325596325
 20
172.50267270542599
 30
0.0
  0
VERTEX
  5
1A91
  8
0
 10
125.92712739504719
 20
172.53039957934121
 30
0.0
  0
VERTEX
  5
1A92
  8
0
 10
125.9967716337266
 20
172.5580386009801
 30
0.0
  0
VERTEX
  5
1A93
  8
0
 10
126.1355766241702
 20
172.61304131202871
 30
0.0
  0
VERTEX
  5
1A94
  8
0
 10
126.2736841892708
 20
172.66765742879349
 30
0.0
  0
VERTEX
  5
1A95
  8
0
 10
126.41103117419379
 20
172.72186380594721
 30
0.0
  0
VERTEX
  5
1A96
  8
0
 10
126.5475547601168
 20
172.77563761754939
 30
0.0
  0
VERTEX
  5
1A97
  8
0
 10
126.68319261437701
 20
172.82895641147709
 30
0.0
  0
VERTEX
  5
1A98
  8
0
 10
126.7506600834017
 20
172.85543827606941
 30
0.0
  0
VERTEX
  5
1A99
  8
0
 10
126.81788421134409
 20
172.8817986218196
 30
0.0
  0
VERTEX
  5
1A9A
  8
0
 10
126.9524731472337
 20
172.9344965108545
 30
0.0
  0
VERTEX
  5
1A9B
  8
0
 10
127.0876726119927
 20
172.98732881870231
 30
0.0
  0
VERTEX
  5
1A9C
  8
0
 10
127.2234090507541
 20
173.04026555037751
 30
0.0
  0
VERTEX
  5
1A9D
  8
0
 10
127.3596086666942
 20
173.0932768420337
 30
0.0
  0
VERTEX
  5
1A9E
  8
0
 10
127.496197580065
 20
173.14633302528571
 30
0.0
  0
VERTEX
  5
1A9F
  8
0
 10
127.564614952114
 20
173.17286874884391
 30
0.0
  0
VERTEX
  5
1AA0
  8
0
 10
127.6331019863261
 20
173.19940469012451
 30
0.0
  0
VERTEX
  5
1AA1
  8
0
 10
127.7702483140238
 20
173.25246274667521
 30
0.0
  0
VERTEX
  5
1AA2
  8
0
 10
127.9075633829664
 20
173.3054784860108
 30
0.0
  0
VERTEX
  5
1AA3
  8
0
 10
128.04497456314169
 20
173.35842364019479
 30
0.0
  0
VERTEX
  5
1AA4
  8
0
 10
128.18240993472401
 20
173.4112704416884
 30
0.0
  0
VERTEX
  5
1AA5
  8
0
 10
128.31979844941111
 20
173.4639916822203
 30
0.0
  0
VERTEX
  5
1AA6
  8
0
 10
128.38845321116639
 20
173.49029688184419
 30
0.0
  0
VERTEX
  5
1AA7
  8
0
 10
128.4570700932305
 20
173.5165607711763
 30
0.0
  0
VERTEX
  5
1AA8
  8
0
 10
128.5941559856999
 20
173.56895176866081
 30
0.0
  0
VERTEX
  5
1AA9
  8
0
 10
128.73098781970219
 20
173.62113916665101
 30
0.0
  0
VERTEX
  5
1AAA
  8
0
 10
128.86749729952601
 20
173.67309767182621
 30
0.0
  0
VERTEX
  5
1AAB
  8
0
 10
129.00361624620371
 20
173.7248022439768
 30
0.0
  0
VERTEX
  5
1AAC
  8
0
 10
129.1392767670838
 20
173.7762281579966
 30
0.0
  0
VERTEX
  5
1AAD
  8
0
 10
129.2069140207021
 20
173.80182899252611
 30
0.0
  0
VERTEX
  5
1AAE
  8
0
 10
129.2744114222688
 20
173.82735106366189
 30
0.0
  0
VERTEX
  5
1AAF
  8
0
 10
129.40895338835381
 20
173.87814704339681
 30
0.0
  0
VERTEX
  5
1AB0
  8
0
 10
129.54283661983561
 20
173.92859266819681
 30
0.0
  0
VERTEX
  5
1AB1
  8
0
 10
129.67599600849891
 20
173.9786650518617
 30
0.0
  0
VERTEX
  5
1AB2
  8
0
 10
129.8083675410129
 20
174.02834190366241
 30
0.0
  0
VERTEX
  5
1AB3
  8
0
 10
129.93988845489949
 20
174.07760157953871
 30
0.0
  0
VERTEX
  5
1AB4
  8
0
 10
130.005310696647
 20
174.10206840184361
 30
0.0
  0
VERTEX
  5
1AB5
  8
0
 10
130.0704973929555
 20
174.12642313190011
 30
0.0
  0
VERTEX
  5
1AB6
  8
0
 10
130.20014649233431
 20
174.17479080670401
 30
0.0
  0
VERTEX
  5
1AB7
  8
0
 10
130.32879221145259
 20
174.22269057889781
 30
0.0
  0
VERTEX
  5
1AB8
  8
0
 10
130.3927203116441
 20
174.2464588324803
 30
0.0
  0
VERTEX
  5
1AB9
  8
0
 10
130.4563754204552
 20
174.2701027424925
 30
0.0
  0
VERTEX
  5
1ABA
  8
0
 10
130.58283743950079
 20
174.31700790627801
 30
0.0
  0
VERTEX
  5
1ABB
  8
0
 10
130.7081202951955
 20
174.36338708323581
 30
0.0
  0
VERTEX
  5
1ABC
  8
0
 10
130.77030165717389
 20
174.38637361836859
 30
0.0
  0
VERTEX
  5
1ABD
  8
0
 10
130.83216689856499
 20
174.4092217497849
 30
0.0
  0
VERTEX
  5
1ABE
  8
0
 10
130.95492121790281
 20
174.45449390230959
 30
0.0
  0
VERTEX
  5
1ABF
  8
0
 10
131.0763284467215
 20
174.4991861111144
 30
0.0
  0
VERTEX
  5
1AC0
  8
0
 10
131.19633516699611
 20
174.54328157193811
 30
0.0
  0
VERTEX
  5
1AC1
  8
0
 10
131.31488950785459
 20
174.58676415514799
 30
0.0
  0
VERTEX
  5
1AC2
  8
0
 10
131.43194129981481
 20
174.62961845271221
 30
0.0
  0
VERTEX
  5
1AC3
  8
0
 10
131.4898885641845
 20
174.6508053877574
 30
0.0
  0
VERTEX
  5
1AC4
  8
0
 10
131.54744222462901
 20
174.67182982303959
 30
0.0
  0
VERTEX
  5
1AC5
  8
0
 10
131.66134645763611
 20
174.7133846148709
 30
0.0
  0
VERTEX
  5
1AC6
  8
0
 10
131.77360949027559
 20
174.75426972669661
 30
0.0
  0
VERTEX
  5
1AC7
  8
0
 10
131.8841867142074
 20
174.79447208418659
 30
0.0
  0
VERTEX
  5
1AC8
  8
0
 10
131.9930347985389
 20
174.83397913580029
 30
0.0
  0
VERTEX
  5
1AC9
  8
0
 10
132.10011188879511
 20
174.87277891675501
 30
0.0
  0
VERTEX
  5
1ACA
  8
0
 10
132.1529736789474
 20
174.89191001585399
 30
0.0
  0
VERTEX
  5
1ACB
  8
0
 10
132.20537778346869
 20
174.9108601042914
 30
0.0
  0
VERTEX
  5
1ACC
  8
0
 10
132.3087941023139
 20
174.94821206949439
 30
0.0
  0
VERTEX
  5
1ACD
  8
0
 10
132.41032444653891
 20
174.98482492580331
 30
0.0
  0
VERTEX
  5
1ACE
  8
0
 10
132.46037158297489
 20
175.00285131278051
 30
0.0
  0
SEQEND
  5
1ACF
  8
0
  0
LINE
  5
A5D
  8
0
 10
185.86663070632491
 20
186.86160999450229
 30
0.0
 11
187.891538427131
 21
187.0376061949851
 31
0.0
  0
LINE
  5
A5F
  8
0
 10
121.6166307063249
 20
95.527701162812065
 30
0.0
 11
129.61663070632491
 21
95.527701162812065
 31
0.0
  0
LINE
  5
A60
  8
0
 10
122.38363070632479
 20
94.760701162812055
 30
0.0
 11
128.84963070632489
 21
94.760701162812055
 31
0.0
  0
LINE
  5
A62
  8
0
 10
118.8666307063249
 20
144.7607011628121
 30
0.0
 11
132.36663070632491
 21
144.7607011628121
 31
0.0
  0
LINE
  5
A63
  8
3
 10
128.84963070632489
 20
94.760701162812055
 30
0.0
 11
128.84963070632489
 21
144.7607011628121
 31
0.0
  0
LINE
  5
A64
  8
0
 10
129.61663070632491
 20
144.7607011628121
 30
0.0
 11
128.84963070632489
 21
144.7607011628121
 31
0.0
  0
LINE
  5
A65
  8
3
 10
122.38363070632479
 20
94.760701162812055
 30
0.0
 11
122.38363070632479
 21
144.7607011628121
 31
0.0
  0
LINE
  5
A66
  8
0
 10
121.6166307063249
 20
144.7607011628121
 30
0.0
 11
122.38363070632479
 21
144.7607011628121
 31
0.0
  0
LINE
  5
A97
  8
1
 10
242.07547453295521
 20
189.0457353883489
 30
0.0
 11
242.07547453295521
 21
92.760701162812083
 31
0.0
  0
LINE
  5
A98
  8
0
 10
246.27313307572339
 20
187.0457353883489
 30
0.0
 11
237.877815990187
 21
187.0457353883489
 31
0.0
  0
LINE
  5
A99
  8
0
 10
232.57547453295521
 20
172.40683502445219
 30
0.0
 11
232.82547453295521
 21
151.26070116281201
 31
0.0
  0
LINE
  5
A9A
  8
0
 10
236.2394491163675
 20
181.9164152664369
 30
0.0
 11
236.2394491163675
 21
171.24345899632559
 31
0.0
  0
LINE
  5
A9B
  8
0
 10
247.9114999495429
 20
171.24345899632559
 30
0.0
 11
247.9114999495429
 21
181.9164152664369
 31
0.0
  0
LINE
  5
A9C
  8
0
 10
251.32547453295521
 20
151.26070116281201
 30
0.0
 11
251.5754745329553
 21
172.40683502445219
 31
0.0
  0
LINE
  5
A9F
  8
0
 10
246.07547453295521
 20
95.527701162812065
 30
0.0
 11
246.07547453295521
 21
144.7607011628121
 31
0.0
  0
LINE
  5
AA0
  8
0
 10
238.07547453295521
 20
144.7607011628121
 30
0.0
 11
238.07547453295521
 21
95.527701162812065
 31
0.0
  0
LINE
  5
AA1
  8
0
 10
245.3084745329551
 20
94.760701162812055
 30
0.0
 11
246.07547453295521
 21
95.527701162812065
 31
0.0
  0
LINE
  5
AA2
  8
0
 10
238.07547453295521
 20
95.527701162812065
 30
0.0
 11
238.84247453295521
 21
94.760701162812055
 31
0.0
  0
LINE
  5
AA3
  8
0
 10
248.82547453295521
 20
144.7607011628121
 30
0.0
 11
248.82547453295521
 21
151.26070116281201
 31
0.0
  0
LINE
  5
AA4
  8
0
 10
235.32547453295521
 20
151.26070116281201
 30
0.0
 11
235.32547453295521
 21
144.7607011628121
 31
0.0
  0
LINE
  5
AA7
  8
0
 10
236.6044898319017
 20
174.5465456491404
 30
0.0
 11
247.54645923400869
 21
174.5465456491404
 31
0.0
  0
LINE
  5
AA8
  8
0
 10
237.32960191374281
 20
177.32796511046041
 30
0.0
 11
246.82134715216759
 21
177.32796511046041
 31
0.0
  0
LINE
  5
AA9
  8
0
 10
237.09340992725279
 20
175.2436929364975
 30
0.0
 11
247.0575391386576
 21
175.2436929364975
 31
0.0
  0
POLYLINE
  5
AAB
  8
0
 66
     1
 10
0.0
 20
0.0
 30
0.0
  0
VERTEX
  5
1AD0
  8
0
 10
246.6654745329551
 20
166.97934746876439
 30
0.0
  0
VERTEX
  5
1AD1
  8
0
 10
246.6662575097283
 20
167.0868972154058
 30
0.0
  0
VERTEX
  5
1AD2
  8
0
 10
246.67253356553971
 20
167.3008942724492
 30
0.0
  0
VERTEX
  5
1AD3
  8
0
 10
246.6851156686046
 20
167.51338100975531
 30
0.0
  0
VERTEX
  5
1AD4
  8
0
 10
246.6937806242596
 20
167.61904320027671
 30
0.0
  0
VERTEX
  5
1AD5
  8
0
 10
246.7040327474173
 20
167.72431022957809
 30
0.0
  0
VERTEX
  5
1AD6
  8
0
 10
246.72931127330841
 20
167.93363625834289
 30
0.0
  0
VERTEX
  5
1AD7
  8
0
 10
246.7609752679092
 20
168.1413148860579
 30
0.0
  0
VERTEX
  5
1AD8
  8
0
 10
246.79904626209211
 20
168.34730312697809
 30
0.0
  0
VERTEX
  5
1AD9
  8
0
 10
246.8435432584767
 20
168.5515592041491
 30
0.0
  0
VERTEX
  5
1ADA
  8
0
 10
246.89448270904171
 20
168.75404261445081
 30
0.0
  0
VERTEX
  5
1ADB
  8
0
 10
246.92237279505059
 20
168.8546072761294
 30
0.0
  0
VERTEX
  5
1ADC
  8
0
 10
246.95187850213239
 20
168.9547141913952
 30
0.0
  0
VERTEX
  5
1ADD
  8
0
 10
247.01574195910749
 20
169.15353616495881
 30
0.0
  0
VERTEX
  5
1ADE
  8
0
 10
247.08608184095581
 20
169.35047221839511
 30
0.0
  0
VERTEX
  5
1ADF
  8
0
 10
247.1629043652274
 20
169.54548754196199
 30
0.0
  0
VERTEX
  5
1AE0
  8
0
 10
247.24621323363519
 20
169.73854888350431
 30
0.0
  0
VERTEX
  5
1AE1
  8
0
 10
247.3360200974227
 20
169.9296458966331
 30
0.0
  0
VERTEX
  5
1AE2
  8
0
 10
247.383366194313
 20
170.02445896217779
 30
0.0
  0
VERTEX
  5
1AE3
  8
0
 10
247.4323410872617
 20
170.1187765294533
 30
0.0
  0
VERTEX
  5
1AE4
  8
0
 10
247.53517723962071
 20
170.30590989472381
 30
0.0
  0
VERTEX
  5
1AE5
  8
0
 10
247.6445268638065
 20
170.49101635244261
 30
0.0
  0
VERTEX
  5
1AE6
  8
0
 10
247.7016429830249
 20
170.58280063412519
 30
0.0
  0
SEQEND
  5
1AE7
  8
0
  0
POLYLINE
  5
AAD
  8
0
 66
     1
 10
0.0
 20
0.0
 30
0.0
  0
VERTEX
  5
1AE8
  8
0
 10
236.44930602863499
 20
170.5828007198389
 30
0.0
  0
VERTEX
  5
1AE9
  8
0
 10
236.50642215084159
 20
170.49101643624491
 30
0.0
  0
VERTEX
  5
1AEA
  8
0
 10
236.61577178075169
 20
170.3059099746134
 30
0.0
  0
VERTEX
  5
1AEB
  8
0
 10
236.71860793849731
 20
170.1187766053126
 30
0.0
  0
VERTEX
  5
1AEC
  8
0
 10
236.76758283401239
 20
170.0244590359782
 30
0.0
  0
VERTEX
  5
1AED
  8
0
 10
236.81492893338421
 20
169.9296459683458
 30
0.0
  0
VERTEX
  5
1AEE
  8
0
 10
236.90473580187921
 20
169.73854895095781
 30
0.0
  0
VERTEX
  5
1AEF
  8
0
 10
236.98804467464799
 20
169.54548760505961
 30
0.0
  0
VERTEX
  5
1AF0
  8
0
 10
237.06486720294239
 20
169.35047227702461
 30
0.0
  0
VERTEX
  5
1AF1
  8
0
 10
237.1352070884748
 20
169.15353621901011
 30
0.0
  0
VERTEX
  5
1AF2
  8
0
 10
237.19907054879499
 20
168.9547142407603
 30
0.0
  0
VERTEX
  5
1AF3
  8
0
 10
237.22857625742211
 20
168.85460732311179
 30
0.0
  0
VERTEX
  5
1AF4
  8
0
 10
237.25646634489181
 20
168.75404265902441
 30
0.0
  0
VERTEX
  5
1AF5
  8
0
 10
237.30740579812411
 20
168.55155924382839
 30
0.0
  0
VERTEX
  5
1AF6
  8
0
 10
237.351902796838
 20
168.34730316166321
 30
0.0
  0
VERTEX
  5
1AF7
  8
0
 10
237.38997379301301
 20
168.1413149156518
 30
0.0
  0
VERTEX
  5
1AF8
  8
0
 10
237.42163778926951
 20
167.93363628275151
 30
0.0
  0
VERTEX
  5
1AF9
  8
0
 10
237.44691631648161
 20
167.72431024871051
 30
0.0
  0
VERTEX
  5
1AFA
  8
0
 10
237.4571684401746
 20
167.61904321673811
 30
0.0
  0
VERTEX
  5
1AFB
  8
0
 10
237.46583339628191
 20
167.5133810235242
 30
0.0
  0
VERTEX
  5
1AFC
  8
0
 10
237.4784155000028
 20
167.30089428077039
 30
0.0
  0
VERTEX
  5
1AFD
  8
0
 10
237.4846915561414
 20
167.086897218199
 30
0.0
  0
VERTEX
  5
1AFE
  8
0
 10
237.48547453295521
 20
166.97934746876439
 30
0.0
  0
SEQEND
  5
1AFF
  8
0
  0
POLYLINE
  5
AB0
  8
0
 66
     1
 10
0.0
 20
0.0
 30
0.0
  0
VERTEX
  5
1B00
  8
0
 10
236.24466956922339
 20
171.34624447777139
 30
0.0
  0
VERTEX
  5
1B01
  8
0
 10
236.24306644710671
 20
171.32906320009221
 30
0.0
  0
VERTEX
  5
1B02
  8
0
 10
236.2407454812861
 20
171.29475668761191
 30
0.0
  0
VERTEX
  5
1B03
  8
0
 10
236.23959248553689
 20
171.26053465574651
 30
0.0
  0
VERTEX
  5
1B04
  8
0
 10
236.2394491163675
 20
171.24345899632559
 30
0.0
  0
SEQEND
  5
1B05
  8
0
  0
POLYLINE
  5
AB1
  8
0
 66
     1
 10
0.0
 20
0.0
 30
0.0
  0
VERTEX
  5
1B06
  8
0
 10
236.2394491163675
 20
171.24345899632559
 30
0.0
  0
VERTEX
  5
1B07
  8
0
 10
236.23960243048819
 20
171.22578456214089
 30
0.0
  0
VERTEX
  5
1B08
  8
0
 10
236.24083486522889
 20
171.19027354699961
 30
0.0
  0
VERTEX
  5
1B09
  8
0
 10
236.24331436468549
 20
171.15455528968641
 30
0.0
  0
VERTEX
  5
1B0A
  8
0
 10
236.24502628209589
 20
171.1366218411479
 30
0.0
  0
VERTEX
  5
1B0B
  8
0
 10
236.2470552659077
 20
171.1186406760394
 30
0.0
  0
VERTEX
  5
1B0C
  8
0
 10
236.2520709300307
 20
171.08254073724191
 30
0.0
  0
VERTEX
  5
1B0D
  8
0
 10
236.25837374054771
 20
171.0462666315513
 30
0.0
  0
VERTEX
  5
1B0E
  8
0
 10
236.26597510479129
 20
171.0098296260401
 30
0.0
  0
VERTEX
  5
1B0F
  8
0
 10
236.27488545858211
 20
170.97324107830559
 30
0.0
  0
VERTEX
  5
1B10
  8
0
 10
236.28511427402341
 20
170.93651241810679
 30
0.0
  0
VERTEX
  5
1B11
  8
0
 10
236.29072580400381
 20
170.91809913282131
 30
0.0
  0
VERTEX
  5
1B12
  8
0
 10
236.29667007042991
 20
170.89965512889151
 30
0.0
  0
VERTEX
  5
1B13
  8
0
 10
236.30956042840231
 20
170.8626807291856
 30
0.0
  0
VERTEX
  5
1B14
  8
0
 10
236.32379200706589
 20
170.82560075381619
 30
0.0
  0
VERTEX
  5
1B15
  8
0
 10
236.33937056450731
 20
170.78842673495069
 30
0.0
  0
VERTEX
  5
1B16
  8
0
 10
236.3563009814583
 20
170.751170182934
 30
0.0
  0
VERTEX
  5
1B17
  8
0
 10
236.37458728828099
 20
170.713842566919
 30
0.0
  0
VERTEX
  5
1B18
  8
0
 10
236.38423993475939
 20
170.69515567794389
 30
0.0
  0
VERTEX
  5
1B19
  8
0
 10
236.39423269592649
 20
170.67645529417319
 30
0.0
  0
VERTEX
  5
1B1A
  8
0
 10
236.4152396479592
 20
170.63901965916051
 30
0.0
  0
VERTEX
  5
1B1B
  8
0
 10
236.4376096559719
 20
170.6015471613205
 30
0.0
  0
VERTEX
  5
1B1C
  8
0
 10
236.44930602863499
 20
170.5828007198389
 30
0.0
  0
SEQEND
  5
1B1D
  8
0
  0
LINE
  5
AB2
  8
0
 10
237.32547453295521
 20
177.26562061076609
 30
0.0
 11
237.09340992725279
 21
175.2436929364975
 31
0.0
  0
POLYLINE
  5
AB3
  8
0
 66
     1
 10
0.0
 20
0.0
 30
0.0
  0
VERTEX
  5
1B1E
  8
0
 10
237.09340992725279
 20
175.2436929364975
 30
0.0
  0
VERTEX
  5
1B1F
  8
0
 10
237.09073020552049
 20
175.22068996105961
 30
0.0
  0
VERTEX
  5
1B20
  8
0
 10
237.08535010620781
 20
175.1765729820614
 30
0.0
  0
VERTEX
  5
1B21
  8
0
 10
237.079943754509
 20
175.13498511785579
 30
0.0
  0
VERTEX
  5
1B22
  8
0
 10
237.0772312190617
 20
175.1151433656263
 30
0.0
  0
VERTEX
  5
1B23
  8
0
 10
237.07451270347781
 20
175.0959383151658
 30
0.0
  0
VERTEX
  5
1B24
  8
0
 10
237.06905851326329
 20
175.0594437907578
 30
0.0
  0
VERTEX
  5
1B25
  8
0
 10
237.0635827506614
 20
175.0255120282182
 30
0.0
  0
VERTEX
  5
1B26
  8
0
 10
237.05808698866511
 20
174.9941527749433
 30
0.0
  0
VERTEX
  5
1B27
  8
0
 10
237.05257280601279
 20
174.96537503933769
 30
0.0
  0
VERTEX
  5
1B28
  8
0
 10
237.04704178673401
 20
174.93918708822741
 30
0.0
  0
VERTEX
  5
1B29
  8
0
 10
237.04427045970391
 20
174.92706666187701
 30
0.0
  0
VERTEX
  5
1B2A
  8
0
 10
237.0414955196951
 20
174.91559644448509
 30
0.0
  0
VERTEX
  5
1B2B
  8
0
 10
237.0359355981424
 20
174.89460988486911
 30
0.0
  0
VERTEX
  5
1B2C
  8
0
 10
237.03036361924521
 20
174.8762334380757
 30
0.0
  0
VERTEX
  5
1B2D
  8
0
 10
237.0247811836357
 20
174.8604723830085
 30
0.0
  0
VERTEX
  5
1B2E
  8
0
 10
237.01918989495039
 20
174.84733124726159
 30
0.0
  0
VERTEX
  5
1B2F
  8
0
 10
237.01359135936889
 20
174.83681380581859
 30
0.0
  0
VERTEX
  5
1B30
  8
0
 10
237.0107898765051
 20
174.83253994408031
 30
0.0
  0
VERTEX
  5
1B31
  8
0
 10
237.00798718515259
 20
174.82892307996869
 30
0.0
  0
VERTEX
  5
1B32
  8
0
 10
237.00237898218251
 20
174.82366133643851
 30
0.0
  0
VERTEX
  5
1B33
  8
0
 10
236.99676836149729
 20
174.8210300867409
 30
0.0
  0
VERTEX
  5
1B34
  8
0
 10
236.9939626481636
 20
174.82070116281199
 30
0.0
  0
SEQEND
  5
1B35
  8
0
  0
POLYLINE
  5
AB4
  8
0
 66
     1
 10
0.0
 20
0.0
 30
0.0
  0
VERTEX
  5
1B36
  8
0
 10
236.6745015956065
 20
174.82070116281199
 30
0.0
  0
VERTEX
  5
1B37
  8
0
 10
236.67253097576679
 20
174.82048822467181
 30
0.0
  0
VERTEX
  5
1B38
  8
0
 10
236.66859021702001
 20
174.81878479750239
 30
0.0
  0
VERTEX
  5
1B39
  8
0
 10
236.6646509009536
 20
174.81537835888739
 30
0.0
  0
VERTEX
  5
1B3A
  8
0
 10
236.66268208438211
 20
174.81303675385311
 30
0.0
  0
VERTEX
  5
1B3B
  8
0
 10
236.66071398896369
 20
174.81026974017311
 30
0.0
  0
VERTEX
  5
1B3C
  8
0
 10
236.65678044185921
 20
174.80346018812531
 30
0.0
  0
VERTEX
  5
1B3D
  8
0
 10
236.65285121962799
 20
174.79495136462509
 30
0.0
  0
VERTEX
  5
1B3E
  8
0
 10
236.64892728120239
 20
174.78474534626321
 30
0.0
  0
VERTEX
  5
1B3F
  8
0
 10
236.64500958422551
 20
174.77284462383329
 30
0.0
  0
VERTEX
  5
1B40
  8
0
 10
236.6410990848168
 20
174.759252101724
 30
0.0
  0
VERTEX
  5
1B41
  8
0
 10
236.63914683251389
 20
174.751822436331
 30
0.0
  0
VERTEX
  5
1B42
  8
0
 10
236.63719673733931
 20
174.74397109720991
 30
0.0
  0
VERTEX
  5
1B43
  8
0
 10
236.6333034941666
 20
174.72700533964249
 30
0.0
  0
VERTEX
  5
1B44
  8
0
 10
236.62942030545051
 20
174.7083589695394
 30
0.0
  0
VERTEX
  5
1B45
  8
0
 10
236.6255481188887
 20
174.68803653757459
 30
0.0
  0
VERTEX
  5
1B46
  8
0
 10
236.621687879494
 20
174.6660430034668
 30
0.0
  0
VERTEX
  5
1B47
  8
0
 10
236.61784052936341
 20
174.64238373477019
 30
0.0
  0
VERTEX
  5
1B48
  8
0
 10
236.61592198132359
 20
174.62993123850859
 30
0.0
  0
VERTEX
  5
1B49
  8
0
 10
236.61400700744829
 20
174.61706450556341
 30
0.0
  0
VERTEX
  5
1B4A
  8
0
 10
236.61018824932529
 20
174.59009149504141
 30
0.0
  0
VERTEX
  5
1B4B
  8
0
 10
236.60638518696791
 20
174.56147128600639
 30
0.0
  0
VERTEX
  5
1B4C
  8
0
 10
236.6044898319017
 20
174.5465456491404
 30
0.0
  0
SEQEND
  5
1B4D
  8
0
  0
LINE
  5
AB5
  8
0
 10
236.6044898319017
 20
174.5465456491404
 30
0.0
 11
236.24466956922339
 21
171.34624447777139
 31
0.0
  0
LINE
  5
AB6
  8
0
 10
236.24466956922339
 20
181.9848696662624
 30
0.0
 11
236.24466956922339
 21
171.34624447777139
 31
0.0
  0
LINE
  5
AB7
  8
0
 10
247.90627949668701
 20
171.34624447777139
 30
0.0
 11
247.54645923400869
 21
174.5465456491404
 31
0.0
  0
POLYLINE
  5
AB8
  8
0
 66
     1
 10
0.0
 20
0.0
 30
0.0
  0
VERTEX
  5
1B4E
  8
0
 10
247.54645923400869
 20
174.5465456491404
 30
0.0
  0
VERTEX
  5
1B4F
  8
0
 10
247.54456387894251
 20
174.56147128600639
 30
0.0
  0
VERTEX
  5
1B50
  8
0
 10
247.54076081658519
 20
174.59009149504141
 30
0.0
  0
VERTEX
  5
1B51
  8
0
 10
247.5369420584621
 20
174.61706450556341
 30
0.0
  0
VERTEX
  5
1B52
  8
0
 10
247.53502708458689
 20
174.62993123850859
 30
0.0
  0
VERTEX
  5
1B53
  8
0
 10
247.53310853654691
 20
174.64238373477019
 30
0.0
  0
VERTEX
  5
1B54
  8
0
 10
247.52926118641639
 20
174.6660430034668
 30
0.0
  0
VERTEX
  5
1B55
  8
0
 10
247.52540094702169
 20
174.68803653757459
 30
0.0
  0
VERTEX
  5
1B56
  8
0
 10
247.52152876045989
 20
174.7083589695394
 30
0.0
  0
VERTEX
  5
1B57
  8
0
 10
247.5176455717438
 20
174.72700533964249
 30
0.0
  0
VERTEX
  5
1B58
  8
0
 10
247.51375232857109
 20
174.74397109720991
 30
0.0
  0
VERTEX
  5
1B59
  8
0
 10
247.51180223339651
 20
174.751822436331
 30
0.0
  0
VERTEX
  5
1B5A
  8
0
 10
247.50984998109371
 20
174.759252101724
 30
0.0
  0
VERTEX
  5
1B5B
  8
0
 10
247.50593948168489
 20
174.77284462383329
 30
0.0
  0
VERTEX
  5
1B5C
  8
0
 10
247.50202178470801
 20
174.78474534626321
 30
0.0
  0
VERTEX
  5
1B5D
  8
0
 10
247.49809784628241
 20
174.79495136462509
 30
0.0
  0
VERTEX
  5
1B5E
  8
0
 10
247.49416862405121
 20
174.80346018812531
 30
0.0
  0
VERTEX
  5
1B5F
  8
0
 10
247.4902350769467
 20
174.81026974017311
 30
0.0
  0
VERTEX
  5
1B60
  8
0
 10
247.48826698152831
 20
174.81303675385311
 30
0.0
  0
VERTEX
  5
1B61
  8
0
 10
247.48629816495679
 20
174.81537835888739
 30
0.0
  0
VERTEX
  5
1B62
  8
0
 10
247.4823588488905
 20
174.81878479750239
 30
0.0
  0
VERTEX
  5
1B63
  8
0
 10
247.47841809014369
 20
174.82048822467181
 30
0.0
  0
VERTEX
  5
1B64
  8
0
 10
247.4764474703039
 20
174.82070116281199
 30
0.0
  0
SEQEND
  5
1B65
  8
0
  0
LINE
  5
AB9
  8
0
 10
247.4764474703039
 20
174.82070116281199
 30
0.0
 11
236.6745015956065
 21
174.82070116281199
 31
0.0
  0
POLYLINE
  5
ABA
  8
0
 66
     1
 10
0.0
 20
0.0
 30
0.0
  0
VERTEX
  5
1B66
  8
0
 10
247.15698641774679
 20
174.82070116281199
 30
0.0
  0
VERTEX
  5
1B67
  8
0
 10
247.15418070441311
 20
174.8210300867409
 30
0.0
  0
VERTEX
  5
1B68
  8
0
 10
247.14857008372789
 20
174.82366133643851
 30
0.0
  0
VERTEX
  5
1B69
  8
0
 10
247.14296188075789
 20
174.82892307996869
 30
0.0
  0
VERTEX
  5
1B6A
  8
0
 10
247.1401591894053
 20
174.83253994408031
 30
0.0
  0
VERTEX
  5
1B6B
  8
0
 10
247.13735770654151
 20
174.83681380581859
 30
0.0
  0
VERTEX
  5
1B6C
  8
0
 10
247.13175917096001
 20
174.84733124726159
 30
0.0
  0
VERTEX
  5
1B6D
  8
0
 10
247.1261678822747
 20
174.8604723830085
 30
0.0
  0
VERTEX
  5
1B6E
  8
0
 10
247.12058544666519
 20
174.8762334380757
 30
0.0
  0
VERTEX
  5
1B6F
  8
0
 10
247.11501346776791
 20
174.89460988486911
 30
0.0
  0
VERTEX
  5
1B70
  8
0
 10
247.10945354621529
 20
174.91559644448509
 30
0.0
  0
VERTEX
  5
1B71
  8
0
 10
247.10667860620649
 20
174.92706666187701
 30
0.0
  0
VERTEX
  5
1B72
  8
0
 10
247.10390727917641
 20
174.93918708822741
 30
0.0
  0
VERTEX
  5
1B73
  8
0
 10
247.09837625989761
 20
174.96537503933769
 30
0.0
  0
VERTEX
  5
1B74
  8
0
 10
247.09286207724529
 20
174.9941527749433
 30
0.0
  0
VERTEX
  5
1B75
  8
0
 10
247.0873663152492
 20
175.0255120282182
 30
0.0
  0
VERTEX
  5
1B76
  8
0
 10
247.08189055264711
 20
175.0594437907578
 30
0.0
  0
VERTEX
  5
1B77
  8
0
 10
247.0764363624327
 20
175.0959383151658
 30
0.0
  0
VERTEX
  5
1B78
  8
0
 10
247.07371784684889
 20
175.1151433656263
 30
0.0
  0
VERTEX
  5
1B79
  8
0
 10
247.07100531140139
 20
175.13498511785579
 30
0.0
  0
VERTEX
  5
1B7A
  8
0
 10
247.06559895970261
 20
175.1765729820614
 30
0.0
  0
VERTEX
  5
1B7B
  8
0
 10
247.06021886038991
 20
175.22068996105961
 30
0.0
  0
VERTEX
  5
1B7C
  8
0
 10
247.0575391386576
 20
175.2436929364975
 30
0.0
  0
SEQEND
  5
1B7D
  8
0
  0
LINE
  5
ABB
  8
0
 10
247.0575391386576
 20
175.2436929364975
 30
0.0
 11
246.82547453295521
 21
177.26562061076609
 31
0.0
  0
LINE
  5
ABC
  8
0
 10
247.90627949668701
 20
181.9848696662624
 30
0.0
 11
247.90627949668701
 21
171.34624447777139
 31
0.0
  0
POLYLINE
  5
ABD
  8
0
 66
     1
 10
0.0
 20
0.0
 30
0.0
  0
VERTEX
  5
1B7E
  8
0
 10
247.7016429830249
 20
170.58280063412519
 30
0.0
  0
VERTEX
  5
1B7F
  8
0
 10
247.71334488172121
 20
170.601556059644
 30
0.0
  0
VERTEX
  5
1B80
  8
0
 10
247.73572465862401
 20
170.63904598058079
 30
0.0
  0
VERTEX
  5
1B81
  8
0
 10
247.7567396284565
 20
170.67649810715221
 30
0.0
  0
VERTEX
  5
1B82
  8
0
 10
247.76673572700321
 20
170.69520629586461
 30
0.0
  0
VERTEX
  5
1B83
  8
0
 10
247.77639125805001
 20
170.7139006426612
 30
0.0
  0
VERTEX
  5
1B84
  8
0
 10
247.79468201557381
 20
170.75124205570879
 30
0.0
  0
VERTEX
  5
1B85
  8
0
 10
247.8116151818337
 20
170.7885107320628
 30
0.0
  0
VERTEX
  5
1B86
  8
0
 10
247.8271948787467
 20
170.82569498029301
 30
0.0
  0
VERTEX
  5
1B87
  8
0
 10
247.84142610683031
 20
170.86278306300511
 30
0.0
  0
VERTEX
  5
1B88
  8
0
 10
247.8543147732702
 20
170.89976321700169
 30
0.0
  0
VERTEX
  5
1B89
  8
0
 10
247.86025774591121
 20
170.9182091425829
 30
0.0
  0
VERTEX
  5
1B8A
  8
0
 10
247.86586771652441
 20
170.93662367319871
 30
0.0
  0
VERTEX
  5
1B8B
  8
0
 10
247.8760927275296
 20
170.97335267631311
 30
0.0
  0
VERTEX
  5
1B8C
  8
0
 10
247.8849985675628
 20
171.00993850433471
 30
0.0
  0
VERTEX
  5
1B8D
  8
0
 10
247.89259498279799
 20
171.0463694878062
 30
0.0
  0
VERTEX
  5
1B8E
  8
0
 10
247.89889271558559
 20
171.08263402893959
 30
0.0
  0
VERTEX
  5
1B8F
  8
0
 10
247.9039035124641
 20
171.11872062060161
 30
0.0
  0
VERTEX
  5
1B90
  8
0
 10
247.90593025654761
 20
171.13669361884101
 30
0.0
  0
VERTEX
  5
1B91
  8
0
 10
247.90764012890151
 20
171.15461786520811
 30
0.0
  0
VERTEX
  5
1B92
  8
0
 10
247.9101163307437
 20
171.19031449357129
 30
0.0
  0
VERTEX
  5
1B93
  8
0
 10
247.9113468923307
 20
171.2257993837494
 30
0.0
  0
VERTEX
  5
1B94
  8
0
 10
247.9114999495429
 20
171.24345899632559
 30
0.0
  0
SEQEND
  5
1B95
  8
0
  0
POLYLINE
  5
ABE
  8
0
 66
     1
 10
0.0
 20
0.0
 30
0.0
  0
VERTEX
  5
1B96
  8
0
 10
247.9114999495429
 20
171.24345899632559
 30
0.0
  0
VERTEX
  5
1B97
  8
0
 10
247.9113566162336
 20
171.26053252109219
 30
0.0
  0
VERTEX
  5
1B98
  8
0
 10
247.9102037751548
 20
171.2947529232932
 30
0.0
  0
VERTEX
  5
1B99
  8
0
 10
247.9078827923276
 20
171.32906115204059
 30
0.0
  0
VERTEX
  5
1B9A
  8
0
 10
247.90627949668701
 20
171.34624447777139
 30
0.0
  0
SEQEND
  5
1B9B
  8
0
  0
POLYLINE
  5
AC0
  8
0
 66
     1
 10
0.0
 20
0.0
 30
0.0
  0
VERTEX
  5
1B9C
  8
0
 10
237.7787026374248
 20
187.0376061949851
 30
0.0
  0
VERTEX
  5
1B9D
  8
0
 10
237.79472186662039
 20
187.04013518526509
 30
0.0
  0
VERTEX
  5
1B9E
  8
0
 10
237.82739434713039
 20
187.04375289902009
 30
0.0
  0
VERTEX
  5
1B9F
  8
0
 10
237.86083650538089
 20
187.0455190068005
 30
0.0
  0
VERTEX
  5
1BA0
  8
0
 10
237.877815990187
 20
187.0457353883489
 30
0.0
  0
SEQEND
  5
1BA1
  8
0
  0
POLYLINE
  5
AC1
  8
0
 66
     1
 10
0.0
 20
0.0
 30
0.0
  0
VERTEX
  5
1BA2
  8
0
 10
237.877815990187
 20
187.0457353883489
 30
0.0
  0
VERTEX
  5
1BA3
  8
0
 10
237.8895635168202
 20
187.0456350095123
 30
0.0
  0
VERTEX
  5
1BA4
  8
0
 10
237.9134607006437
 20
187.04483418835159
 30
0.0
  0
VERTEX
  5
1BA5
  8
0
 10
237.9378903857353
 20
187.04323845073901
 30
0.0
  0
VERTEX
  5
1BA6
  8
0
 10
237.95030339320229
 20
187.04214454374261
 30
0.0
  0
VERTEX
  5
1BA7
  8
0
 10
237.9628476228373
 20
187.0408544372458
 30
0.0
  0
VERTEX
  5
1BA8
  8
0
 10
237.9883268671235
 20
187.03768929271411
 30
0.0
  0
VERTEX
  5
1BA9
  8
0
 10
238.01432200684309
 20
187.033750663636
 30
0.0
  0
VERTEX
  5
1BAA
  8
0
 10
238.04082639413869
 20
187.0290466897776
 30
0.0
  0
VERTEX
  5
1BAB
  8
0
 10
238.06783287772711
 20
187.02358599065559
 30
0.0
  0
VERTEX
  5
1BAC
  8
0
 10
238.0953338371597
 20
187.0173776474432
 30
0.0
  0
VERTEX
  5
1BAD
  8
0
 10
238.10926724437209
 20
187.01399606803571
 30
0.0
  0
VERTEX
  5
1BAE
  8
0
 10
238.12332121839981
 20
187.0104311808557
 30
0.0
  0
VERTEX
  5
1BAF
  8
0
 10
238.15178657048611
 20
187.00275652553009
 30
0.0
  0
VERTEX
  5
1BB0
  8
0
 10
238.18072108307661
 20
186.99436400137091
 30
0.0
  0
VERTEX
  5
1BB1
  8
0
 10
238.21011562469249
 20
186.98526428229661
 30
0.0
  0
VERTEX
  5
1BB2
  8
0
 10
238.23996077989531
 20
186.97546836332009
 30
0.0
  0
VERTEX
  5
1BB3
  8
0
 10
238.27024680447619
 20
186.96498755516399
 30
0.0
  0
VERTEX
  5
1BB4
  8
0
 10
238.28555196412569
 20
186.95949395069459
 30
0.0
  0
VERTEX
  5
1BB5
  8
0
 10
238.30096346207739
 20
186.9538335298698
 30
0.0
  0
VERTEX
  5
1BB6
  8
0
 10
238.3321000077473
 20
186.94201832684121
 30
0.0
  0
VERTEX
  5
1BB7
  8
0
 10
238.3636452167805
 20
186.92955434199621
 30
0.0
  0
VERTEX
  5
1BB8
  8
0
 10
238.37956743830509
 20
186.9230830242625
 30
0.0
  0
VERTEX
  5
1BB9
  8
0
 10
238.39558741378889
 20
186.916454313982
 30
0.0
  0
VERTEX
  5
1BBA
  8
0
 10
238.42791450195011
 20
186.90273130786011
 30
0.0
  0
VERTEX
  5
1BBB
  8
0
 10
238.46061399229089
 20
186.88839869665591
 30
0.0
  0
VERTEX
  5
1BBC
  8
0
 10
238.47709938543571
 20
186.88100804747941
 30
0.0
  0
VERTEX
  5
1BBD
  8
0
 10
238.4936730328921
 20
186.87347014112541
 30
0.0
  0
VERTEX
  5
1BBE
  8
0
 10
238.5270784379361
 20
186.85795956804441
 30
0.0
  0
VERTEX
  5
1BBF
  8
0
 10
238.5608167165374
 20
186.84188114728431
 30
0.0
  0
VERTEX
  5
1BC0
  8
0
 10
238.59487410133011
 20
186.82524926789361
 30
0.0
  0
VERTEX
  5
1BC1
  8
0
 10
238.6292365767992
 20
186.80807851337241
 30
0.0
  0
VERTEX
  5
1BC2
  8
0
 10
238.66389049516431
 20
186.79038333300841
 30
0.0
  0
VERTEX
  5
1BC3
  8
0
 10
238.68132371236661
 20
186.78134296188131
 30
0.0
  0
VERTEX
  5
1BC4
  8
0
 10
238.69882563334559
 20
186.7721763913078
 30
0.0
  0
VERTEX
  5
1BC5
  8
0
 10
238.73402823983491
 20
186.7534721068119
 30
0.0
  0
VERTEX
  5
1BC6
  8
0
 10
238.76948337989461
 20
186.73428553650609
 30
0.0
  0
VERTEX
  5
1BC7
  8
0
 10
238.8051757497648
 20
186.71463196241189
 30
0.0
  0
VERTEX
  5
1BC8
  8
0
 10
238.841089700271
 20
186.69452687634501
 30
0.0
  0
VERTEX
  5
1BC9
  8
0
 10
238.8772092598806
 20
186.67398596388969
 30
0.0
  0
VERTEX
  5
1BCA
  8
0
 10
238.89534106939661
 20
186.66355702341161
 30
0.0
  0
VERTEX
  5
1BCB
  8
0
 10
238.91351815719329
 20
186.6530250877652
 30
0.0
  0
VERTEX
  5
1BCC
  8
0
 10
238.94999984287651
 20
186.6316602707349
 30
0.0
  0
VERTEX
  5
1BCD
  8
0
 10
238.98663751106531
 20
186.60990767817771
 30
0.0
  0
VERTEX
  5
1BCE
  8
0
 10
239.02341412026641
 20
186.58778360041691
 30
0.0
  0
VERTEX
  5
1BCF
  8
0
 10
239.06031241381729
 20
186.5653044348779
 30
0.0
  0
VERTEX
  5
1BD0
  8
0
 10
239.09731493996159
 20
186.54248666812461
 30
0.0
  0
VERTEX
  5
1BD1
  8
0
 10
239.1158497881049
 20
186.53095598127669
 30
0.0
  0
VERTEX
  5
1BD2
  8
0
 10
239.13440407099071
 20
186.51934685819691
 30
0.0
  0
VERTEX
  5
1BD3
  8
0
 10
239.1715619802674
 20
186.4959016434739
 30
0.0
  0
VERTEX
  5
1BD4
  8
0
 10
239.2087705456116
 20
186.4721678003269
 30
0.0
  0
VERTEX
  5
1BD5
  8
0
 10
239.33913081357451
 20
186.3870718700289
 30
0.0
  0
VERTEX
  5
1BD6
  8
0
 10
239.56114936577791
 20
186.23558232581101
 30
0.0
  0
VERTEX
  5
1BD7
  8
0
 10
239.671131594538
 20
186.15760211864111
 30
0.0
  0
VERTEX
  5
1BD8
  8
0
 10
239.78271753479939
 20
186.0765048218322
 30
0.0
  0
VERTEX
  5
1BD9
  8
0
 10
240.00875919936411
 20
185.90582323557931
 30
0.0
  0
VERTEX
  5
1BDA
  8
0
 10
240.2338072768076
 20
185.72613836634741
 30
0.0
  0
VERTEX
  5
1BDB
  8
0
 10
240.4514983373117
 20
185.53996060315851
 30
0.0
  0
VERTEX
  5
1BDC
  8
0
 10
240.5720362817255
 20
185.4292900369401
 30
0.0
  0
VERTEX
  5
1BDD
  8
0
 10
240.6051863110759
 20
185.3975512092141
 30
0.0
  0
VERTEX
  5
1BDE
  8
0
 10
240.6377089239819
 20
185.3657480319448
 30
0.0
  0
VERTEX
  5
1BDF
  8
0
 10
240.65372763117821
 20
185.34981661877021
 30
0.0
  0
VERTEX
  5
1BE0
  8
0
 10
240.66958045388441
 20
185.33386187493201
 30
0.0
  0
VERTEX
  5
1BE1
  8
0
 10
240.7007750998105
 20
185.3018707078304
 30
0.0
  0
VERTEX
  5
1BE2
  8
0
 10
240.73126437516581
 20
185.26974872961651
 30
0.0
  0
VERTEX
  5
1BE3
  8
0
 10
240.76101637595349
 20
185.2374660048477
 30
0.0
  0
VERTEX
  5
1BE4
  8
0
 10
240.789994829492
 20
185.2049881242632
 30
0.0
  0
VERTEX
  5
1BE5
  8
0
 10
240.8181578802614
 20
185.172275915607
 30
0.0
  0
VERTEX
  5
1BE6
  8
0
 10
240.83191865553999
 20
185.1558183423395
 30
0.0
  0
VERTEX
  5
1BE7
  8
0
 10
240.84545656729159
 20
185.13928524203641
 30
0.0
  0
VERTEX
  5
1BE8
  8
0
 10
240.87183294990101
 20
185.1059669409612
 30
0.0
  0
VERTEX
  5
1BE9
  8
0
 10
240.89719272560191
 20
185.0723012417437
 30
0.0
  0
VERTEX
  5
1BEA
  8
0
 10
240.90945470393001
 20
185.0553378211805
 30
0.0
  0
VERTEX
  5
1BEB
  8
0
 10
240.92142891898359
 20
185.03827065939791
 30
0.0
  0
VERTEX
  5
1BEC
  8
0
 10
240.94448229959309
 20
185.00376660986629
 30
0.0
  0
VERTEX
  5
1BED
  8
0
 10
240.9662772803714
 20
184.96865950870239
 30
0.0
  0
VERTEX
  5
1BEE
  8
0
 10
240.97667263772971
 20
184.95083372520119
 30
0.0
  0
VERTEX
  5
1BEF
  8
0
 10
240.98671311875631
 20
184.93279941262861
 30
0.0
  0
VERTEX
  5
1BF0
  8
0
 10
241.0056535518201
 20
184.89601781630361
 30
0.0
  0
VERTEX
  5
1BF1
  8
0
 10
241.02291009304591
 20
184.8581430946565
 30
0.0
  0
VERTEX
  5
1BF2
  8
0
 10
241.03824283858631
 20
184.81898154932961
 30
0.0
  0
VERTEX
  5
1BF3
  8
0
 10
241.04618828977939
 20
184.79543459054381
 30
0.0
  0
VERTEX
  5
1BF4
  8
0
 10
241.0483110648085
 20
184.78860081003501
 30
0.0
  0
VERTEX
  5
1BF5
  8
0
 10
241.0503650966165
 20
184.78171722819781
 30
0.0
  0
VERTEX
  5
1BF6
  8
0
 10
241.05136573880051
 20
184.77825630485759
 30
0.0
  0
VERTEX
  5
1BF7
  8
0
 10
241.0523484698528
 20
184.77478238255571
 30
0.0
  0
VERTEX
  5
1BF8
  8
0
 10
241.0542591778958
 20
184.7677948097095
 30
0.0
  0
VERTEX
  5
1BF9
  8
0
 10
241.05609512021351
 20
184.76075305185481
 30
0.0
  0
VERTEX
  5
1BFA
  8
0
 10
241.05785410138199
 20
184.75365565886611
 30
0.0
  0
VERTEX
  5
1BFB
  8
0
 10
241.05953384151869
 20
184.74650114155949
 30
0.0
  0
VERTEX
  5
1BFC
  8
0
 10
241.06113197762571
 20
184.73928795044861
 30
0.0
  0
VERTEX
  5
1BFD
  8
0
 10
241.06189968177381
 20
184.73565885194299
 30
0.0
  0
VERTEX
  5
1BFE
  8
0
 10
241.06264605857399
 20
184.73201447761119
 30
0.0
  0
VERTEX
  5
1BFF
  8
0
 10
241.06407353995431
 20
184.7246790598912
 30
0.0
  0
VERTEX
  5
1C00
  8
0
 10
241.0654117789947
 20
184.7172799831344
 30
0.0
  0
VERTEX
  5
1C01
  8
0
 10
241.0660465786645
 20
184.7135560242717
 30
0.0
  0
VERTEX
  5
1C02
  8
0
 10
241.0666580296658
 20
184.7098154874416
 30
0.0
  0
VERTEX
  5
1C03
  8
0
 10
241.0678094381087
 20
184.7022837734016
 30
0.0
  0
VERTEX
  5
1C04
  8
0
 10
241.0688630385188
 20
184.6946830092476
 30
0.0
  0
VERTEX
  5
1C05
  8
0
 10
241.06935220240689
 20
184.6908561540574
 30
0.0
  0
VERTEX
  5
1C06
  8
0
 10
241.06981574962609
 20
184.6870113388612
 30
0.0
  0
VERTEX
  5
1C07
  8
0
 10
241.0706643719052
 20
184.6792668905224
 30
0.0
  0
VERTEX
  5
1C08
  8
0
 10
241.07140558564919
 20
184.67144778628929
 30
0.0
  0
VERTEX
  5
1C09
  8
0
 10
241.0720359500265
 20
184.66355215186439
 30
0.0
  0
VERTEX
  5
1C0A
  8
0
 10
241.07255190323249
 20
184.6555781267943
 30
0.0
  0
VERTEX
  5
1C0B
  8
0
 10
241.07294976382821
 20
184.6475238748265
 30
0.0
  0
VERTEX
  5
1C0C
  8
0
 10
241.07310322684711
 20
184.6434660990904
 30
0.0
  0
VERTEX
  5
1C0D
  8
0
 10
241.07322573333579
 20
184.63938759424011
 30
0.0
  0
VERTEX
  5
1C0E
  8
0
 10
241.07337590014239
 20
184.63116752795781
 30
0.0
  0
VERTEX
  5
1C0F
  8
0
 10
241.07339630125099
 20
184.6228722652034
 30
0.0
  0
VERTEX
  5
1C10
  8
0
 10
241.07328599929849
 20
184.6146258407037
 30
0.0
  0
VERTEX
  5
1C11
  8
0
 10
241.0730486581584
 20
184.60646373672569
 30
0.0
  0
VERTEX
  5
1C12
  8
0
 10
241.0726882235621
 20
184.5983842120468
 30
0.0
  0
VERTEX
  5
1C13
  8
0
 10
241.07246304885541
 20
184.59437485949661
 30
0.0
  0
VERTEX
  5
1C14
  8
0
 10
241.0722085295867
 20
184.5903854777379
 30
0.0
  0
VERTEX
  5
1C15
  8
0
 10
241.0716132943412
 20
184.58246570716679
 30
0.0
  0
VERTEX
  5
1C16
  8
0
 10
241.0709061169685
 20
184.5746230462814
 30
0.0
  0
VERTEX
  5
1C17
  8
0
 10
241.07009047592311
 20
184.56685562397951
 30
0.0
  0
VERTEX
  5
1C18
  8
0
 10
241.06916972846011
 20
184.55916156237541
 30
0.0
  0
VERTEX
  5
1C19
  8
0
 10
241.06814711124969
 20
184.5515389867881
 30
0.0
  0
VERTEX
  5
1C1A
  8
0
 10
241.06759858035909
 20
184.54775392364999
 30
0.0
  0
VERTEX
  5
1C1B
  8
0
 10
241.0670257420104
 20
184.54398603528759
 30
0.0
  0
VERTEX
  5
1C1C
  8
0
 10
241.06580862204501
 20
184.53650086765421
 30
0.0
  0
VERTEX
  5
1C1D
  8
0
 10
241.06449863954751
 20
184.5290816736254
 30
0.0
  0
VERTEX
  5
1C1E
  8
0
 10
241.0630985735495
 20
184.5217266803248
 30
0.0
  0
VERTEX
  5
1C1F
  8
0
 10
241.06161109836489
 20
184.51443415878899
 30
0.0
  0
VERTEX
  5
1C20
  8
0
 10
241.0600387883994
 20
184.5072024295294
 30
0.0
  0
VERTEX
  5
1C21
  8
0
 10
241.0592215987941
 20
184.50360885183321
 30
0.0
  0
VERTEX
  5
1C22
  8
0
 10
241.05838412318829
 20
184.50002986708671
 30
0.0
  0
VERTEX
  5
1C23
  8
0
 10
241.05664949253719
 20
184.49291490355441
 30
0.0
  0
VERTEX
  5
1C24
  8
0
 10
241.05483720164651
 20
184.48585603106471
 30
0.0
  0
VERTEX
  5
1C25
  8
0
 10
241.04791386170839
 20
184.4615706653515
 30
0.0
  0
VERTEX
  5
1C26
  8
0
 10
241.04130905282409
 20
184.44123992154121
 30
0.0
  0
VERTEX
  5
1C27
  8
0
 10
241.03413488997219
 20
184.421316113476
 30
0.0
  0
VERTEX
  5
1C28
  8
0
 10
241.01823470442579
 20
184.38254281640261
 30
0.0
  0
VERTEX
  5
1C29
  8
0
 10
241.00048105667159
 20
184.34499212607571
 30
0.0
  0
VERTEX
  5
1C2A
  8
0
 10
240.9909829766226
 20
184.32661981463701
 30
0.0
  0
SEQEND
  5
1C2B
  8
0
  0
POLYLINE
  5
AC2
  8
0
 66
     1
 10
0.0
 20
0.0
 30
0.0
  0
VERTEX
  5
1C2C
  8
0
 10
240.9909829766226
 20
184.32661981463681
 30
0.0
  0
VERTEX
  5
1C2D
  8
0
 10
240.96936572833121
 20
184.28549169363839
 30
0.0
  0
VERTEX
  5
1C2E
  8
0
 10
240.9262042915382
 20
184.2008025725799
 30
0.0
  0
VERTEX
  5
1C2F
  8
0
 10
240.88314341403611
 20
184.1128758174633
 30
0.0
  0
VERTEX
  5
1C30
  8
0
 10
240.86165186279601
 20
184.06770072028829
 30
0.0
  0
VERTEX
  5
1C31
  8
0
 10
240.8401868635822
 20
184.0217191217377
 30
0.0
  0
VERTEX
  5
1C32
  8
0
 10
240.79733839880521
 20
183.9273404614668
 30
0.0
  0
VERTEX
  5
1C33
  8
0
 10
240.7546017688766
 20
183.82974809463141
 30
0.0
  0
VERTEX
  5
1C34
  8
0
 10
240.6059581588124
 20
183.46299268434319
 30
0.0
  0
VERTEX
  5
1C35
  8
0
 10
240.3548921648073
 20
182.74408302996389
 30
0.0
  0
VERTEX
  5
1C36
  8
0
 10
240.2313422722097
 20
182.3424962179061
 30
0.0
  0
SEQEND
  5
1C37
  8
0
  0
POLYLINE
  5
AC3
  8
0
 66
     1
 10
0.0
 20
0.0
 30
0.0
  0
VERTEX
  5
1C38
  8
0
 10
240.2313422722097
 20
182.3424962179063
 30
0.0
  0
VERTEX
  5
1C39
  8
0
 10
240.22205097381871
 20
182.3116257906884
 30
0.0
  0
VERTEX
  5
1C3A
  8
0
 10
240.20261251441889
 20
182.2502318685396
 30
0.0
  0
VERTEX
  5
1C3B
  8
0
 10
240.18208396261301
 20
182.1892788525216
 30
0.0
  0
VERTEX
  5
1C3C
  8
0
 10
240.17142930295421
 20
182.15895960682749
 30
0.0
  0
VERTEX
  5
1C3D
  8
0
 10
240.16052380839571
 20
182.12874095612111
 30
0.0
  0
VERTEX
  5
1C3E
  8
0
 10
240.1379874305355
 20
182.0685929910496
 30
0.0
  0
VERTEX
  5
1C3F
  8
0
 10
240.114527223191
 20
182.00881069511789
 30
0.0
  0
VERTEX
  5
1C40
  8
0
 10
240.09019276254611
 20
181.9493709931179
 30
0.0
  0
VERTEX
  5
1C41
  8
0
 10
240.06503099585919
 20
181.8902521923315
 30
0.0
  0
VERTEX
  5
1C42
  8
0
 10
240.03908643867391
 20
181.8314341165289
 30
0.0
  0
VERTEX
  5
1C43
  8
0
 10
240.02583390784889
 20
181.80213198028221
 30
0.0
  0
VERTEX
  5
1C44
  8
0
 10
240.01240136913631
 20
181.7728981837239
 30
0.0
  0
VERTEX
  5
1C45
  8
0
 10
239.9850162945875
 20
181.7146280279625
 30
0.0
  0
VERTEX
  5
1C46
  8
0
 10
239.95697584960911
 20
181.65662110270381
 30
0.0
  0
VERTEX
  5
1C47
  8
0
 10
239.85421869363651
 20
181.45552981346319
 30
0.0
  0
VERTEX
  5
1C48
  8
0
 10
239.7612238000074
 20
181.28529951319311
 30
0.0
  0
VERTEX
  5
1C49
  8
0
 10
239.66451035274801
 20
181.11680002082869
 30
0.0
  0
VERTEX
  5
1C4A
  8
0
 10
239.4625577825673
 20
180.7844246405638
 30
0.0
  0
VERTEX
  5
1C4B
  8
0
 10
239.2529211254037
 20
180.45774191474931
 30
0.0
  0
VERTEX
  5
1C4C
  8
0
 10
239.03994185016381
 20
180.13760001223869
 30
0.0
  0
VERTEX
  5
1C4D
  8
0
 10
238.82751083669831
 20
179.8253209439564
 30
0.0
  0
VERTEX
  5
1C4E
  8
0
 10
238.6189008452688
 20
179.52212526780801
 30
0.0
  0
VERTEX
  5
1C4F
  8
0
 10
238.51696546341699
 20
179.3743531931448
 30
0.0
  0
VERTEX
  5
1C50
  8
0
 10
238.41707728959531
 20
179.2293643874745
 30
0.0
  0
VERTEX
  5
1C51
  8
0
 10
238.22477397918121
 20
178.94845588849211
 30
0.0
  0
VERTEX
  5
1C52
  8
0
 10
238.04456707906499
 20
178.68086340377531
 30
0.0
  0
VERTEX
  5
1C53
  8
0
 10
237.9460152765088
 20
178.5315042426698
 30
0.0
  0
VERTEX
  5
1C54
  8
0
 10
237.9188344406827
 20
178.48979541299079
 30
0.0
  0
VERTEX
  5
1C55
  8
0
 10
237.89210790472401
 20
178.4485279188678
 30
0.0
  0
VERTEX
  5
1C56
  8
0
 10
237.87891841610681
 20
178.4280617659941
 30
0.0
  0
VERTEX
  5
1C57
  8
0
 10
237.86584238327771
 20
178.4077018805217
 30
0.0
  0
VERTEX
  5
1C58
  8
0
 10
237.83991888438331
 20
178.36711972378211
 30
0.0
  0
VERTEX
  5
1C59
  8
0
 10
237.8143032992954
 20
178.32671183606581
 30
0.0
  0
VERTEX
  5
1C5A
  8
0
 10
237.7890285124486
 20
178.2865123848577
 30
0.0
  0
VERTEX
  5
1C5B
  8
0
 10
237.76412705365749
 20
178.24655502064181
 30
0.0
  0
VERTEX
  5
1C5C
  8
0
 10
237.73963104658651
 20
178.20687282850591
 30
0.0
  0
VERTEX
  5
1C5D
  8
0
 10
237.7275450024519
 20
178.1871450944268
 30
0.0
  0
VERTEX
  5
1C5E
  8
0
 10
237.71557215766771
 20
178.16749827920691
 30
0.0
  0
VERTEX
  5
1C5F
  8
0
 10
237.69198154563341
 20
178.12846317964861
 30
0.0
  0
VERTEX
  5
1C60
  8
0
 10
237.66888981190229
 20
178.08979862278051
 30
0.0
  0
VERTEX
  5
1C61
  8
0
 10
237.64632695213129
 20
178.05153493699621
 30
0.0
  0
VERTEX
  5
1C62
  8
0
 10
237.62432230932831
 20
178.01370163517569
 30
0.0
  0
VERTEX
  5
1C63
  8
0
 10
237.6029045290062
 20
177.97632736359191
 30
0.0
  0
VERTEX
  5
1C64
  8
0
 10
237.5924244628203
 20
177.95782106659391
 30
0.0
  0
VERTEX
  5
1C65
  8
0
 10
237.5821015169409
 20
177.93943985096121
 30
0.0
  0
VERTEX
  5
1C66
  8
0
 10
237.56194040864861
 20
177.90306587338989
 30
0.0
  0
VERTEX
  5
1C67
  8
0
 10
237.5424476496448
 20
177.86723142030911
 30
0.0
  0
VERTEX
  5
1C68
  8
0
 10
237.5329599963795
 20
177.84952446722889
 30
0.0
  0
VERTEX
  5
1C69
  8
0
 10
237.523649062423
 20
177.83196185546839
 30
0.0
  0
VERTEX
  5
1C6A
  8
0
 10
237.5055697915318
 20
177.79728186635421
 30
0.0
  0
VERTEX
  5
1C6B
  8
0
 10
237.4882342399865
 20
177.76321539553641
 30
0.0
  0
VERTEX
  5
1C6C
  8
0
 10
237.47985276713879
 20
177.7464194913197
 30
0.0
  0
VERTEX
  5
1C6D
  8
0
 10
237.47166600855101
 20
177.7297855736299
 30
0.0
  0
VERTEX
  5
1C6E
  8
0
 10
237.4558878383977
 20
177.69701465408119
 30
0.0
  0
VERTEX
  5
1C6F
  8
0
 10
237.44092155775161
 20
177.66492395007381
 30
0.0
  0
VERTEX
  5
1C70
  8
0
 10
237.42678803322011
 20
177.63353377392451
 30
0.0
  0
VERTEX
  5
1C71
  8
0
 10
237.41350712660989
 20
177.60286337942779
 30
0.0
  0
VERTEX
  5
1C72
  8
0
 10
237.40109765813
 20
177.5729309076919
 30
0.0
  0
VERTEX
  5
1C73
  8
0
 10
237.3952253022843
 20
177.5582467452935
 30
0.0
  0
VERTEX
  5
1C74
  8
0
 10
237.3895773694862
 20
177.5437533176144
 30
0.0
  0
VERTEX
  5
1C75
  8
0
 10
237.3789609960634
 20
177.51534107453071
 30
0.0
  0
VERTEX
  5
1C76
  8
0
 10
237.36926347251131
 20
177.4877057626737
 30
0.0
  0
VERTEX
  5
1C77
  8
0
 10
237.360500538255
 20
177.46086263838859
 30
0.0
  0
VERTEX
  5
1C78
  8
0
 10
237.35268680481241
 20
177.43482594096849
 30
0.0
  0
VERTEX
  5
1C79
  8
0
 10
237.34583569765149
 20
177.40960881985851
 30
0.0
  0
VERTEX
  5
1C7A
  8
0
 10
237.34277498771741
 20
177.39731139517201
 30
0.0
  0
VERTEX
  5
1C7B
  8
0
 10
237.33995940676181
 20
177.3852232684165
 30
0.0
  0
VERTEX
  5
1C7C
  8
0
 10
237.33506884685909
 20
177.36168006476751
 30
0.0
  0
VERTEX
  5
1C7D
  8
0
 10
237.3311736281884
 20
177.33898872033009
 30
0.0
  0
VERTEX
  5
1C7E
  8
0
 10
237.32960191374281
 20
177.32796511046041
 30
0.0
  0
SEQEND
  5
1C7F
  8
0
  0
POLYLINE
  5
AC4
  8
0
 66
     1
 10
0.0
 20
0.0
 30
0.0
  0
VERTEX
  5
1C80
  8
0
 10
237.32960191374281
 20
177.32796511046041
 30
0.0
  0
VERTEX
  5
1C81
  8
0
 10
237.32834089647051
 20
177.31757895980911
 30
0.0
  0
VERTEX
  5
1C82
  8
0
 10
237.32650649025061
 20
177.2967996343861
 30
0.0
  0
VERTEX
  5
1C83
  8
0
 10
237.3255891985676
 20
177.27601428771061
 30
0.0
  0
VERTEX
  5
1C84
  8
0
 10
237.32547453295521
 20
177.26562061076609
 30
0.0
  0
SEQEND
  5
1C85
  8
0
  0
LINE
  5
AC5
  8
0
 10
237.32547453295521
 20
186.86160999450229
 30
0.0
 11
237.32547453295521
 21
177.26562061076609
 31
0.0
  0
POLYLINE
  5
AC6
  8
0
 66
     1
 10
0.0
 20
0.0
 30
0.0
  0
VERTEX
  5
1C86
  8
0
 10
246.82134715216759
 20
177.32796511046041
 30
0.0
  0
VERTEX
  5
1C87
  8
0
 10
246.819775437722
 20
177.33898872033009
 30
0.0
  0
VERTEX
  5
1C88
  8
0
 10
246.81588021905131
 20
177.36168006476751
 30
0.0
  0
VERTEX
  5
1C89
  8
0
 10
246.81098965914859
 20
177.3852232684165
 30
0.0
  0
VERTEX
  5
1C8A
  8
0
 10
246.80817407819299
 20
177.39731139517201
 30
0.0
  0
VERTEX
  5
1C8B
  8
0
 10
246.8051133682589
 20
177.40960881985851
 30
0.0
  0
VERTEX
  5
1C8C
  8
0
 10
246.79826226109799
 20
177.43482594096841
 30
0.0
  0
VERTEX
  5
1C8D
  8
0
 10
246.79044852765551
 20
177.46086263838859
 30
0.0
  0
VERTEX
  5
1C8E
  8
0
 10
246.78168559339909
 20
177.48770576267361
 30
0.0
  0
VERTEX
  5
1C8F
  8
0
 10
246.77198806984711
 20
177.5153410745306
 30
0.0
  0
VERTEX
  5
1C90
  8
0
 10
246.76137169642439
 20
177.5437533176142
 30
0.0
  0
VERTEX
  5
1C91
  8
0
 10
246.75572376362621
 20
177.5582467452933
 30
0.0
  0
VERTEX
  5
1C92
  8
0
 10
246.74985140778051
 20
177.57293090769161
 30
0.0
  0
VERTEX
  5
1C93
  8
0
 10
246.7374419393006
 20
177.6028633794275
 30
0.0
  0
VERTEX
  5
1C94
  8
0
 10
246.72416103269049
 20
177.63353377392431
 30
0.0
  0
VERTEX
  5
1C95
  8
0
 10
246.7100275081589
 20
177.66492395007359
 30
0.0
  0
VERTEX
  5
1C96
  8
0
 10
246.69506122751289
 20
177.69701465408079
 30
0.0
  0
VERTEX
  5
1C97
  8
0
 10
246.67928305735961
 20
177.7297855736295
 30
0.0
  0
VERTEX
  5
1C98
  8
0
 10
246.6710962987718
 20
177.7464194913193
 30
0.0
  0
VERTEX
  5
1C99
  8
0
 10
246.6627148259241
 20
177.76321539553609
 30
0.0
  0
VERTEX
  5
1C9A
  8
0
 10
246.64537927437891
 20
177.7972818663537
 30
0.0
  0
VERTEX
  5
1C9B
  8
0
 10
246.6273000034877
 20
177.83196185546791
 30
0.0
  0
VERTEX
  5
1C9C
  8
0
 10
246.61798906953121
 20
177.84952446722841
 30
0.0
  0
VERTEX
  5
1C9D
  8
0
 10
246.60850141626591
 20
177.8672314203086
 30
0.0
  0
VERTEX
  5
1C9E
  8
0
 10
246.58900865726201
 20
177.90306587338929
 30
0.0
  0
VERTEX
  5
1C9F
  8
0
 10
246.5688475489699
 20
177.93943985096061
 30
0.0
  0
VERTEX
  5
1CA0
  8
0
 10
246.5585246030904
 20
177.95782106659331
 30
0.0
  0
VERTEX
  5
1CA1
  8
0
 10
246.54804453690451
 20
177.97632736359131
 30
0.0
  0
VERTEX
  5
1CA2
  8
0
 10
246.5266267565824
 20
178.01370163517501
 30
0.0
  0
VERTEX
  5
1CA3
  8
0
 10
246.5046221137795
 20
178.05153493699561
 30
0.0
  0
VERTEX
  5
1CA4
  8
0
 10
246.4820592540085
 20
178.0897986227798
 30
0.0
  0
VERTEX
  5
1CA5
  8
0
 10
246.4589675202775
 20
178.12846317964781
 30
0.0
  0
VERTEX
  5
1CA6
  8
0
 10
246.4353769082432
 20
178.16749827920609
 30
0.0
  0
VERTEX
  5
1CA7
  8
0
 10
246.42340406345909
 20
178.18714509442589
 30
0.0
  0
VERTEX
  5
1CA8
  8
0
 10
246.4113180193244
 20
178.20687282850491
 30
0.0
  0
VERTEX
  5
1CA9
  8
0
 10
246.3868220122535
 20
178.2465550206409
 30
0.0
  0
VERTEX
  5
1CAA
  8
0
 10
246.36192055346231
 20
178.28651238485679
 30
0.0
  0
VERTEX
  5
1CAB
  8
0
 10
246.33664576661559
 20
178.3267118360649
 30
0.0
  0
VERTEX
  5
1CAC
  8
0
 10
246.3110301815278
 20
178.36711972378109
 30
0.0
  0
VERTEX
  5
1CAD
  8
0
 10
246.28510668263331
 20
178.40770188052059
 30
0.0
  0
VERTEX
  5
1CAE
  8
0
 10
246.27203064980421
 20
178.42806176599311
 30
0.0
  0
VERTEX
  5
1CAF
  8
0
 10
246.25884116118709
 20
178.44852791886669
 30
0.0
  0
VERTEX
  5
1CB0
  8
0
 10
246.23211462522849
 20
178.48979541298971
 30
0.0
  0
VERTEX
  5
1CB1
  8
0
 10
246.20493378940239
 20
178.5315042426686
 30
0.0
  0
VERTEX
  5
1CB2
  8
0
 10
246.10638198684629
 20
178.680863403774
 30
0.0
  0
VERTEX
  5
1CB3
  8
0
 10
245.9261750867303
 20
178.94845588849051
 30
0.0
  0
VERTEX
  5
1CB4
  8
0
 10
245.73387177631639
 20
179.2293643874726
 30
0.0
  0
VERTEX
  5
1CB5
  8
0
 10
245.63398360249479
 20
179.37435319314281
 30
0.0
  0
VERTEX
  5
1CB6
  8
0
 10
245.53204822064319
 20
179.52212526780579
 30
0.0
  0
VERTEX
  5
1CB7
  8
0
 10
245.32343822921391
 20
179.82532094395381
 30
0.0
  0
VERTEX
  5
1CB8
  8
0
 10
245.1110072157486
 20
180.13760001223591
 30
0.0
  0
VERTEX
  5
1CB9
  8
0
 10
244.8980279405088
 20
180.45774191474609
 30
0.0
  0
VERTEX
  5
1CBA
  8
0
 10
244.68839128334531
 20
180.78442464056039
 30
0.0
  0
VERTEX
  5
1CBB
  8
0
 10
244.48643871316469
 20
181.11680002082491
 30
0.0
  0
VERTEX
  5
1CBC
  8
0
 10
244.38972526590521
 20
181.28529951318919
 30
0.0
  0
VERTEX
  5
1CBD
  8
0
 10
244.2967303722761
 20
181.45552981345909
 30
0.0
  0
VERTEX
  5
1CBE
  8
0
 10
244.1939732163035
 20
181.6566211026994
 30
0.0
  0
VERTEX
  5
1CBF
  8
0
 10
244.165932771325
 20
181.7146280279581
 30
0.0
  0
VERTEX
  5
1CC0
  8
0
 10
244.1385476967761
 20
181.77289818371949
 30
0.0
  0
VERTEX
  5
1CC1
  8
0
 10
244.12511515806341
 20
181.80213198027781
 30
0.0
  0
VERTEX
  5
1CC2
  8
0
 10
244.11186262723839
 20
181.8314341165248
 30
0.0
  0
VERTEX
  5
1CC3
  8
0
 10
244.0859180700528
 20
181.89025219232769
 30
0.0
  0
VERTEX
  5
1CC4
  8
0
 10
244.06075630336559
 20
181.94937099311471
 30
0.0
  0
VERTEX
  5
1CC5
  8
0
 10
244.03642184272039
 20
182.0088106951153
 30
0.0
  0
VERTEX
  5
1CC6
  8
0
 10
244.01296163537569
 20
182.06859299104761
 30
0.0
  0
VERTEX
  5
1CC7
  8
0
 10
243.9904252575152
 20
182.12874095611991
 30
0.0
  0
VERTEX
  5
1CC8
  8
0
 10
243.97951976295661
 20
182.1589596068267
 30
0.0
  0
VERTEX
  5
1CC9
  8
0
 10
243.96886510329759
 20
182.189278852521
 30
0.0
  0
VERTEX
  5
1CCA
  8
0
 10
243.94833655149171
 20
182.2502318685392
 30
0.0
  0
VERTEX
  5
1CCB
  8
0
 10
243.92889809209171
 20
182.3116257906884
 30
0.0
  0
VERTEX
  5
1CCC
  8
0
 10
243.91960679370069
 20
182.3424962179063
 30
0.0
  0
SEQEND
  5
1CCD
  8
0
  0
POLYLINE
  5
AC7
  8
0
 66
     1
 10
0.0
 20
0.0
 30
0.0
  0
VERTEX
  5
1CCE
  8
0
 10
243.91960679370069
 20
182.34249621790639
 30
0.0
  0
VERTEX
  5
1CCF
  8
0
 10
243.7960569011031
 20
182.74408302996409
 30
0.0
  0
VERTEX
  5
1CD0
  8
0
 10
243.54499090709811
 20
183.46299268434331
 30
0.0
  0
VERTEX
  5
1CD1
  8
0
 10
243.3963472970338
 20
183.82974809463161
 30
0.0
  0
VERTEX
  5
1CD2
  8
0
 10
243.3536106671053
 20
183.92734046146711
 30
0.0
  0
VERTEX
  5
1CD3
  8
0
 10
243.31076220232811
 20
184.0217191217377
 30
0.0
  0
VERTEX
  5
1CD4
  8
0
 10
243.28929720311439
 20
184.0677007202884
 30
0.0
  0
VERTEX
  5
1CD5
  8
0
 10
243.26780565187431
 20
184.1128758174633
 30
0.0
  0
VERTEX
  5
1CD6
  8
0
 10
243.2247447743722
 20
184.20080257257999
 30
0.0
  0
VERTEX
  5
1CD7
  8
0
 10
243.1815833375793
 20
184.28549169363851
 30
0.0
  0
VERTEX
  5
1CD8
  8
0
 10
243.15996608928779
 20
184.3266198146369
 30
0.0
  0
SEQEND
  5
1CD9
  8
0
  0
POLYLINE
  5
AC8
  8
0
 66
     1
 10
0.0
 20
0.0
 30
0.0
  0
VERTEX
  5
1CDA
  8
0
 10
243.15996608928779
 20
184.32661981463701
 30
0.0
  0
VERTEX
  5
1CDB
  8
0
 10
243.15046800923881
 20
184.34499212607571
 30
0.0
  0
VERTEX
  5
1CDC
  8
0
 10
243.13271436148469
 20
184.38254281640261
 30
0.0
  0
VERTEX
  5
1CDD
  8
0
 10
243.1168141759382
 20
184.421316113476
 30
0.0
  0
VERTEX
  5
1CDE
  8
0
 10
243.10964001308631
 20
184.44123992154121
 30
0.0
  0
VERTEX
  5
1CDF
  8
0
 10
243.10303520420189
 20
184.4615706653515
 30
0.0
  0
VERTEX
  5
1CE0
  8
0
 10
243.09611186426389
 20
184.48585603106471
 30
0.0
  0
VERTEX
  5
1CE1
  8
0
 10
243.09429957337329
 20
184.49291490355441
 30
0.0
  0
VERTEX
  5
1CE2
  8
0
 10
243.09256494272219
 20
184.50002986708671
 30
0.0
  0
VERTEX
  5
1CE3
  8
0
 10
243.09172746711641
 20
184.50360885183321
 30
0.0
  0
VERTEX
  5
1CE4
  8
0
 10
243.090910277511
 20
184.5072024295294
 30
0.0
  0
VERTEX
  5
1CE5
  8
0
 10
243.0893379675455
 20
184.51443415878899
 30
0.0
  0
VERTEX
  5
1CE6
  8
0
 10
243.0878504923609
 20
184.5217266803248
 30
0.0
  0
VERTEX
  5
1CE7
  8
0
 10
243.08645042636289
 20
184.5290816736254
 30
0.0
  0
VERTEX
  5
1CE8
  8
0
 10
243.08514044386541
 20
184.53650086765421
 30
0.0
  0
VERTEX
  5
1CE9
  8
0
 10
243.08392332389991
 20
184.54398603528759
 30
0.0
  0
VERTEX
  5
1CEA
  8
0
 10
243.08335048555139
 20
184.54775392364999
 30
0.0
  0
VERTEX
  5
1CEB
  8
0
 10
243.08280195466071
 20
184.5515389867881
 30
0.0
  0
VERTEX
  5
1CEC
  8
0
 10
243.0817793374504
 20
184.55916156237541
 30
0.0
  0
VERTEX
  5
1CED
  8
0
 10
243.08085858998729
 20
184.56685562397951
 30
0.0
  0
VERTEX
  5
1CEE
  8
0
 10
243.08004294894189
 20
184.5746230462814
 30
0.0
  0
VERTEX
  5
1CEF
  8
0
 10
243.0793357715693
 20
184.58246570716679
 30
0.0
  0
VERTEX
  5
1CF0
  8
0
 10
243.07874053632369
 20
184.5903854777379
 30
0.0
  0
VERTEX
  5
1CF1
  8
0
 10
243.07848601705501
 20
184.59437485949661
 30
0.0
  0
VERTEX
  5
1CF2
  8
0
 10
243.07826084234841
 20
184.5983842120468
 30
0.0
  0
VERTEX
  5
1CF3
  8
0
 10
243.077900407752
 20
184.6064637367256
 30
0.0
  0
VERTEX
  5
1CF4
  8
0
 10
243.07766306661199
 20
184.6146258407037
 30
0.0
  0
VERTEX
  5
1CF5
  8
0
 10
243.0775527646594
 20
184.62287226520331
 30
0.0
  0
VERTEX
  5
1CF6
  8
0
 10
243.077573165768
 20
184.63116752795781
 30
0.0
  0
VERTEX
  5
1CF7
  8
0
 10
243.07772333257461
 20
184.63938759424011
 30
0.0
  0
VERTEX
  5
1CF8
  8
0
 10
243.0778458390634
 20
184.6434660990904
 30
0.0
  0
VERTEX
  5
1CF9
  8
0
 10
243.07799930208211
 20
184.6475238748265
 30
0.0
  0
VERTEX
  5
1CFA
  8
0
 10
243.0783971626779
 20
184.6555781267943
 30
0.0
  0
VERTEX
  5
1CFB
  8
0
 10
243.07891311588401
 20
184.66355215186439
 30
0.0
  0
VERTEX
  5
1CFC
  8
0
 10
243.07954348026109
 20
184.67144778628941
 30
0.0
  0
VERTEX
  5
1CFD
  8
0
 10
243.0802846940052
 20
184.6792668905224
 30
0.0
  0
VERTEX
  5
1CFE
  8
0
 10
243.08113331628431
 20
184.6870113388612
 30
0.0
  0
VERTEX
  5
1CFF
  8
0
 10
243.08159686350351
 20
184.69085615405751
 30
0.0
  0
VERTEX
  5
1D00
  8
0
 10
243.0820860273916
 20
184.6946830092476
 30
0.0
  0
VERTEX
  5
1D01
  8
0
 10
243.0831396278017
 20
184.7022837734016
 30
0.0
  0
VERTEX
  5
1D02
  8
0
 10
243.08429103624459
 20
184.7098154874416
 30
0.0
  0
VERTEX
  5
1D03
  8
0
 10
243.0849024872459
 20
184.7135560242717
 30
0.0
  0
VERTEX
  5
1D04
  8
0
 10
243.0855372869157
 20
184.7172799831344
 30
0.0
  0
VERTEX
  5
1D05
  8
0
 10
243.08687552595609
 20
184.7246790598912
 30
0.0
  0
VERTEX
  5
1D06
  8
0
 10
243.08830300733641
 20
184.73201447761119
 30
0.0
  0
VERTEX
  5
1D07
  8
0
 10
243.08904938413659
 20
184.73565885194299
 30
0.0
  0
VERTEX
  5
1D08
  8
0
 10
243.0898170882846
 20
184.73928795044861
 30
0.0
  0
VERTEX
  5
1D09
  8
0
 10
243.0914152243918
 20
184.74650114155949
 30
0.0
  0
VERTEX
  5
1D0A
  8
0
 10
243.0930949645284
 20
184.75365565886611
 30
0.0
  0
VERTEX
  5
1D0B
  8
0
 10
243.094853945697
 20
184.76075305185481
 30
0.0
  0
VERTEX
  5
1D0C
  8
0
 10
243.09668988801459
 20
184.7677948097095
 30
0.0
  0
VERTEX
  5
1D0D
  8
0
 10
243.09860059605759
 20
184.77478238255571
 30
0.0
  0
VERTEX
  5
1D0E
  8
0
 10
243.09958332711
 20
184.77825630485759
 30
0.0
  0
VERTEX
  5
1D0F
  8
0
 10
243.10058396929389
 20
184.78171722819781
 30
0.0
  0
VERTEX
  5
1D10
  8
0
 10
243.10263800110201
 20
184.78860081003501
 30
0.0
  0
VERTEX
  5
1D11
  8
0
 10
243.104760776131
 20
184.79543459054381
 30
0.0
  0
VERTEX
  5
1D12
  8
0
 10
243.11270622732411
 20
184.81898154932961
 30
0.0
  0
VERTEX
  5
1D13
  8
0
 10
243.12803897286449
 20
184.8581430946565
 30
0.0
  0
VERTEX
  5
1D14
  8
0
 10
243.14529551409021
 20
184.89601781630361
 30
0.0
  0
VERTEX
  5
1D15
  8
0
 10
243.16423594715411
 20
184.9327994126285
 30
0.0
  0
VERTEX
  5
1D16
  8
0
 10
243.17427642818069
 20
184.95083372520119
 30
0.0
  0
VERTEX
  5
1D17
  8
0
 10
243.184671785539
 20
184.96865950870239
 30
0.0
  0
VERTEX
  5
1D18
  8
0
 10
243.20646676631731
 20
185.00376660986629
 30
0.0
  0
VERTEX
  5
1D19
  8
0
 10
243.2295201469268
 20
185.03827065939791
 30
0.0
  0
VERTEX
  5
1D1A
  8
0
 10
243.24149436198039
 20
185.0553378211805
 30
0.0
  0
VERTEX
  5
1D1B
  8
0
 10
243.25375634030851
 20
185.0723012417437
 30
0.0
  0
VERTEX
  5
1D1C
  8
0
 10
243.27911611600939
 20
185.1059669409612
 30
0.0
  0
VERTEX
  5
1D1D
  8
0
 10
243.3054924986188
 20
185.13928524203641
 30
0.0
  0
VERTEX
  5
1D1E
  8
0
 10
243.3190304103704
 20
185.1558183423393
 30
0.0
  0
VERTEX
  5
1D1F
  8
0
 10
243.332791185649
 20
185.172275915607
 30
0.0
  0
VERTEX
  5
1D20
  8
0
 10
243.36095423641839
 20
185.2049881242632
 30
0.0
  0
VERTEX
  5
1D21
  8
0
 10
243.38993268995691
 20
185.2374660048477
 30
0.0
  0
VERTEX
  5
1D22
  8
0
 10
243.4196846907447
 20
185.26974872961651
 30
0.0
  0
VERTEX
  5
1D23
  8
0
 10
243.4501739660999
 20
185.3018707078304
 30
0.0
  0
VERTEX
  5
1D24
  8
0
 10
243.48136861202599
 20
185.33386187493201
 30
0.0
  0
VERTEX
  5
1D25
  8
0
 10
243.49722143473221
 20
185.34981661877021
 30
0.0
  0
VERTEX
  5
1D26
  8
0
 10
243.51324014192849
 20
185.3657480319448
 30
0.0
  0
VERTEX
  5
1D27
  8
0
 10
243.54576275483461
 20
185.3975512092141
 30
0.0
  0
VERTEX
  5
1D28
  8
0
 10
243.57891278418489
 20
185.4292900369401
 30
0.0
  0
VERTEX
  5
1D29
  8
0
 10
243.69945072859869
 20
185.53996060315851
 30
0.0
  0
VERTEX
  5
1D2A
  8
0
 10
243.9171417891028
 20
185.72613836634741
 30
0.0
  0
VERTEX
  5
1D2B
  8
0
 10
244.14218986654629
 20
185.90582323557931
 30
0.0
  0
VERTEX
  5
1D2C
  8
0
 10
244.36823153111101
 20
186.0765048218322
 30
0.0
  0
VERTEX
  5
1D2D
  8
0
 10
244.4798174713724
 20
186.15760211864111
 30
0.0
  0
VERTEX
  5
1D2E
  8
0
 10
244.58979970013249
 20
186.23558232581101
 30
0.0
  0
VERTEX
  5
1D2F
  8
0
 10
244.81181825233591
 20
186.3870718700289
 30
0.0
  0
VERTEX
  5
1D30
  8
0
 10
244.9421785202988
 20
186.4721678003269
 30
0.0
  0
VERTEX
  5
1D31
  8
0
 10
244.979387085643
 20
186.4959016434739
 30
0.0
  0
VERTEX
  5
1D32
  8
0
 10
245.01654499491971
 20
186.51934685819691
 30
0.0
  0
VERTEX
  5
1D33
  8
0
 10
245.0350992778055
 20
186.53095598127669
 30
0.0
  0
VERTEX
  5
1D34
  8
0
 10
245.05363412594889
 20
186.54248666812461
 30
0.0
  0
VERTEX
  5
1D35
  8
0
 10
245.0906366520932
 20
186.5653044348779
 30
0.0
  0
VERTEX
  5
1D36
  8
0
 10
245.12753494564399
 20
186.58778360041691
 30
0.0
  0
VERTEX
  5
1D37
  8
0
 10
245.16431155484511
 20
186.60990767817771
 30
0.0
  0
VERTEX
  5
1D38
  8
0
 10
245.2009492230338
 20
186.6316602707349
 30
0.0
  0
VERTEX
  5
1D39
  8
0
 10
245.2374309087171
 20
186.6530250877652
 30
0.0
  0
VERTEX
  5
1D3A
  8
0
 10
245.25560799651379
 20
186.66355702341161
 30
0.0
  0
VERTEX
  5
1D3B
  8
0
 10
245.27373980602979
 20
186.67398596388969
 30
0.0
  0
VERTEX
  5
1D3C
  8
0
 10
245.3098593656394
 20
186.69452687634501
 30
0.0
  0
VERTEX
  5
1D3D
  8
0
 10
245.34577331614571
 20
186.71463196241189
 30
0.0
  0
VERTEX
  5
1D3E
  8
0
 10
245.3814656860157
 20
186.73428553650609
 30
0.0
  0
VERTEX
  5
1D3F
  8
0
 10
245.41692082607551
 20
186.7534721068119
 30
0.0
  0
VERTEX
  5
1D40
  8
0
 10
245.45212343256489
 20
186.7721763913078
 30
0.0
  0
VERTEX
  5
1D41
  8
0
 10
245.46962535354371
 20
186.78134296188131
 30
0.0
  0
VERTEX
  5
1D42
  8
0
 10
245.48705857074609
 20
186.79038333300841
 30
0.0
  0
VERTEX
  5
1D43
  8
0
 10
245.5217124891112
 20
186.80807851337241
 30
0.0
  0
VERTEX
  5
1D44
  8
0
 10
245.5560749645802
 20
186.82524926789361
 30
0.0
  0
VERTEX
  5
1D45
  8
0
 10
245.59013234937299
 20
186.84188114728431
 30
0.0
  0
VERTEX
  5
1D46
  8
0
 10
245.6238706279743
 20
186.85795956804441
 30
0.0
  0
VERTEX
  5
1D47
  8
0
 10
245.65727603301821
 20
186.87347014112541
 30
0.0
  0
VERTEX
  5
1D48
  8
0
 10
245.6738496804746
 20
186.88100804747941
 30
0.0
  0
VERTEX
  5
1D49
  8
0
 10
245.69033507361959
 20
186.88839869665591
 30
0.0
  0
VERTEX
  5
1D4A
  8
0
 10
245.7230345639604
 20
186.90273130786011
 30
0.0
  0
VERTEX
  5
1D4B
  8
0
 10
245.75536165212159
 20
186.916454313982
 30
0.0
  0
VERTEX
  5
1D4C
  8
0
 10
245.77138162760531
 20
186.9230830242625
 30
0.0
  0
VERTEX
  5
1D4D
  8
0
 10
245.7873038491299
 20
186.92955434199621
 30
0.0
  0
VERTEX
  5
1D4E
  8
0
 10
245.8188490581631
 20
186.94201832684121
 30
0.0
  0
VERTEX
  5
1D4F
  8
0
 10
245.84998560383309
 20
186.9538335298698
 30
0.0
  0
VERTEX
  5
1D50
  8
0
 10
245.86539710178471
 20
186.95949395069459
 30
0.0
  0
VERTEX
  5
1D51
  8
0
 10
245.88070226143429
 20
186.96498755516399
 30
0.0
  0
VERTEX
  5
1D52
  8
0
 10
245.91098828601511
 20
186.97546836332009
 30
0.0
  0
VERTEX
  5
1D53
  8
0
 10
245.9408334412179
 20
186.98526428229661
 30
0.0
  0
VERTEX
  5
1D54
  8
0
 10
245.97022798283371
 20
186.99436400137091
 30
0.0
  0
VERTEX
  5
1D55
  8
0
 10
245.99916249542429
 20
187.00275652553009
 30
0.0
  0
VERTEX
  5
1D56
  8
0
 10
246.0276278475105
 20
187.0104311808557
 30
0.0
  0
VERTEX
  5
1D57
  8
0
 10
246.0416818215383
 20
187.01399606803571
 30
0.0
  0
VERTEX
  5
1D58
  8
0
 10
246.0556152287507
 20
187.0173776474432
 30
0.0
  0
VERTEX
  5
1D59
  8
0
 10
246.08311618818331
 20
187.02358599065559
 30
0.0
  0
VERTEX
  5
1D5A
  8
0
 10
246.11012267177171
 20
187.0290466897776
 30
0.0
  0
VERTEX
  5
1D5B
  8
0
 10
246.13662705906719
 20
187.033750663636
 30
0.0
  0
VERTEX
  5
1D5C
  8
0
 10
246.16262219878689
 20
187.03768929271411
 30
0.0
  0
VERTEX
  5
1D5D
  8
0
 10
246.18810144307321
 20
187.0408544372458
 30
0.0
  0
VERTEX
  5
1D5E
  8
0
 10
246.20064567270819
 20
187.04214454374261
 30
0.0
  0
VERTEX
  5
1D5F
  8
0
 10
246.2130586801751
 20
187.04323845073901
 30
0.0
  0
VERTEX
  5
1D60
  8
0
 10
246.2374883652667
 20
187.04483418835159
 30
0.0
  0
VERTEX
  5
1D61
  8
0
 10
246.26138554909031
 20
187.0456350095123
 30
0.0
  0
VERTEX
  5
1D62
  8
0
 10
246.27313307572339
 20
187.0457353883489
 30
0.0
  0
SEQEND
  5
1D63
  8
0
  0
POLYLINE
  5
AC9
  8
0
 66
     1
 10
0.0
 20
0.0
 30
0.0
  0
VERTEX
  5
1D64
  8
0
 10
246.27313307572339
 20
187.0457353883489
 30
0.0
  0
VERTEX
  5
1D65
  8
0
 10
246.29011256052951
 20
187.0455190068005
 30
0.0
  0
VERTEX
  5
1D66
  8
0
 10
246.32355471878
 20
187.04375289902009
 30
0.0
  0
VERTEX
  5
1D67
  8
0
 10
246.35622719929
 20
187.04013518526509
 30
0.0
  0
VERTEX
  5
1D68
  8
0
 10
246.3722464284856
 20
187.0376061949851
 30
0.0
  0
SEQEND
  5
1D69
  8
0
  0
LINE
  5
ACA
  8
0
 10
246.82547453295521
 20
186.86160999450229
 30
0.0
 11
246.82547453295521
 21
177.26562061076609
 31
0.0
  0
POLYLINE
  5
ACB
  8
0
 66
     1
 10
0.0
 20
0.0
 30
0.0
  0
VERTEX
  5
1D6A
  8
0
 10
246.82547453295521
 20
177.26562061076609
 30
0.0
  0
VERTEX
  5
1D6B
  8
0
 10
246.8253598673428
 20
177.27601428771061
 30
0.0
  0
VERTEX
  5
1D6C
  8
0
 10
246.82444257565979
 20
177.29679963438599
 30
0.0
  0
VERTEX
  5
1D6D
  8
0
 10
246.82260816944
 20
177.31757895980911
 30
0.0
  0
VERTEX
  5
1D6E
  8
0
 10
246.82134715216759
 20
177.32796511046041
 30
0.0
  0
SEQEND
  5
1D6F
  8
0
  0
LINE
  5
ACC
  8
0
 10
251.32547453295521
 20
151.26070116281201
 30
0.0
 11
232.82547453295521
 21
151.26070116281201
 31
0.0
  0
POLYLINE
  5
ACD
  8
0
 66
     1
 10
0.0
 20
0.0
 30
0.0
  0
VERTEX
  5
1D70
  8
0
 10
236.24466956922339
 20
181.98486966626231
 30
0.0
  0
VERTEX
  5
1D71
  8
0
 10
236.4229186363811
 20
183.08876928772889
 30
0.0
  0
VERTEX
  5
1D72
  8
0
 10
236.78197483414121
 20
184.94867105150959
 30
0.0
  0
VERTEX
  5
1D73
  8
0
 10
237.1437847428694
 20
186.34141609334159
 30
0.0
  0
VERTEX
  5
1D74
  8
0
 10
237.32547453295521
 20
186.86160999450229
 30
0.0
  0
SEQEND
  5
1D75
  8
0
  0
POLYLINE
  5
ACE
  8
0
 66
     1
 10
0.0
 20
0.0
 30
0.0
  0
VERTEX
  5
1D76
  8
0
 10
236.2394491163675
 20
181.91641526623101
 30
0.0
  0
VERTEX
  5
1D77
  8
0
 10
236.23959257052459
 20
181.92779370742721
 30
0.0
  0
VERTEX
  5
1D78
  8
0
 10
236.24074594212291
 20
181.95059030069569
 30
0.0
  0
VERTEX
  5
1D79
  8
0
 10
236.24306687553849
 20
181.97343325724879
 30
0.0
  0
VERTEX
  5
1D7A
  8
0
 10
236.24466956922339
 20
181.9848696662624
 30
0.0
  0
SEQEND
  5
1D7B
  8
0
  0
POLYLINE
  5
ACF
  8
0
 66
     1
 10
0.0
 20
0.0
 30
0.0
  0
VERTEX
  5
1D7C
  8
0
 10
235.48660431012721
 20
175.00285131278059
 30
0.0
  0
VERTEX
  5
1D7D
  8
0
 10
235.6269975409308
 20
175.15812961837051
 30
0.0
  0
VERTEX
  5
1D7E
  8
0
 10
235.89141146577549
 20
175.46557396619599
 30
0.0
  0
VERTEX
  5
1D7F
  8
0
 10
236.1340526856294
 20
175.76847410129389
 30
0.0
  0
VERTEX
  5
1D80
  8
0
 10
236.2472493092074
 20
175.91807631119659
 30
0.0
  0
SEQEND
  5
1D81
  8
0
  0
POLYLINE
  5
AD0
  8
0
 66
     1
 10
0.0
 20
0.0
 30
0.0
  0
VERTEX
  5
1D82
  8
0
 10
232.57547453295521
 20
172.40683502445231
 30
0.0
  0
VERTEX
  5
1D83
  8
0
 10
232.57773730943461
 20
172.48940720468281
 30
0.0
  0
VERTEX
  5
1D84
  8
0
 10
232.59560732950121
 20
172.6522864286637
 30
0.0
  0
VERTEX
  5
1D85
  8
0
 10
232.6306601760181
 20
172.81164271219359
 30
0.0
  0
VERTEX
  5
1D86
  8
0
 10
232.65436313498441
 20
172.88982858332739
 30
0.0
  0
VERTEX
  5
1D87
  8
0
 10
232.68236087984269
 20
172.9678100512636
 30
0.0
  0
VERTEX
  5
1D88
  8
0
 10
232.75205752896599
 20
173.1244336358908
 30
0.0
  0
VERTEX
  5
1D89
  8
0
 10
232.84049777181119
 20
173.2812999858516
 30
0.0
  0
VERTEX
  5
1D8A
  8
0
 10
232.94808287879411
 20
173.43766423733351
 30
0.0
  0
VERTEX
  5
1D8B
  8
0
 10
233.07502985659809
 20
173.5928175218346
 30
0.0
  0
VERTEX
  5
1D8C
  8
0
 10
233.2213806829086
 20
173.74609130082891
 30
0.0
  0
VERTEX
  5
1D8D
  8
0
 10
233.3017952389967
 20
173.82182160169111
 30
0.0
  0
VERTEX
  5
1D8E
  8
0
 10
233.3869925860196
 20
173.8968432219996
 30
0.0
  0
VERTEX
  5
1D8F
  8
0
 10
233.57153875325019
 20
174.04446135573531
 30
0.0
  0
VERTEX
  5
1D90
  8
0
 10
233.77453387970149
 20
174.18838412140451
 30
0.0
  0
VERTEX
  5
1D91
  8
0
 10
233.99543399470571
 20
174.32815380280101
 30
0.0
  0
VERTEX
  5
1D92
  8
0
 10
234.23346108563661
 20
174.4632894628246
 30
0.0
  0
VERTEX
  5
1D93
  8
0
 10
234.48763641457001
 20
174.59333029238741
 30
0.0
  0
VERTEX
  5
1D94
  8
0
 10
234.62042934649369
 20
174.65630905340419
 30
0.0
  0
VERTEX
  5
1D95
  8
0
 10
234.75682170116681
 20
174.71786400779229
 30
0.0
  0
VERTEX
  5
1D96
  8
0
 10
235.03973599003689
 20
174.83653277043021
 30
0.0
  0
VERTEX
  5
1D97
  8
0
 10
235.334917101614
 20
174.94901637647021
 30
0.0
  0
VERTEX
  5
1D98
  8
0
 10
235.48660431012721
 20
175.00285131278051
 30
0.0
  0
SEQEND
  5
1D99
  8
0
  0
POLYLINE
  5
AD1
  8
0
 66
     1
 10
0.0
 20
0.0
 30
0.0
  0
VERTEX
  5
1D9A
  8
0
 10
248.66434475578319
 20
175.00285131278059
 30
0.0
  0
VERTEX
  5
1D9B
  8
0
 10
248.8160319642964
 20
174.94901637647021
 30
0.0
  0
VERTEX
  5
1D9C
  8
0
 10
249.11121307587359
 20
174.83653277043021
 30
0.0
  0
VERTEX
  5
1D9D
  8
0
 10
249.39412736474361
 20
174.71786400779229
 30
0.0
  0
VERTEX
  5
1D9E
  8
0
 10
249.5305197194167
 20
174.6563090534043
 30
0.0
  0
VERTEX
  5
1D9F
  8
0
 10
249.66331265134039
 20
174.59333029238729
 30
0.0
  0
VERTEX
  5
1DA0
  8
0
 10
249.9174879802739
 20
174.4632894628248
 30
0.0
  0
VERTEX
  5
1DA1
  8
0
 10
250.1555150712046
 20
174.32815380280101
 30
0.0
  0
VERTEX
  5
1DA2
  8
0
 10
250.3764151862089
 20
174.18838412140451
 30
0.0
  0
VERTEX
  5
1DA3
  8
0
 10
250.5794103126602
 20
174.04446135573531
 30
0.0
  0
VERTEX
  5
1DA4
  8
0
 10
250.76395647989079
 20
173.8968432219996
 30
0.0
  0
VERTEX
  5
1DA5
  8
0
 10
250.84915382691369
 20
173.82182160169111
 30
0.0
  0
VERTEX
  5
1DA6
  8
0
 10
250.92956838300171
 20
173.74609130082891
 30
0.0
  0
VERTEX
  5
1DA7
  8
0
 10
251.0759192093123
 20
173.5928175218346
 30
0.0
  0
VERTEX
  5
1DA8
  8
0
 10
251.2028661871164
 20
173.43766423733359
 30
0.0
  0
VERTEX
  5
1DA9
  8
0
 10
251.31045129409929
 20
173.2812999858516
 30
0.0
  0
VERTEX
  5
1DAA
  8
0
 10
251.39889153694449
 20
173.1244336358908
 30
0.0
  0
VERTEX
  5
1DAB
  8
0
 10
251.46858818606771
 20
172.9678100512636
 30
0.0
  0
VERTEX
  5
1DAC
  8
0
 10
251.49658593092599
 20
172.88982858332739
 30
0.0
  0
VERTEX
  5
1DAD
  8
0
 10
251.5202888898923
 20
172.81164271219359
 30
0.0
  0
VERTEX
  5
1DAE
  8
0
 10
251.55534173640919
 20
172.6522864286637
 30
0.0
  0
VERTEX
  5
1DAF
  8
0
 10
251.5732117564759
 20
172.48940720468281
 30
0.0
  0
VERTEX
  5
1DB0
  8
0
 10
251.5754745329553
 20
172.40683502445231
 30
0.0
  0
SEQEND
  5
1DB1
  8
0
  0
POLYLINE
  5
AD2
  8
0
 66
     1
 10
0.0
 20
0.0
 30
0.0
  0
VERTEX
  5
1DB2
  8
0
 10
247.90369975670299
 20
175.91807631119659
 30
0.0
  0
VERTEX
  5
1DB3
  8
0
 10
248.016896380281
 20
175.7684741012938
 30
0.0
  0
VERTEX
  5
1DB4
  8
0
 10
248.25953760013491
 20
175.46557396619599
 30
0.0
  0
VERTEX
  5
1DB5
  8
0
 10
248.52395152497959
 20
175.15812961837051
 30
0.0
  0
VERTEX
  5
1DB6
  8
0
 10
248.66434475578319
 20
175.00285131278059
 30
0.0
  0
SEQEND
  5
1DB7
  8
0
  0
POLYLINE
  5
AD3
  8
0
 66
     1
 10
0.0
 20
0.0
 30
0.0
  0
VERTEX
  5
1DB8
  8
0
 10
247.90627949668701
 20
181.9848696662624
 30
0.0
  0
VERTEX
  5
1DB9
  8
0
 10
247.90788219037159
 20
181.97343325725171
 30
0.0
  0
VERTEX
  5
1DBA
  8
0
 10
247.91020312378691
 20
181.95059030070439
 30
0.0
  0
VERTEX
  5
1DBB
  8
0
 10
247.91135649538549
 20
181.92779370744151
 30
0.0
  0
VERTEX
  5
1DBC
  8
0
 10
247.9114999495429
 20
181.91641526624821
 30
0.0
  0
SEQEND
  5
1DBD
  8
0
  0
POLYLINE
  5
AD4
  8
0
 66
     1
 10
0.0
 20
0.0
 30
0.0
  0
VERTEX
  5
1DBE
  8
0
 10
246.82547453295521
 20
186.86160999450229
 30
0.0
  0
VERTEX
  5
1DBF
  8
0
 10
247.007164323041
 20
186.34141609334159
 30
0.0
  0
VERTEX
  5
1DC0
  8
0
 10
247.36897423176919
 20
184.94867105150959
 30
0.0
  0
VERTEX
  5
1DC1
  8
0
 10
247.7280304295293
 20
183.08876928772889
 30
0.0
  0
VERTEX
  5
1DC2
  8
0
 10
247.90627949668701
 20
181.98486966626231
 30
0.0
  0
SEQEND
  5
1DC3
  8
0
  0
POLYLINE
  5
AD5
  8
0
 66
     1
 10
0.0
 20
0.0
 30
0.0
  0
VERTEX
  5
1DC4
  8
0
 10
246.3722464284856
 20
187.0376061949851
 30
0.0
  0
VERTEX
  5
1DC5
  8
0
 10
246.39710694022341
 20
187.033193745284
 30
0.0
  0
VERTEX
  5
1DC6
  8
0
 10
246.44482660975791
 20
187.0242514318607
 30
0.0
  0
VERTEX
  5
1DC7
  8
0
 10
246.48983829100229
 20
187.01515837135381
 30
0.0
  0
VERTEX
  5
1DC8
  8
0
 10
246.5113188692043
 20
187.0105567646182
 30
0.0
  0
VERTEX
  5
1DC9
  8
0
 10
246.53210920273131
 20
187.00591966513221
 30
0.0
  0
VERTEX
  5
1DCA
  8
0
 10
246.57159936364141
 20
186.99654321894431
 30
0.0
  0
VERTEX
  5
1DCB
  8
0
 10
246.6082730741621
 20
186.9870378435775
 30
0.0
  0
VERTEX
  5
1DCC
  8
0
 10
246.64210110091901
 20
186.97741287091441
 30
0.0
  0
VERTEX
  5
1DCD
  8
0
 10
246.67306105322439
 20
186.96767809737679
 30
0.0
  0
VERTEX
  5
1DCE
  8
0
 10
246.70113766374729
 20
186.95784372186671
 30
0.0
  0
VERTEX
  5
1DCF
  8
0
 10
246.714091940326
 20
186.95289246398289
 30
0.0
  0
VERTEX
  5
1DD0
  8
0
 10
246.72632297461911
 20
186.94792027779241
 30
0.0
  0
VERTEX
  5
1DD1
  8
0
 10
246.74861642616571
 20
186.9379185600994
 30
0.0
  0
VERTEX
  5
1DD2
  8
0
 10
246.76802466892821
 20
186.9278496485376
 30
0.0
  0
VERTEX
  5
1DD3
  8
0
 10
246.7845611392203
 20
186.91772513876879
 30
0.0
  0
VERTEX
  5
1DD4
  8
0
 10
246.7982463013667
 20
186.9075571710805
 30
0.0
  0
VERTEX
  5
1DD5
  8
0
 10
246.8091080377169
 20
186.89735835810009
 30
0.0
  0
VERTEX
  5
1DD6
  8
0
 10
246.81349093423901
 20
186.8922514362439
 30
0.0
  0
VERTEX
  5
1DD7
  8
0
 10
246.81718192978121
 20
186.8871417073193
 30
0.0
  0
VERTEX
  5
1DD8
  8
0
 10
246.82251143097841
 20
186.8769205395009
 30
0.0
  0
VERTEX
  5
1DD9
  8
0
 10
246.8251479332034
 20
186.86670840266359
 30
0.0
  0
VERTEX
  5
1DDA
  8
0
 10
246.82547453295521
 20
186.86160999450229
 30
0.0
  0
SEQEND
  5
1DDB
  8
0
  0
POLYLINE
  5
AD6
  8
0
 66
     1
 10
0.0
 20
0.0
 30
0.0
  0
VERTEX
  5
1DDC
  8
0
 10
237.32547453295521
 20
186.86160999450229
 30
0.0
  0
VERTEX
  5
1DDD
  8
0
 10
237.32580116415861
 20
186.86670864778731
 30
0.0
  0
VERTEX
  5
1DDE
  8
0
 10
237.3284378837638
 20
186.8769211793811
 30
0.0
  0
VERTEX
  5
1DDF
  8
0
 10
237.3337677383528
 20
186.8871426268733
 30
0.0
  0
VERTEX
  5
1DE0
  8
0
 10
237.33745893813949
 20
186.89225245700999
 30
0.0
  0
VERTEX
  5
1DE1
  8
0
 10
237.34184204625149
 20
186.89735945670259
 30
0.0
  0
VERTEX
  5
1DE2
  8
0
 10
237.35270419921119
 20
186.90755836218301
 30
0.0
  0
VERTEX
  5
1DE3
  8
0
 10
237.36638972885001
 20
186.91772634939289
 30
0.0
  0
VERTEX
  5
1DE4
  8
0
 10
237.38292647908011
 20
186.92785081864301
 30
0.0
  0
VERTEX
  5
1DE5
  8
0
 10
237.4023348867135
 20
186.9379196418256
 30
0.0
  0
VERTEX
  5
1DE6
  8
0
 10
237.4246283708631
 20
186.94792123463799
 30
0.0
  0
VERTEX
  5
1DE7
  8
0
 10
237.4368593700207
 20
186.9528933483636
 30
0.0
  0
VERTEX
  5
1DE8
  8
0
 10
237.44981357830591
 20
186.95784452923951
 30
0.0
  0
VERTEX
  5
1DE9
  8
0
 10
237.47788996106539
 20
186.96767874328549
 30
0.0
  0
VERTEX
  5
1DEA
  8
0
 10
237.50884958545669
 20
186.9774133551721
 30
0.0
  0
VERTEX
  5
1DEB
  8
0
 10
237.54267721990479
 20
186.9870381768468
 30
0.0
  0
VERTEX
  5
1DEC
  8
0
 10
237.5793505201043
 20
186.99654342169771
 30
0.0
  0
VERTEX
  5
1DED
  8
0
 10
237.618840308552
 20
187.0059197665328
 30
0.0
  0
VERTEX
  5
1DEE
  8
0
 10
237.6396304897722
 20
187.0105568286703
 30
0.0
  0
VERTEX
  5
1DEF
  8
0
 10
237.66111094969031
 20
187.01515840806209
 30
0.0
  0
VERTEX
  5
1DF0
  8
0
 10
237.70612243542439
 20
187.0242514278294
 30
0.0
  0
VERTEX
  5
1DF1
  8
0
 10
237.7538420324075
 20
187.03319372842881
 30
0.0
  0
VERTEX
  5
1DF2
  8
0
 10
237.7787026374248
 20
187.0376061949851
 30
0.0
  0
SEQEND
  5
1DF3
  8
0
  0
LINE
  5
AD7
  8
0
 10
238.07547453295521
 20
95.527701162812065
 30
0.0
 11
246.07547453295521
 21
95.527701162812065
 31
0.0
  0
LINE
  5
AD8
  8
0
 10
238.84247453295521
 20
94.760701162812055
 30
0.0
 11
245.3084745329551
 21
94.760701162812055
 31
0.0
  0
LINE
  5
AD9
  8
0
 10
235.32547453295521
 20
144.7607011628121
 30
0.0
 11
248.82547453295521
 21
144.7607011628121
 31
0.0
  0
LINE
  5
ADA
  8
3
 10
245.3084745329551
 20
94.760701162812055
 30
0.0
 11
245.3084745329551
 21
144.7607011628121
 31
0.0
  0
LINE
  5
ADB
  8
0
 10
246.07547453295521
 20
144.7607011628121
 30
0.0
 11
245.3084745329551
 21
144.7607011628121
 31
0.0
  0
LINE
  5
ADC
  8
3
 10
238.84247453295521
 20
94.760701162812055
 30
0.0
 11
238.84247453295521
 21
144.7607011628121
 31
0.0
  0
LINE
  5
ADD
  8
0
 10
238.07547453295521
 20
144.7607011628121
 30
0.0
 11
238.84247453295521
 21
144.7607011628121
 31
0.0
  0
LINE
  5
B1C
  8
1
 10
58.729012146019471
 20
189.0376061949851
 30
0.0
 11
58.729012146019471
 21
92.410701162812074
 31
0.0
  0
LINE
  5
B1D
  8
0
 10
62.926670688787659
 20
187.0457353883489
 30
0.0
 11
54.531353603251283
 21
187.0457353883489
 31
0.0
  0
LINE
  5
B1E
  8
0
 10
67.979012146019471
 20
151.26070116281201
 30
0.0
 11
68.229012146019471
 21
172.40683502445219
 31
0.0
  0
LINE
  5
B1F
  8
0
 10
64.565037562607145
 20
175.90831627341211
 30
0.0
 11
64.565037562607145
 21
181.9164152664369
 31
0.0
  0
LINE
  5
B20
  8
0
 10
52.892986729431811
 20
181.9164152664369
 30
0.0
 11
52.892986729431811
 21
175.90831627341211
 31
0.0
  0
LINE
  5
B21
  8
0
 10
49.229012146019457
 20
172.40683502445219
 30
0.0
 11
49.479012146019471
 21
151.26070116281201
 31
0.0
  0
ARC
  5
B24
  8
0
 10
58.729012146019471
 20
168.76070116281201
 30
0.0
 40
8.0000000000000089
 50
55.150095420953647
 51
124.8499045790464
  0
ARC
  5
B25
  8
0
 10
54.729012146019471
 20
174.50526380935011
 30
0.0
 40
0.9999999999999975
 50
124.8499045790473
 51
180.0
  0
ARC
  5
B26
  8
0
 10
62.729012146019471
 20
174.50526380935011
 30
0.0
 40
0.9999999999999982
 50
0.0
 51
55.150095420952688
  0
LINE
  5
B27
  8
0
 10
62.729012146019471
 20
95.527701162812065
 30
0.0
 11
62.729012146019471
 21
144.7607011628121
 31
0.0
  0
LINE
  5
B28
  8
0
 10
54.729012146019471
 20
144.7607011628121
 30
0.0
 11
54.729012146019471
 21
95.527701162812065
 31
0.0
  0
LINE
  5
B29
  8
0
 10
61.962012146019482
 20
94.760701162812055
 30
0.0
 11
62.729012146019471
 21
95.527701162812065
 31
0.0
  0
LINE
  5
B2A
  8
0
 10
54.729012146019471
 20
95.527701162812065
 30
0.0
 11
55.496012146019453
 21
94.760701162812055
 31
0.0
  0
LINE
  5
B2B
  8
0
 10
63.729012146019471
 20
172.11971175698241
 30
0.0
 11
63.729012146019471
 21
174.50526380935011
 31
0.0
  0
LINE
  5
B2C
  8
0
 10
53.729012146019471
 20
174.50526380935011
 30
0.0
 11
53.729012146019471
 21
172.1197095745155
 31
0.0
  0
LINE
  5
B2D
  8
0
 10
65.479012146019471
 20
144.7607011628121
 30
0.0
 11
65.479012146019471
 21
151.26070116281201
 31
0.0
  0
LINE
  5
B2E
  8
0
 10
51.979012146019471
 20
151.26070116281201
 30
0.0
 11
51.979012146019471
 21
144.7607011628121
 31
0.0
  0
LINE
  5
B2F
  8
0
 10
60.850898099599391
 20
165.9645260810311
 30
0.0
 11
56.60712619243953
 21
165.9645260810311
 31
0.0
  0
POLYLINE
  5
B32
  8
0
 66
     1
 10
0.0
 20
0.0
 30
0.0
  0
VERTEX
  5
1DF4
  8
0
 10
60.850898099599391
 20
165.9645260810311
 30
0.0
  0
VERTEX
  5
1DF5
  8
0
 10
60.851334327906372
 20
165.99227068198891
 30
0.0
  0
VERTEX
  5
1DF6
  8
0
 10
60.854809640536821
 20
166.04763738578791
 30
0.0
  0
VERTEX
  5
1DF7
  8
0
 10
60.861703224598259
 20
166.1027639571098
 30
0.0
  0
VERTEX
  5
1DF8
  8
0
 10
60.866403313979319
 20
166.13020716422841
 30
0.0
  0
VERTEX
  5
1DF9
  8
0
 10
60.871919188584123
 20
166.15755467298791
 30
0.0
  0
VERTEX
  5
1DFA
  8
0
 10
60.88532738702672
 20
166.21191958987981
 30
0.0
  0
VERTEX
  5
1DFB
  8
0
 10
60.901770782327809
 20
166.26578235797649
 30
0.0
  0
VERTEX
  5
1DFC
  8
0
 10
60.921072232937739
 20
166.31907877967171
 30
0.0
  0
VERTEX
  5
1DFD
  8
0
 10
60.943036815741777
 20
166.3717465278371
 30
0.0
  0
VERTEX
  5
1DFE
  8
0
 10
60.96745624718649
 20
166.4237261187015
 30
0.0
  0
VERTEX
  5
1DFF
  8
0
 10
60.980518979043893
 20
166.4494404077881
 30
0.0
  0
VERTEX
  5
1E00
  8
0
 10
60.99411365576924
 20
166.47496225134651
 30
0.0
  0
VERTEX
  5
1E01
  8
0
 10
61.022788147690463
 20
166.52540464834411
 30
0.0
  0
VERTEX
  5
1E02
  8
0
 10
61.053268299942062
 20
166.5750232318544
 30
0.0
  0
VERTEX
  5
1E03
  8
0
 10
61.085340548772358
 20
166.62378137649799
 30
0.0
  0
VERTEX
  5
1E04
  8
0
 10
61.118790287266101
 20
166.67163722148169
 30
0.0
  0
VERTEX
  5
1E05
  8
0
 10
61.153405780241222
 20
166.7185484404333
 30
0.0
  0
VERTEX
  5
1E06
  8
0
 10
61.171085395772991
 20
166.7416362473729
 30
0.0
  0
VERTEX
  5
1E07
  8
0
 10
61.18897852011068
 20
166.76447139278591
 30
0.0
  0
VERTEX
  5
1E08
  8
0
 10
61.225303336034607
 20
166.8093604980084
 30
0.0
  0
VERTEX
  5
1E09
  8
0
 10
61.26217835681593
 20
166.85316781276799
 30
0.0
  0
VERTEX
  5
1E0A
  8
0
 10
61.280759984813251
 20
166.87465010575451
 30
0.0
  0
VERTEX
  5
1E0B
  8
0
 10
61.299404899693251
 20
166.89584278072459
 30
0.0
  0
VERTEX
  5
1E0C
  8
0
 10
61.336787335528527
 20
166.93733212359979
 30
0.0
  0
VERTEX
  5
1E0D
  8
0
 10
61.374135526101568
 20
166.9775825673826
 30
0.0
  0
VERTEX
  5
1E0E
  8
0
 10
61.392900062180487
 20
166.9973956195829
 30
0.0
  0
VERTEX
  5
1E0F
  8
0
 10
61.411854620171617
 20
167.01715165690331
 30
0.0
  0
VERTEX
  5
1E10
  8
0
 10
61.450312702536259
 20
167.05649625485341
 30
0.0
  0
VERTEX
  5
1E11
  8
0
 10
61.489468702325908
 20
167.0956226904639
 30
0.0
  0
VERTEX
  5
1E12
  8
0
 10
61.631453874898732
 20
167.23090907888809
 30
0.0
  0
VERTEX
  5
1E13
  8
0
 10
61.889204974528838
 20
167.45693921249409
 30
0.0
  0
VERTEX
  5
1E14
  8
0
 10
62.159115494615222
 20
167.67505868333811
 30
0.0
  0
VERTEX
  5
1E15
  8
0
 10
62.434945854798698
 20
167.88406358563751
 30
0.0
  0
VERTEX
  5
1E16
  8
0
 10
62.710963969501059
 20
168.08230668520301
 30
0.0
  0
VERTEX
  5
1E17
  8
0
 10
62.84735560211228
 20
168.1768193384836
 30
0.0
  0
VERTEX
  5
1E18
  8
0
 10
62.981806026843998
 20
168.2679453052329
 30
0.0
  0
VERTEX
  5
1E19
  8
0
 10
63.242477290868351
 20
168.43917148438121
 30
0.0
  0
VERTEX
  5
1E1A
  8
0
 10
63.500665853702387
 20
168.6019773964718
 30
0.0
  0
VERTEX
  5
1E1B
  8
0
 10
63.76271071972738
 20
168.7604156066717
 30
0.0
  0
VERTEX
  5
1E1C
  8
0
 10
64.026761435406115
 20
168.91300685312439
 30
0.0
  0
VERTEX
  5
1E1D
  8
0
 10
64.291049558812531
 20
169.0582839977022
 30
0.0
  0
VERTEX
  5
1E1E
  8
0
 10
64.422754449665604
 20
169.1277268490264
 30
0.0
  0
VERTEX
  5
1E1F
  8
0
 10
64.553894015655317
 20
169.19479974740599
 30
0.0
  0
VERTEX
  5
1E20
  8
0
 10
64.813688910535092
 20
169.32112740526131
 30
0.0
  0
VERTEX
  5
1E21
  8
0
 10
65.068923255628633
 20
169.43588000048251
 30
0.0
  0
VERTEX
  5
1E22
  8
0
 10
65.194412418768167
 20
169.4885069334772
 30
0.0
  0
SEQEND
  5
1E23
  8
0
  0
POLYLINE
  5
B35
  8
0
 66
     1
 10
0.0
 20
0.0
 30
0.0
  0
VERTEX
  5
1E24
  8
0
 10
52.263611873270762
 20
169.4885069334772
 30
0.0
  0
VERTEX
  5
1E25
  8
0
 10
52.389101036410288
 20
169.43588000048251
 30
0.0
  0
VERTEX
  5
1E26
  8
0
 10
52.644335381503822
 20
169.32112740526131
 30
0.0
  0
VERTEX
  5
1E27
  8
0
 10
52.904130276383597
 20
169.19479974740599
 30
0.0
  0
VERTEX
  5
1E28
  8
0
 10
53.035269842373332
 20
169.1277268490264
 30
0.0
  0
VERTEX
  5
1E29
  8
0
 10
53.166974733226382
 20
169.0582839977022
 30
0.0
  0
VERTEX
  5
1E2A
  8
0
 10
53.431262856632813
 20
168.91300685312439
 30
0.0
  0
VERTEX
  5
1E2B
  8
0
 10
53.695313572311527
 20
168.7604156066717
 30
0.0
  0
VERTEX
  5
1E2C
  8
0
 10
53.95735843833652
 20
168.6019773964718
 30
0.0
  0
VERTEX
  5
1E2D
  8
0
 10
54.215547001170563
 20
168.43917148438121
 30
0.0
  0
VERTEX
  5
1E2E
  8
0
 10
54.476218265194902
 20
168.2679453052329
 30
0.0
  0
VERTEX
  5
1E2F
  8
0
 10
54.610668689926641
 20
168.1768193384836
 30
0.0
  0
VERTEX
  5
1E30
  8
0
 10
54.747060322537862
 20
168.08230668520301
 30
0.0
  0
VERTEX
  5
1E31
  8
0
 10
55.023078437240223
 20
167.88406358563751
 30
0.0
  0
VERTEX
  5
1E32
  8
0
 10
55.298908797423671
 20
167.67505868333811
 30
0.0
  0
VERTEX
  5
1E33
  8
0
 10
55.568819317510069
 20
167.45693921249409
 30
0.0
  0
VERTEX
  5
1E34
  8
0
 10
55.826570417140182
 20
167.23090907888809
 30
0.0
  0
VERTEX
  5
1E35
  8
0
 10
55.96855558971302
 20
167.0956226904639
 30
0.0
  0
VERTEX
  5
1E36
  8
0
 10
56.007711589502648
 20
167.05649625485341
 30
0.0
  0
VERTEX
  5
1E37
  8
0
 10
56.046169671867283
 20
167.01715165690331
 30
0.0
  0
VERTEX
  5
1E38
  8
0
 10
56.065124229858441
 20
166.9973956195829
 30
0.0
  0
VERTEX
  5
1E39
  8
0
 10
56.083888765937353
 20
166.9775825673826
 30
0.0
  0
VERTEX
  5
1E3A
  8
0
 10
56.121236956510387
 20
166.93733212359979
 30
0.0
  0
VERTEX
  5
1E3B
  8
0
 10
56.158619392345678
 20
166.89584278072459
 30
0.0
  0
VERTEX
  5
1E3C
  8
0
 10
56.177264307225677
 20
166.87465010575451
 30
0.0
  0
VERTEX
  5
1E3D
  8
0
 10
56.195845935222991
 20
166.85316781276799
 30
0.0
  0
VERTEX
  5
1E3E
  8
0
 10
56.232720956004293
 20
166.8093604980084
 30
0.0
  0
VERTEX
  5
1E3F
  8
0
 10
56.269045771928241
 20
166.76447139278591
 30
0.0
  0
VERTEX
  5
1E40
  8
0
 10
56.28693889626593
 20
166.7416362473729
 30
0.0
  0
VERTEX
  5
1E41
  8
0
 10
56.304618511797671
 20
166.7185484404333
 30
0.0
  0
VERTEX
  5
1E42
  8
0
 10
56.339234004772798
 20
166.67163722148169
 30
0.0
  0
VERTEX
  5
1E43
  8
0
 10
56.372683743266563
 20
166.62378137649799
 30
0.0
  0
VERTEX
  5
1E44
  8
0
 10
56.40475599209686
 20
166.5750232318544
 30
0.0
  0
VERTEX
  5
1E45
  8
0
 10
56.435236144348437
 20
166.52540464834411
 30
0.0
  0
VERTEX
  5
1E46
  8
0
 10
56.463910636269681
 20
166.47496225134651
 30
0.0
  0
VERTEX
  5
1E47
  8
0
 10
56.477505312995042
 20
166.4494404077881
 30
0.0
  0
VERTEX
  5
1E48
  8
0
 10
56.490568044852409
 20
166.4237261187015
 30
0.0
  0
VERTEX
  5
1E49
  8
0
 10
56.514987476297122
 20
166.3717465278371
 30
0.0
  0
VERTEX
  5
1E4A
  8
0
 10
56.536952059101182
 20
166.31907877967171
 30
0.0
  0
VERTEX
  5
1E4B
  8
0
 10
56.556253509711141
 20
166.26578235797649
 30
0.0
  0
VERTEX
  5
1E4C
  8
0
 10
56.572696905012201
 20
166.21191958987981
 30
0.0
  0
VERTEX
  5
1E4D
  8
0
 10
56.586105103454813
 20
166.15755467298791
 30
0.0
  0
VERTEX
  5
1E4E
  8
0
 10
56.591620978059602
 20
166.13020716422841
 30
0.0
  0
VERTEX
  5
1E4F
  8
0
 10
56.596321067440662
 20
166.1027639571098
 30
0.0
  0
VERTEX
  5
1E50
  8
0
 10
56.603214651502107
 20
166.04763738578791
 30
0.0
  0
VERTEX
  5
1E51
  8
0
 10
56.606689964132528
 20
165.99227068198891
 30
0.0
  0
VERTEX
  5
1E52
  8
0
 10
56.60712619243953
 20
165.9645260810311
 30
0.0
  0
SEQEND
  5
1E53
  8
0
  0
POLYLINE
  5
B37
  8
0
 66
     1
 10
0.0
 20
0.0
 30
0.0
  0
VERTEX
  5
1E54
  8
0
 10
63.025784041549848
 20
187.0376061949851
 30
0.0
  0
VERTEX
  5
1E55
  8
0
 10
63.00976481235427
 20
187.04013518526509
 30
0.0
  0
VERTEX
  5
1E56
  8
0
 10
62.977092331844311
 20
187.04375289902009
 30
0.0
  0
VERTEX
  5
1E57
  8
0
 10
62.943650173593817
 20
187.0455190068005
 30
0.0
  0
VERTEX
  5
1E58
  8
0
 10
62.926670688787659
 20
187.0457353883489
 30
0.0
  0
SEQEND
  5
1E59
  8
0
  0
POLYLINE
  5
B38
  8
0
 66
     1
 10
0.0
 20
0.0
 30
0.0
  0
VERTEX
  5
1E5A
  8
0
 10
54.531353603251283
 20
187.0457353883489
 30
0.0
  0
VERTEX
  5
1E5B
  8
0
 10
54.514374118445119
 20
187.0455190068005
 30
0.0
  0
VERTEX
  5
1E5C
  8
0
 10
54.480931960194631
 20
187.04375289902009
 30
0.0
  0
VERTEX
  5
1E5D
  8
0
 10
54.448259479684651
 20
187.04013518526509
 30
0.0
  0
VERTEX
  5
1E5E
  8
0
 10
54.432240250489087
 20
187.0376061949851
 30
0.0
  0
SEQEND
  5
1E5F
  8
0
  0
LINE
  5
B39
  8
0
 10
67.979012146019471
 20
151.26070116281201
 30
0.0
 11
49.479012146019471
 21
151.26070116281201
 31
0.0
  0
POLYLINE
  5
B3B
  8
0
 66
     1
 10
0.0
 20
0.0
 30
0.0
  0
VERTEX
  5
1E60
  8
0
 10
53.859597929095173
 20
171.95029799622691
 30
0.0
  0
VERTEX
  5
1E61
  8
0
 10
53.848391596454817
 20
171.96302900012719
 30
0.0
  0
VERTEX
  5
1E62
  8
0
 10
53.826617738112532
 20
171.9885188872359
 30
0.0
  0
VERTEX
  5
1E63
  8
0
 10
53.805696700801278
 20
172.0140387081054
 30
0.0
  0
VERTEX
  5
1E64
  8
0
 10
53.795556247370847
 20
172.02680713278261
 30
0.0
  0
VERTEX
  5
1E65
  8
0
 10
53.785629229223183
 20
172.039579790967
 30
0.0
  0
VERTEX
  5
1E66
  8
0
 10
53.766415443336832
 20
172.06513348524251
 30
0.0
  0
VERTEX
  5
1E67
  8
0
 10
53.748054890834368
 20
172.09069109685959
 30
0.0
  0
VERTEX
  5
1E68
  8
0
 10
53.690492731216821
 20
172.18004587886
 30
0.0
  0
VERTEX
  5
1E69
  8
0
 10
53.61575596804596
 20
172.33197484589229
 30
0.0
  0
VERTEX
  5
1E6A
  8
0
 10
53.589434769123507
 20
172.40683502445219
 30
0.0
  0
SEQEND
  5
1E6B
  8
0
  0
POLYLINE
  5
B3C
  8
0
 66
     1
 10
0.0
 20
0.0
 30
0.0
  0
VERTEX
  5
1E6C
  8
0
 10
53.589434769123507
 20
172.40683502445219
 30
0.0
  0
VERTEX
  5
1E6D
  8
0
 10
53.58326889649026
 20
172.4278888980655
 30
0.0
  0
VERTEX
  5
1E6E
  8
0
 10
53.572506739967558
 20
172.47023398874211
 30
0.0
  0
VERTEX
  5
1E6F
  8
0
 10
53.563880839512052
 20
172.51286600840859
 30
0.0
  0
VERTEX
  5
1E70
  8
0
 10
53.560384309897593
 20
172.5342784591156
 30
0.0
  0
VERTEX
  5
1E71
  8
0
 10
53.557439707064887
 20
172.5557492219861
 30
0.0
  0
VERTEX
  5
1E72
  8
0
 10
53.553227629556787
 20
172.59884769231061
 30
0.0
  0
VERTEX
  5
1E73
  8
0
 10
53.551284647019131
 20
172.64212543455429
 30
0.0
  0
VERTEX
  5
1E74
  8
0
 10
53.55164656674706
 20
172.68554656874261
 30
0.0
  0
VERTEX
  5
1E75
  8
0
 10
53.554345013622211
 20
172.72907547103509
 30
0.0
  0
VERTEX
  5
1E76
  8
0
 10
53.559407517210531
 20
172.77267692428779
 30
0.0
  0
VERTEX
  5
1E77
  8
0
 10
53.562832803397562
 20
172.79449400034019
 30
0.0
  0
VERTEX
  5
1E78
  8
0
 10
53.5668576367054
 20
172.8163162682545
 30
0.0
  0
VERTEX
  5
1E79
  8
0
 10
53.576715118628528
 20
172.85995952374699
 30
0.0
  0
VERTEX
  5
1E7A
  8
0
 10
53.588995958387493
 20
172.90357310136719
 30
0.0
  0
VERTEX
  5
1E7B
  8
0
 10
53.603712297328101
 20
172.9471233528362
 30
0.0
  0
VERTEX
  5
1E7C
  8
0
 10
53.620872373701971
 20
172.9905766384864
 30
0.0
  0
VERTEX
  5
1E7D
  8
0
 10
53.64048051815027
 20
173.0338994702403
 30
0.0
  0
VERTEX
  5
1E7E
  8
0
 10
53.651202907071919
 20
173.05550157667071
 30
0.0
  0
VERTEX
  5
1E7F
  8
0
 10
53.662537182200531
 20
173.07705865086851
 30
0.0
  0
VERTEX
  5
1E80
  8
0
 10
53.687039000125068
 20
173.1200214100385
 30
0.0
  0
VERTEX
  5
1E81
  8
0
 10
53.713978884908073
 20
173.16275553759061
 30
0.0
  0
VERTEX
  5
1E82
  8
0
 10
53.728359901680747
 20
173.18402698425501
 30
0.0
  0
SEQEND
  5
1E83
  8
0
  0
POLYLINE
  5
B3D
  8
0
 66
     1
 10
0.0
 20
0.0
 30
0.0
  0
VERTEX
  5
1E84
  8
0
 10
63.729687197469282
 20
173.18399399679021
 30
0.0
  0
VERTEX
  5
1E85
  8
0
 10
63.74406666544445
 20
173.16272336528539
 30
0.0
  0
VERTEX
  5
1E86
  8
0
 10
63.771003603208001
 20
173.11999090208911
 30
0.0
  0
VERTEX
  5
1E87
  8
0
 10
63.795502678128351
 20
173.077029849697
 30
0.0
  0
VERTEX
  5
1E88
  8
0
 10
63.80683565935815
 20
173.0554736436365
 30
0.0
  0
VERTEX
  5
1E89
  8
0
 10
63.817556806633
 20
173.03387241453291
 30
0.0
  0
VERTEX
  5
1E8A
  8
0
 10
63.837162625871748
 20
172.9905513630091
 30
0.0
  0
VERTEX
  5
1E8B
  8
0
 10
63.854320589640643
 20
172.94709988827651
 30
0.0
  0
VERTEX
  5
1E8C
  8
0
 10
63.86903503020654
 20
172.90355147420411
 30
0.0
  0
VERTEX
  5
1E8D
  8
0
 10
63.881314186779392
 20
172.8599397561488
 30
0.0
  0
VERTEX
  5
1E8E
  8
0
 10
63.891170200979843
 20
172.8162983780056
 30
0.0
  0
VERTEX
  5
1E8F
  8
0
 10
63.895194381118998
 20
172.79447705407111
 30
0.0
  0
VERTEX
  5
1E90
  8
0
 10
63.898619067785951
 20
172.7726609248474
 30
0.0
  0
VERTEX
  5
1E91
  8
0
 10
63.903680532615702
 20
172.7290613717185
 30
0.0
  0
VERTEX
  5
1E92
  8
0
 10
63.906378152955661
 20
172.68553437459821
 30
0.0
  0
VERTEX
  5
1E93
  8
0
 10
63.90673945602699
 20
172.64211514622011
 30
0.0
  0
VERTEX
  5
1E94
  8
0
 10
63.904796063690057
 20
172.5988393059005
 30
0.0
  0
VERTEX
  5
1E95
  8
0
 10
63.900583779513681
 20
172.5557427290108
 30
0.0
  0
VERTEX
  5
1E96
  8
0
 10
63.89763914815903
 20
172.53427290822171
 30
0.0
  0
VERTEX
  5
1E97
  8
0
 10
63.894142639079412
 20
172.5128613957277
 30
0.0
  0
VERTEX
  5
1E98
  8
0
 10
63.885516924134897
 20
172.4702312385497
 30
0.0
  0
VERTEX
  5
1E99
  8
0
 10
63.874755140705567
 20
172.42788798790761
 30
0.0
  0
VERTEX
  5
1E9A
  8
0
 10
63.868589522915428
 20
172.40683502445231
 30
0.0
  0
SEQEND
  5
1E9B
  8
0
  0
POLYLINE
  5
B3E
  8
0
 66
     1
 10
0.0
 20
0.0
 30
0.0
  0
VERTEX
  5
1E9C
  8
0
 10
63.868589522915428
 20
172.40683502445231
 30
0.0
  0
VERTEX
  5
1E9D
  8
0
 10
63.842246626694099
 20
172.33192027854821
 30
0.0
  0
VERTEX
  5
1E9E
  8
0
 10
63.802269344179848
 20
172.24353960794269
 30
0.0
  0
VERTEX
  5
1E9F
  8
0
 10
63.78898356392574
 20
172.21814411316751
 30
0.0
  0
VERTEX
  5
1EA0
  8
0
 10
63.77486048392722
 20
172.19270101822889
 30
0.0
  0
VERTEX
  5
1EA1
  8
0
 10
63.767483718326737
 20
172.1799644014975
 30
0.0
  0
VERTEX
  5
1EA2
  8
0
 10
63.759896218642098
 20
172.16721921820951
 30
0.0
  0
VERTEX
  5
1EA3
  8
0
 10
63.744087492118389
 20
172.1417075764958
 30
0.0
  0
VERTEX
  5
1EA4
  8
0
 10
63.72743162406875
 20
172.11617491176111
 30
0.0
  0
VERTEX
  5
1EA5
  8
0
 10
63.709926513830482
 20
172.09062998489429
 30
0.0
  0
VERTEX
  5
1EA6
  8
0
 10
63.691570622150977
 20
172.065081485864
 30
0.0
  0
VERTEX
  5
1EA7
  8
0
 10
63.67236295073085
 20
172.03953802051231
 30
0.0
  0
VERTEX
  5
1EA8
  8
0
 10
63.662439528013543
 20
172.02677083852541
 30
0.0
  0
VERTEX
  5
1EA9
  8
0
 10
63.652303020461247
 20
172.01400809853519
 30
0.0
  0
VERTEX
  5
1EAA
  8
0
 10
63.631390883426732
 20
171.98850016428841
 30
0.0
  0
VERTEX
  5
1EAB
  8
0
 10
63.609627183101999
 20
171.9630226751608
 30
0.0
  0
VERTEX
  5
1EAC
  8
0
 10
63.598426362857502
 20
171.9502979961299
 30
0.0
  0
SEQEND
  5
1EAD
  8
0
  0
POLYLINE
  5
B3F
  8
0
 66
     1
 10
0.0
 20
0.0
 30
0.0
  0
VERTEX
  5
1EAE
  8
0
 10
64.559817109751293
 20
181.98486966626231
 30
0.0
  0
VERTEX
  5
1EAF
  8
0
 10
64.381568042593528
 20
183.08876928772889
 30
0.0
  0
VERTEX
  5
1EB0
  8
0
 10
64.022511844833474
 20
184.94867105150959
 30
0.0
  0
VERTEX
  5
1EB1
  8
0
 10
63.660701936105248
 20
186.34141609334159
 30
0.0
  0
VERTEX
  5
1EB2
  8
0
 10
63.479012146019471
 20
186.86160999450229
 30
0.0
  0
SEQEND
  5
1EB3
  8
0
  0
POLYLINE
  5
B40
  8
0
 66
     1
 10
0.0
 20
0.0
 30
0.0
  0
VERTEX
  5
1EB4
  8
0
 10
64.355180650339733
 20
181.4755040578695
 30
0.0
  0
VERTEX
  5
1EB5
  8
0
 10
64.366871035765996
 20
181.4880292391598
 30
0.0
  0
VERTEX
  5
1EB6
  8
0
 10
64.38923168450961
 20
181.5130643380916
 30
0.0
  0
VERTEX
  5
1EB7
  8
0
 10
64.410232316700899
 20
181.53807244354661
 30
0.0
  0
VERTEX
  5
1EB8
  8
0
 10
64.420222896709092
 20
181.55056389471261
 30
0.0
  0
VERTEX
  5
1EB9
  8
0
 10
64.429873937712941
 20
181.56304566379291
 30
0.0
  0
VERTEX
  5
1EBA
  8
0
 10
64.448158548540974
 20
181.587976281094
 30
0.0
  0
VERTEX
  5
1EBB
  8
0
 10
64.465088947835824
 20
181.6128565020737
 30
0.0
  0
VERTEX
  5
1EBC
  8
0
 10
64.480668783759427
 20
181.6376784898186
 30
0.0
  0
VERTEX
  5
1EBD
  8
0
 10
64.49490258835776
 20
181.66243438100881
 30
0.0
  0
VERTEX
  5
1EBE
  8
0
 10
64.507795806175594
 20
181.68711630047471
 30
0.0
  0
VERTEX
  5
1EBF
  8
0
 10
64.513741652170523
 20
181.6994270601202
 30
0.0
  0
VERTEX
  5
1EC0
  8
0
 10
64.519354819130953
 20
181.711716375566
 30
0.0
  0
VERTEX
  5
1EC1
  8
0
 10
64.529586967715034
 20
181.7362267503382
 30
0.0
  0
VERTEX
  5
1EC2
  8
0
 10
64.538500568573966
 20
181.76063959956039
 30
0.0
  0
VERTEX
  5
1EC3
  8
0
 10
64.546104928516542
 20
181.7849471425568
 30
0.0
  0
VERTEX
  5
1EC4
  8
0
 10
64.552410354979202
 20
181.8091416568964
 30
0.0
  0
VERTEX
  5
1EC5
  8
0
 10
64.557428162966133
 20
181.83321549195341
 30
0.0
  0
VERTEX
  5
1EC6
  8
0
 10
64.559458022390274
 20
181.84520478687611
 30
0.0
  0
VERTEX
  5
1EC7
  8
0
 10
64.561170678466937
 20
181.85716108235641
 30
0.0
  0
VERTEX
  5
1EC8
  8
0
 10
64.563651238338423
 20
181.88097096135809
 30
0.0
  0
VERTEX
  5
1EC9
  8
0
 10
64.564884186619992
 20
181.90463777415391
 30
0.0
  0
VERTEX
  5
1ECA
  8
0
 10
64.565037562607145
 20
181.91641526623101
 30
0.0
  0
SEQEND
  5
1ECB
  8
0
  0
POLYLINE
  5
B41
  8
0
 66
     1
 10
0.0
 20
0.0
 30
0.0
  0
VERTEX
  5
1ECC
  8
0
 10
64.565037562607145
 20
181.91641526623101
 30
0.0
  0
VERTEX
  5
1ECD
  8
0
 10
64.564894108450147
 20
181.92779370742721
 30
0.0
  0
VERTEX
  5
1ECE
  8
0
 10
64.563740736851827
 20
181.95059030069569
 30
0.0
  0
VERTEX
  5
1ECF
  8
0
 10
64.561419803436181
 20
181.97343325724879
 30
0.0
  0
VERTEX
  5
1ED0
  8
0
 10
64.559817109751293
 20
181.9848696662624
 30
0.0
  0
SEQEND
  5
1ED1
  8
0
  0
POLYLINE
  5
B42
  8
0
 66
     1
 10
0.0
 20
0.0
 30
0.0
  0
VERTEX
  5
1ED2
  8
0
 10
65.317882368847492
 20
175.00285131278059
 30
0.0
  0
VERTEX
  5
1ED3
  8
0
 10
65.20875228372708
 20
175.1231103637304
 30
0.0
  0
VERTEX
  5
1ED4
  8
0
 10
65.000300781434134
 20
175.36179691056211
 30
0.0
  0
VERTEX
  5
1ED5
  8
0
 10
64.804908972070933
 20
175.5978567896787
 30
0.0
  0
VERTEX
  5
1ED6
  8
0
 10
64.712096589961504
 20
175.7148340047035
 30
0.0
  0
VERTEX
  5
1ED7
  8
0
 10
64.622528802792203
 20
175.83107409058059
 30
0.0
  0
VERTEX
  5
1ED8
  8
0
 10
64.45308302544889
 20
176.06123884278711
 30
0.0
  0
VERTEX
  5
1ED9
  8
0
 10
64.29646527641053
 20
176.2881466193133
 30
0.0
  0
VERTEX
  5
1EDA
  8
0
 10
64.152539204496961
 20
176.51159942207971
 30
0.0
  0
VERTEX
  5
1EDB
  8
0
 10
64.019831914493281
 20
176.73368052684279
 30
0.0
  0
VERTEX
  5
1EDC
  8
0
 10
63.8973229827605
 20
176.9563804653551
 30
0.0
  0
VERTEX
  5
1EDD
  8
0
 10
63.840041223661643
 20
177.06787248385211
 30
0.0
  0
VERTEX
  5
1EDE
  8
0
 10
63.785483167440482
 20
177.17941169092629
 30
0.0
  0
VERTEX
  5
1EDF
  8
0
 10
63.684751931729181
 20
177.40249098387901
 30
0.0
  0
VERTEX
  5
1EE0
  8
0
 10
63.59553651718543
 20
177.62534062839401
 30
0.0
  0
VERTEX
  5
1EE1
  8
0
 10
63.518211245681321
 20
177.84768955890721
 30
0.0
  0
VERTEX
  5
1EE2
  8
0
 10
63.453117058608143
 20
178.06927447931471
 30
0.0
  0
VERTEX
  5
1EE3
  8
0
 10
63.400561307010861
 20
178.28984095700309
 30
0.0
  0
VERTEX
  5
1EE4
  8
0
 10
63.379072174622671
 20
178.3996656832216
 30
0.0
  0
VERTEX
  5
1EE5
  8
0
 10
63.36081770679948
 20
178.50914517843631
 30
0.0
  0
VERTEX
  5
1EE6
  8
0
 10
63.334127331295718
 20
178.7269502816668
 30
0.0
  0
VERTEX
  5
1EE7
  8
0
 10
63.320698139360459
 20
178.94302487960309
 30
0.0
  0
VERTEX
  5
1EE8
  8
0
 10
63.31901214601946
 20
179.05034330216711
 30
0.0
  0
SEQEND
  5
1EE9
  8
0
  0
POLYLINE
  5
B43
  8
0
 66
     1
 10
0.0
 20
0.0
 30
0.0
  0
VERTEX
  5
1EEA
  8
0
 10
63.31901214601946
 20
179.05034330216711
 30
0.0
  0
VERTEX
  5
1EEB
  8
0
 10
63.319803826548473
 20
179.1234799937358
 30
0.0
  0
VERTEX
  5
1EEC
  8
0
 10
63.326152622983102
 20
179.26899578066039
 30
0.0
  0
VERTEX
  5
1EED
  8
0
 10
63.33888553129146
 20
179.41344660515921
 30
0.0
  0
VERTEX
  5
1EEE
  8
0
 10
63.347655578793713
 20
179.48525253404279
 30
0.0
  0
VERTEX
  5
1EEF
  8
0
 10
63.358032164496088
 20
179.5567683147049
 30
0.0
  0
VERTEX
  5
1EF0
  8
0
 10
63.383614510159802
 20
179.69889871335889
 30
0.0
  0
VERTEX
  5
1EF1
  8
0
 10
63.415646896112086
 20
179.8397776988817
 30
0.0
  0
VERTEX
  5
1EF2
  8
0
 10
63.454135985622578
 20
179.97934739274811
 30
0.0
  0
VERTEX
  5
1EF3
  8
0
 10
63.499082933207418
 20
180.11755834384681
 30
0.0
  0
VERTEX
  5
1EF4
  8
0
 10
63.550486707575821
 20
180.25437391353839
 30
0.0
  0
VERTEX
  5
1EF5
  8
0
 10
63.578606234197508
 20
180.3222424386455
 30
0.0
  0
VERTEX
  5
1EF6
  8
0
 10
63.608334519379987
 20
180.3897429785651
 30
0.0
  0
VERTEX
  5
1EF7
  8
0
 10
63.672605414797509
 20
180.5236154743771
 30
0.0
  0
VERTEX
  5
1EF8
  8
0
 10
63.743270587254997
 20
180.65594354720099
 30
0.0
  0
VERTEX
  5
1EF9
  8
0
 10
63.820293410125821
 20
180.7866816630785
 30
0.0
  0
VERTEX
  5
1EFA
  8
0
 10
63.903629506863261
 20
180.91578671583591
 30
0.0
  0
VERTEX
  5
1EFB
  8
0
 10
63.993226669099379
 20
181.0432178701501
 30
0.0
  0
VERTEX
  5
1EFC
  8
0
 10
64.040354635441645
 20
181.10629352160191
 30
0.0
  0
VERTEX
  5
1EFD
  8
0
 10
64.089024648162223
 20
181.168936305655
 30
0.0
  0
VERTEX
  5
1EFE
  8
0
 10
64.190955184688136
 20
181.29290534225359
 30
0.0
  0
VERTEX
  5
1EFF
  8
0
 10
64.298942060172678
 20
181.41509053502841
 30
0.0
  0
VERTEX
  5
1F00
  8
0
 10
64.355180650339719
 20
181.4755040578695
 30
0.0
  0
SEQEND
  5
1F01
  8
0
  0
POLYLINE
  5
B44
  8
0
 66
     1
 10
0.0
 20
0.0
 30
0.0
  0
VERTEX
  5
1F02
  8
0
 10
65.19441241876811
 20
169.4885069334774
 30
0.0
  0
VERTEX
  5
1F03
  8
0
 10
65.35666421373368
 20
169.55633032615131
 30
0.0
  0
VERTEX
  5
1F04
  8
0
 10
65.667478360588575
 20
169.69527160595291
 30
0.0
  0
VERTEX
  5
1F05
  8
0
 10
65.959309149154564
 20
169.8378236604504
 30
0.0
  0
VERTEX
  5
1F06
  8
0
 10
66.097870201743476
 20
169.91014566470571
 30
0.0
  0
VERTEX
  5
1F07
  8
0
 10
66.231425197445105
 20
169.9829935041254
 30
0.0
  0
VERTEX
  5
1F08
  8
0
 10
66.483285947391465
 20
170.12973650662141
 30
0.0
  0
VERTEX
  5
1F09
  8
0
 10
66.717663557522059
 20
170.27903526670781
 30
0.0
  0
VERTEX
  5
1F0A
  8
0
 10
66.939214075276482
 20
170.43386137218539
 30
0.0
  0
VERTEX
  5
1F0B
  8
0
 10
67.146532279493982
 20
170.59369032141319
 30
0.0
  0
VERTEX
  5
1F0C
  8
0
 10
67.33826178079056
 20
170.75788620259021
 30
0.0
  0
VERTEX
  5
1F0D
  8
0
 10
67.427908323562548
 20
170.8414183280438
 30
0.0
  0
VERTEX
  5
1F0E
  8
0
 10
67.513234064784228
 20
170.9257970019614
 30
0.0
  0
VERTEX
  5
1F0F
  8
0
 10
67.670457525530352
 20
171.0967555073054
 30
0.0
  0
VERTEX
  5
1F10
  8
0
 10
67.809103098091796
 20
171.2700697251008
 30
0.0
  0
VERTEX
  5
1F11
  8
0
 10
67.928514422421188
 20
171.44503465052151
 30
0.0
  0
VERTEX
  5
1F12
  8
0
 10
68.028229423228765
 20
171.6209748736853
 30
0.0
  0
VERTEX
  5
1F13
  8
0
 10
68.107965853699852
 20
171.79726002524151
 30
0.0
  0
VERTEX
  5
1F14
  8
0
 10
68.140284915228179
 20
171.88531226469121
 30
0.0
  0
VERTEX
  5
1F15
  8
0
 10
68.167562485007394
 20
171.97318605138111
 30
0.0
  0
VERTEX
  5
1F16
  8
0
 10
68.207036272531354
 20
172.1480468206274
 30
0.0
  0
VERTEX
  5
1F17
  8
0
 10
68.226590482962081
 20
172.32115177388761
 30
0.0
  0
VERTEX
  5
1F18
  8
0
 10
68.229012146019471
 20
172.40683502445231
 30
0.0
  0
SEQEND
  5
1F19
  8
0
  0
POLYLINE
  5
B45
  8
0
 66
     1
 10
0.0
 20
0.0
 30
0.0
  0
VERTEX
  5
1F1A
  8
0
 10
68.229012146019471
 20
172.40683502445231
 30
0.0
  0
VERTEX
  5
1F1B
  8
0
 10
68.22674936954013
 20
172.48940720468281
 30
0.0
  0
VERTEX
  5
1F1C
  8
0
 10
68.208879349473492
 20
172.6522864286637
 30
0.0
  0
VERTEX
  5
1F1D
  8
0
 10
68.17382650295653
 20
172.81164271219359
 30
0.0
  0
VERTEX
  5
1F1E
  8
0
 10
68.150123543990262
 20
172.88982858332739
 30
0.0
  0
VERTEX
  5
1F1F
  8
0
 10
68.122125799132021
 20
172.9678100512636
 30
0.0
  0
VERTEX
  5
1F20
  8
0
 10
68.052429150008663
 20
173.1244336358908
 30
0.0
  0
VERTEX
  5
1F21
  8
0
 10
67.963988907163497
 20
173.2812999858516
 30
0.0
  0
VERTEX
  5
1F22
  8
0
 10
67.856403800180615
 20
173.43766423733351
 30
0.0
  0
VERTEX
  5
1F23
  8
0
 10
67.729456822376562
 20
173.5928175218346
 30
0.0
  0
VERTEX
  5
1F24
  8
0
 10
67.583105996065981
 20
173.74609130082891
 30
0.0
  0
VERTEX
  5
1F25
  8
0
 10
67.502691439977966
 20
173.82182160169111
 30
0.0
  0
VERTEX
  5
1F26
  8
0
 10
67.417494092955039
 20
173.8968432219996
 30
0.0
  0
VERTEX
  5
1F27
  8
0
 10
67.232947925724446
 20
174.04446135573531
 30
0.0
  0
VERTEX
  5
1F28
  8
0
 10
67.029952799273204
 20
174.18838412140451
 30
0.0
  0
VERTEX
  5
1F29
  8
0
 10
66.809052684268849
 20
174.32815380280101
 30
0.0
  0
VERTEX
  5
1F2A
  8
0
 10
66.571025593338121
 20
174.4632894628246
 30
0.0
  0
VERTEX
  5
1F2B
  8
0
 10
66.316850264404636
 20
174.59333029238741
 30
0.0
  0
VERTEX
  5
1F2C
  8
0
 10
66.184057332480961
 20
174.65630905340419
 30
0.0
  0
VERTEX
  5
1F2D
  8
0
 10
66.047664977807855
 20
174.71786400779229
 30
0.0
  0
VERTEX
  5
1F2E
  8
0
 10
65.764750688937823
 20
174.83653277043021
 30
0.0
  0
VERTEX
  5
1F2F
  8
0
 10
65.469569577360673
 20
174.94901637647021
 30
0.0
  0
VERTEX
  5
1F30
  8
0
 10
65.317882368847464
 20
175.00285131278051
 30
0.0
  0
SEQEND
  5
1F31
  8
0
  0
POLYLINE
  5
B47
  8
0
 66
     1
 10
0.0
 20
0.0
 30
0.0
  0
VERTEX
  5
1F32
  8
0
 10
52.140141923191457
 20
175.00285131278059
 30
0.0
  0
VERTEX
  5
1F33
  8
0
 10
51.988454714678262
 20
174.94901637647021
 30
0.0
  0
VERTEX
  5
1F34
  8
0
 10
51.69327360310114
 20
174.83653277043021
 30
0.0
  0
VERTEX
  5
1F35
  8
0
 10
51.410359314231073
 20
174.71786400779229
 30
0.0
  0
VERTEX
  5
1F36
  8
0
 10
51.273966959557967
 20
174.6563090534043
 30
0.0
  0
VERTEX
  5
1F37
  8
0
 10
51.141174027634293
 20
174.59333029238729
 30
0.0
  0
VERTEX
  5
1F38
  8
0
 10
50.886998698700801
 20
174.4632894628248
 30
0.0
  0
VERTEX
  5
1F39
  8
0
 10
50.648971607770036
 20
174.32815380280101
 30
0.0
  0
VERTEX
  5
1F3A
  8
0
 10
50.428071492765731
 20
174.18838412140451
 30
0.0
  0
VERTEX
  5
1F3B
  8
0
 10
50.225076366314482
 20
174.04446135573531
 30
0.0
  0
VERTEX
  5
1F3C
  8
0
 10
50.040530199083889
 20
173.8968432219996
 30
0.0
  0
VERTEX
  5
1F3D
  8
0
 10
49.955332852060963
 20
173.82182160169111
 30
0.0
  0
VERTEX
  5
1F3E
  8
0
 10
49.874918295972961
 20
173.74609130082891
 30
0.0
  0
VERTEX
  5
1F3F
  8
0
 10
49.728567469662359
 20
173.5928175218346
 30
0.0
  0
VERTEX
  5
1F40
  8
0
 10
49.601620491858313
 20
173.43766423733359
 30
0.0
  0
VERTEX
  5
1F41
  8
0
 10
49.494035384875431
 20
173.2812999858516
 30
0.0
  0
VERTEX
  5
1F42
  8
0
 10
49.405595142030251
 20
173.1244336358908
 30
0.0
  0
VERTEX
  5
1F43
  8
0
 10
49.335898492906892
 20
172.9678100512636
 30
0.0
  0
VERTEX
  5
1F44
  8
0
 10
49.307900748048638
 20
172.88982858332739
 30
0.0
  0
VERTEX
  5
1F45
  8
0
 10
49.284197789082391
 20
172.81164271219359
 30
0.0
  0
VERTEX
  5
1F46
  8
0
 10
49.249144942565437
 20
172.6522864286637
 30
0.0
  0
VERTEX
  5
1F47
  8
0
 10
49.231274922498791
 20
172.48940720468281
 30
0.0
  0
VERTEX
  5
1F48
  8
0
 10
49.229012146019457
 20
172.40683502445231
 30
0.0
  0
SEQEND
  5
1F49
  8
0
  0
POLYLINE
  5
B48
  8
0
 66
     1
 10
0.0
 20
0.0
 30
0.0
  0
VERTEX
  5
1F4A
  8
0
 10
49.229012146019457
 20
172.40683502445231
 30
0.0
  0
VERTEX
  5
1F4B
  8
0
 10
49.231433809076819
 20
172.32115177388761
 30
0.0
  0
VERTEX
  5
1F4C
  8
0
 10
49.250988019507588
 20
172.1480468206274
 30
0.0
  0
VERTEX
  5
1F4D
  8
0
 10
49.290461807031527
 20
171.97318605138111
 30
0.0
  0
VERTEX
  5
1F4E
  8
0
 10
49.317739376810721
 20
171.88531226469121
 30
0.0
  0
VERTEX
  5
1F4F
  8
0
 10
49.350058438339062
 20
171.79726002524151
 30
0.0
  0
VERTEX
  5
1F50
  8
0
 10
49.429794868810149
 20
171.6209748736853
 30
0.0
  0
VERTEX
  5
1F51
  8
0
 10
49.529509869617733
 20
171.44503465052151
 30
0.0
  0
VERTEX
  5
1F52
  8
0
 10
49.648921193947132
 20
171.2700697251008
 30
0.0
  0
VERTEX
  5
1F53
  8
0
 10
49.787566766508561
 20
171.0967555073054
 30
0.0
  0
VERTEX
  5
1F54
  8
0
 10
49.944790227254671
 20
170.92579700196131
 30
0.0
  0
VERTEX
  5
1F55
  8
0
 10
50.030115968476359
 20
170.8414183280438
 30
0.0
  0
VERTEX
  5
1F56
  8
0
 10
50.119762511248339
 20
170.75788620259021
 30
0.0
  0
VERTEX
  5
1F57
  8
0
 10
50.311492012544939
 20
170.59369032141319
 30
0.0
  0
VERTEX
  5
1F58
  8
0
 10
50.518810216762418
 20
170.43386137218539
 30
0.0
  0
VERTEX
  5
1F59
  8
0
 10
50.740360734516862
 20
170.27903526670781
 30
0.0
  0
VERTEX
  5
1F5A
  8
0
 10
50.974738344647463
 20
170.12973650662141
 30
0.0
  0
VERTEX
  5
1F5B
  8
0
 10
51.226599094593809
 20
169.9829935041254
 30
0.0
  0
VERTEX
  5
1F5C
  8
0
 10
51.36015409029546
 20
169.91014566470571
 30
0.0
  0
VERTEX
  5
1F5D
  8
0
 10
51.498715142884379
 20
169.8378236604504
 30
0.0
  0
VERTEX
  5
1F5E
  8
0
 10
51.790545931450353
 20
169.69527160595291
 30
0.0
  0
VERTEX
  5
1F5F
  8
0
 10
52.101360078305241
 20
169.55633032615131
 30
0.0
  0
VERTEX
  5
1F60
  8
0
 10
52.263611873270818
 20
169.4885069334774
 30
0.0
  0
SEQEND
  5
1F61
  8
0
  0
POLYLINE
  5
B49
  8
0
 66
     1
 10
0.0
 20
0.0
 30
0.0
  0
VERTEX
  5
1F62
  8
0
 10
53.102843695949829
 20
181.47550400056849
 30
0.0
  0
VERTEX
  5
1F63
  8
0
 10
53.15908228323292
 20
181.41509047889721
 30
0.0
  0
VERTEX
  5
1F64
  8
0
 10
53.26706915315718
 20
181.2929052885444
 30
0.0
  0
VERTEX
  5
1F65
  8
0
 10
53.368999684408152
 20
181.16893625447651
 30
0.0
  0
VERTEX
  5
1F66
  8
0
 10
53.417669694601237
 20
181.10629347172909
 30
0.0
  0
VERTEX
  5
1F67
  8
0
 10
53.464797658490809
 20
181.0432178216096
 30
0.0
  0
VERTEX
  5
1F68
  8
0
 10
53.554394816050021
 20
180.9157866700383
 30
0.0
  0
VERTEX
  5
1F69
  8
0
 10
53.637730908421617
 20
180.7866816201265
 30
0.0
  0
VERTEX
  5
1F6A
  8
0
 10
53.714753727244549
 20
180.65594350719499
 30
0.0
  0
VERTEX
  5
1F6B
  8
0
 10
53.78541889597804
 20
180.52361543741441
 30
0.0
  0
VERTEX
  5
1F6C
  8
0
 10
53.84968978800066
 20
180.3897429447405
 30
0.0
  0
VERTEX
  5
1F6D
  8
0
 10
53.879418071610502
 20
180.32224240642461
 30
0.0
  0
VERTEX
  5
1F6E
  8
0
 10
53.907537596743381
 20
180.2543738829435
 30
0.0
  0
VERTEX
  5
1F6F
  8
0
 10
53.958941368387343
 20
180.1175583165695
 30
0.0
  0
VERTEX
  5
1F70
  8
0
 10
54.003888313587758
 20
179.9793473688714
 30
0.0
  0
VERTEX
  5
1F71
  8
0
 10
54.042377401055688
 20
179.8397776784839
 30
0.0
  0
VERTEX
  5
1F72
  8
0
 10
54.074409785307289
 20
179.69889869651729
 30
0.0
  0
VERTEX
  5
1F73
  8
0
 10
54.099992129612701
 20
179.55676830149281
 30
0.0
  0
VERTEX
  5
1F74
  8
0
 10
54.110368714764277
 20
179.4852525226714
 30
0.0
  0
VERTEX
  5
1F75
  8
0
 10
54.119138761801082
 20
179.4134465956453
 30
0.0
  0
VERTEX
  5
1F76
  8
0
 10
54.13187166943414
 20
179.2689957749084
 30
0.0
  0
VERTEX
  5
1F77
  8
0
 10
54.138220465532399
 20
179.1234799918048
 30
0.0
  0
VERTEX
  5
1F78
  8
0
 10
54.139012146019489
 20
179.05034330216699
 30
0.0
  0
SEQEND
  5
1F79
  8
0
  0
POLYLINE
  5
B4A
  8
0
 66
     1
 10
0.0
 20
0.0
 30
0.0
  0
VERTEX
  5
1F7A
  8
0
 10
54.139012146019489
 20
179.05034330216699
 30
0.0
  0
VERTEX
  5
1F7B
  8
0
 10
54.137326152678497
 20
178.943024879603
 30
0.0
  0
VERTEX
  5
1F7C
  8
0
 10
54.123896960743238
 20
178.7269502816668
 30
0.0
  0
VERTEX
  5
1F7D
  8
0
 10
54.097206585239498
 20
178.5091451784362
 30
0.0
  0
VERTEX
  5
1F7E
  8
0
 10
54.078952117416279
 20
178.3996656832216
 30
0.0
  0
VERTEX
  5
1F7F
  8
0
 10
54.057462985028089
 20
178.28984095700309
 30
0.0
  0
VERTEX
  5
1F80
  8
0
 10
54.004907233430821
 20
178.06927447931471
 30
0.0
  0
VERTEX
  5
1F81
  8
0
 10
53.939813046357642
 20
177.84768955890709
 30
0.0
  0
VERTEX
  5
1F82
  8
0
 10
53.862487774853527
 20
177.62534062839401
 30
0.0
  0
VERTEX
  5
1F83
  8
0
 10
53.773272360309782
 20
177.40249098387901
 30
0.0
  0
VERTEX
  5
1F84
  8
0
 10
53.672541124598503
 20
177.17941169092629
 30
0.0
  0
VERTEX
  5
1F85
  8
0
 10
53.617983068377342
 20
177.06787248385211
 30
0.0
  0
VERTEX
  5
1F86
  8
0
 10
53.560701309278478
 20
176.9563804653551
 30
0.0
  0
VERTEX
  5
1F87
  8
0
 10
53.438192377545718
 20
176.73368052684279
 30
0.0
  0
VERTEX
  5
1F88
  8
0
 10
53.30548508754201
 20
176.51159942207971
 30
0.0
  0
VERTEX
  5
1F89
  8
0
 10
53.161559015628477
 20
176.2881466193133
 30
0.0
  0
VERTEX
  5
1F8A
  8
0
 10
53.004941266590087
 20
176.06123884278711
 30
0.0
  0
VERTEX
  5
1F8B
  8
0
 10
52.835495489246782
 20
175.83107409058059
 30
0.0
  0
VERTEX
  5
1F8C
  8
0
 10
52.745927702077473
 20
175.71483400470339
 30
0.0
  0
VERTEX
  5
1F8D
  8
0
 10
52.65311531996808
 20
175.5978567896787
 30
0.0
  0
VERTEX
  5
1F8E
  8
0
 10
52.457723510604872
 20
175.36179691056211
 30
0.0
  0
VERTEX
  5
1F8F
  8
0
 10
52.249272008311941
 20
175.1231103637304
 30
0.0
  0
VERTEX
  5
1F90
  8
0
 10
52.140141923191521
 20
175.00285131278059
 30
0.0
  0
SEQEND
  5
1F91
  8
0
  0
POLYLINE
  5
B4B
  8
0
 66
     1
 10
0.0
 20
0.0
 30
0.0
  0
VERTEX
  5
1F92
  8
0
 10
52.898207182287649
 20
181.9848696662624
 30
0.0
  0
VERTEX
  5
1F93
  8
0
 10
52.896604488603153
 20
181.97343325725171
 30
0.0
  0
VERTEX
  5
1F94
  8
0
 10
52.894283555187791
 20
181.95059030070439
 30
0.0
  0
VERTEX
  5
1F95
  8
0
 10
52.893130183589172
 20
181.92779370744151
 30
0.0
  0
VERTEX
  5
1F96
  8
0
 10
52.892986729431811
 20
181.91641526624821
 30
0.0
  0
SEQEND
  5
1F97
  8
0
  0
POLYLINE
  5
B4C
  8
0
 66
     1
 10
0.0
 20
0.0
 30
0.0
  0
VERTEX
  5
1F98
  8
0
 10
52.892986729431811
 20
181.91641526624821
 30
0.0
  0
VERTEX
  5
1F99
  8
0
 10
52.893139981395521
 20
181.90464253934681
 30
0.0
  0
VERTEX
  5
1F9A
  8
0
 10
52.89437202539979
 20
181.88098412869371
 30
0.0
  0
VERTEX
  5
1F9B
  8
0
 10
52.896850993313429
 20
181.85718120940291
 30
0.0
  0
VERTEX
  5
1F9C
  8
0
 10
52.898562662113392
 20
181.84522787626901
 30
0.0
  0
VERTEX
  5
1F9D
  8
0
 10
52.90059144027812
 20
181.83324121126381
 30
0.0
  0
VERTEX
  5
1F9E
  8
0
 10
52.905606898528688
 20
181.8091716767145
 30
0.0
  0
VERTEX
  5
1F9F
  8
0
 10
52.91190987362782
 20
181.78498024732531
 30
0.0
  0
VERTEX
  5
1FA0
  8
0
 10
52.919511844330671
 20
181.76067465022959
 30
0.0
  0
VERTEX
  5
1FA1
  8
0
 10
52.928423266049528
 20
181.7362626844652
 30
0.0
  0
VERTEX
  5
1FA2
  8
0
 10
52.938653577906642
 20
181.71175220720281
 30
0.0
  0
VERTEX
  5
1FA3
  8
0
 10
52.944265992016739
 20
181.69946249460071
 30
0.0
  0
VERTEX
  5
1FA4
  8
0
 10
52.950211213379603
 20
181.68715111983289
 30
0.0
  0
VERTEX
  5
1FA5
  8
0
 10
52.963103614559259
 20
181.6624673538943
 30
0.0
  0
VERTEX
  5
1FA6
  8
0
 10
52.97733725005461
 20
181.6377088568249
 30
0.0
  0
VERTEX
  5
1FA7
  8
0
 10
52.99291763659194
 20
181.61288357752559
 30
0.0
  0
VERTEX
  5
1FA8
  8
0
 10
53.009849364368087
 20
181.58799945172879
 30
0.0
  0
VERTEX
  5
1FA9
  8
0
 10
53.028136126227743
 20
181.5630643871672
 30
0.0
  0
VERTEX
  5
1FAA
  8
0
 10
53.0377885616426
 20
181.5505802126662
 30
0.0
  0
VERTEX
  5
1FAB
  8
0
 10
53.04778075563614
 20
181.5380862425317
 30
0.0
  0
VERTEX
  5
1FAC
  8
0
 10
53.068785265295411
 20
181.5130728123263
 30
0.0
  0
VERTEX
  5
1FAD
  8
0
 10
53.091150638202933
 20
181.4880320850842
 30
0.0
  0
VERTEX
  5
1FAE
  8
0
 10
53.102843695949829
 20
181.47550400056849
 30
0.0
  0
SEQEND
  5
1FAF
  8
0
  0
POLYLINE
  5
B4D
  8
0
 66
     1
 10
0.0
 20
0.0
 30
0.0
  0
VERTEX
  5
1FB0
  8
0
 10
53.979012146019471
 20
186.86160999450229
 30
0.0
  0
VERTEX
  5
1FB1
  8
0
 10
53.797322355933687
 20
186.34141609334159
 30
0.0
  0
VERTEX
  5
1FB2
  8
0
 10
53.435512447205461
 20
184.94867105150959
 30
0.0
  0
VERTEX
  5
1FB3
  8
0
 10
53.076456249445407
 20
183.08876928772889
 30
0.0
  0
VERTEX
  5
1FB4
  8
0
 10
52.898207182287642
 20
181.98486966626231
 30
0.0
  0
SEQEND
  5
1FB5
  8
0
  0
POLYLINE
  5
B4E
  8
0
 66
     1
 10
0.0
 20
0.0
 30
0.0
  0
VERTEX
  5
1FB6
  8
0
 10
54.432240250489087
 20
187.0376061949851
 30
0.0
  0
VERTEX
  5
1FB7
  8
0
 10
54.407379738751231
 20
187.033193745284
 30
0.0
  0
VERTEX
  5
1FB8
  8
0
 10
54.359660069216737
 20
187.0242514318607
 30
0.0
  0
VERTEX
  5
1FB9
  8
0
 10
54.314648387972348
 20
187.01515837135381
 30
0.0
  0
VERTEX
  5
1FBA
  8
0
 10
54.293167809770353
 20
187.0105567646182
 30
0.0
  0
VERTEX
  5
1FBB
  8
0
 10
54.272377476243399
 20
187.00591966513221
 30
0.0
  0
VERTEX
  5
1FBC
  8
0
 10
54.232887315333237
 20
186.99654321894431
 30
0.0
  0
VERTEX
  5
1FBD
  8
0
 10
54.196213604812613
 20
186.9870378435775
 30
0.0
  0
VERTEX
  5
1FBE
  8
0
 10
54.162385578055698
 20
186.97741287091441
 30
0.0
  0
VERTEX
  5
1FBF
  8
0
 10
54.131425625750254
 20
186.96767809737679
 30
0.0
  0
VERTEX
  5
1FC0
  8
0
 10
54.10334901522738
 20
186.95784372186671
 30
0.0
  0
VERTEX
  5
1FC1
  8
0
 10
54.090394738648712
 20
186.95289246398289
 30
0.0
  0
VERTEX
  5
1FC2
  8
0
 10
54.078163704355582
 20
186.94792027779241
 30
0.0
  0
VERTEX
  5
1FC3
  8
0
 10
54.055870252809051
 20
186.9379185600994
 30
0.0
  0
VERTEX
  5
1FC4
  8
0
 10
54.036462010046449
 20
186.9278496485376
 30
0.0
  0
VERTEX
  5
1FC5
  8
0
 10
54.019925539754382
 20
186.91772513876879
 30
0.0
  0
VERTEX
  5
1FC6
  8
0
 10
54.006240377607973
 20
186.9075571710805
 30
0.0
  0
VERTEX
  5
1FC7
  8
0
 10
53.995378641257822
 20
186.89735835810009
 30
0.0
  0
VERTEX
  5
1FC8
  8
0
 10
53.990995744735699
 20
186.8922514362439
 30
0.0
  0
VERTEX
  5
1FC9
  8
0
 10
53.987304749193463
 20
186.8871417073193
 30
0.0
  0
VERTEX
  5
1FCA
  8
0
 10
53.981975247996253
 20
186.8769205395009
 30
0.0
  0
VERTEX
  5
1FCB
  8
0
 10
53.97933874577123
 20
186.86670840266359
 30
0.0
  0
VERTEX
  5
1FCC
  8
0
 10
53.979012146019471
 20
186.86160999450229
 30
0.0
  0
SEQEND
  5
1FCD
  8
0
  0
LINE
  5
B4F
  8
0
 10
63.025784041549848
 20
187.0376061949851
 30
0.0
 11
54.432240250489087
 21
187.0376061949851
 31
0.0
  0
POLYLINE
  5
B50
  8
0
 66
     1
 10
0.0
 20
0.0
 30
0.0
  0
VERTEX
  5
1FCE
  8
0
 10
63.479012146019471
 20
186.86160999450229
 30
0.0
  0
VERTEX
  5
1FCF
  8
0
 10
63.4786855148161
 20
186.86670864778731
 30
0.0
  0
VERTEX
  5
1FD0
  8
0
 10
63.476048795210851
 20
186.8769211793811
 30
0.0
  0
VERTEX
  5
1FD1
  8
0
 10
63.470718940621893
 20
186.8871426268733
 30
0.0
  0
VERTEX
  5
1FD2
  8
0
 10
63.467027740835171
 20
186.89225245700999
 30
0.0
  0
VERTEX
  5
1FD3
  8
0
 10
63.462644632723162
 20
186.89735945670259
 30
0.0
  0
VERTEX
  5
1FD4
  8
0
 10
63.451782479763509
 20
186.90755836218301
 30
0.0
  0
VERTEX
  5
1FD5
  8
0
 10
63.438096950124681
 20
186.91772634939289
 30
0.0
  0
VERTEX
  5
1FD6
  8
0
 10
63.4215601998946
 20
186.92785081864301
 30
0.0
  0
VERTEX
  5
1FD7
  8
0
 10
63.402151792261179
 20
186.9379196418256
 30
0.0
  0
VERTEX
  5
1FD8
  8
0
 10
63.379858308111537
 20
186.94792123463799
 30
0.0
  0
VERTEX
  5
1FD9
  8
0
 10
63.367627308954013
 20
186.9528933483636
 30
0.0
  0
VERTEX
  5
1FDA
  8
0
 10
63.354673100668784
 20
186.95784452923951
 30
0.0
  0
VERTEX
  5
1FDB
  8
0
 10
63.326596717909233
 20
186.96767874328549
 30
0.0
  0
VERTEX
  5
1FDC
  8
0
 10
63.295637093517968
 20
186.9774133551721
 30
0.0
  0
VERTEX
  5
1FDD
  8
0
 10
63.261809459069823
 20
186.9870381768468
 30
0.0
  0
VERTEX
  5
1FDE
  8
0
 10
63.225136158870342
 20
186.99654342169771
 30
0.0
  0
VERTEX
  5
1FDF
  8
0
 10
63.185646370422681
 20
187.0059197665328
 30
0.0
  0
VERTEX
  5
1FE0
  8
0
 10
63.164856189202439
 20
187.0105568286703
 30
0.0
  0
VERTEX
  5
1FE1
  8
0
 10
63.143375729284422
 20
187.01515840806209
 30
0.0
  0
VERTEX
  5
1FE2
  8
0
 10
63.098364243550222
 20
187.0242514278294
 30
0.0
  0
VERTEX
  5
1FE3
  8
0
 10
63.050644646567108
 20
187.03319372842881
 30
0.0
  0
VERTEX
  5
1FE4
  8
0
 10
63.025784041549848
 20
187.0376061949851
 30
0.0
  0
SEQEND
  5
1FE5
  8
0
  0
LINE
  5
B52
  8
0
 10
54.729012146019471
 20
95.527701162812065
 30
0.0
 11
62.729012146019471
 21
95.527701162812065
 31
0.0
  0
LINE
  5
B53
  8
0
 10
55.496012146019453
 20
94.760701162812055
 30
0.0
 11
61.962012146019482
 21
94.760701162812055
 31
0.0
  0
POLYLINE
  5
B54
  8
0
 66
     1
 10
0.0
 20
0.0
 30
0.0
  0
VERTEX
  5
1FE6
  8
0
 10
63.598426362743858
 20
171.95029799613911
 30
0.0
  0
VERTEX
  5
1FE7
  8
0
 10
63.584334750728161
 20
171.9264354106601
 30
0.0
  0
VERTEX
  5
1FE8
  8
0
 10
63.553947684682853
 20
171.87875608670919
 30
0.0
  0
VERTEX
  5
1FE9
  8
0
 10
63.520626614483447
 20
171.83117974746409
 30
0.0
  0
VERTEX
  5
1FEA
  8
0
 10
63.502868994530608
 20
171.8074459184752
 30
0.0
  0
VERTEX
  5
1FEB
  8
0
 10
63.4843824614018
 20
171.7837566912693
 30
0.0
  0
VERTEX
  5
1FEC
  8
0
 10
63.445232397602901
 20
171.73653705599389
 30
0.0
  0
VERTEX
  5
1FED
  8
0
 10
63.403199645955681
 20
171.68957055327769
 30
0.0
  0
VERTEX
  5
1FEE
  8
0
 10
63.358313211368639
 20
171.64290620598419
 30
0.0
  0
VERTEX
  5
1FEF
  8
0
 10
63.310604543947271
 20
171.5965892730926
 30
0.0
  0
VERTEX
  5
1FF0
  8
0
 10
63.26009965679593
 20
171.55065528144181
 30
0.0
  0
VERTEX
  5
1FF1
  8
0
 10
63.233811241889917
 20
171.52784611618301
 30
0.0
  0
VERTEX
  5
1FF2
  8
0
 10
63.206839944850998
 20
171.50515000292719
 30
0.0
  0
VERTEX
  5
1FF3
  8
0
 10
63.150874322290498
 20
171.46012030423219
 30
0.0
  0
VERTEX
  5
1FF4
  8
0
 10
63.09225781003888
 20
171.4156125806123
 30
0.0
  0
VERTEX
  5
1FF5
  8
0
 10
63.031051327657593
 20
171.37167247324211
 30
0.0
  0
VERTEX
  5
1FF6
  8
0
 10
62.96732141577553
 20
171.32834459272971
 30
0.0
  0
VERTEX
  5
1FF7
  8
0
 10
62.90113988541524
 20
171.2856722482957
 30
0.0
  0
VERTEX
  5
1FF8
  8
0
 10
62.867153541600629
 20
171.26459501496461
 30
0.0
  0
VERTEX
  5
1FF9
  8
0
 10
62.832583389706279
 20
171.24369718251131
 30
0.0
  0
VERTEX
  5
1FFA
  8
0
 10
62.761733207613538
 20
171.20245947931321
 30
0.0
  0
VERTEX
  5
1FFB
  8
0
 10
62.688676455758632
 20
171.1619982500975
 30
0.0
  0
VERTEX
  5
1FFC
  8
0
 10
62.651349643588212
 20
171.14207084149211
 30
0.0
  0
VERTEX
  5
1FFD
  8
0
 10
62.613506832187959
 20
171.1223518651251
 30
0.0
  0
VERTEX
  5
1FFE
  8
0
 10
62.536324439727871
 20
171.08355763227269
 30
0.0
  0
VERTEX
  5
1FFF
  8
0
 10
62.457235494210593
 20
171.04565146596241
 30
0.0
  0
VERTEX
  5
2000
  8
0
 10
62.41701083814992
 20
171.0270421716194
 30
0.0
  0
VERTEX
  5
2001
  8
0
 10
62.376351952292389
 20
171.00866756983109
 30
0.0
  0
VERTEX
  5
2002
  8
0
 10
62.293791054566562
 20
170.972638133191
 30
0.0
  0
VERTEX
  5
2003
  8
0
 10
62.20967477806299
 20
170.9375930414329
 30
0.0
  0
VERTEX
  5
2004
  8
0
 10
62.123385457520648
 20
170.90327051269071
 30
0.0
  0
VERTEX
  5
2005
  8
0
 10
62.034250663112253
 20
170.86943697088341
 30
0.0
  0
VERTEX
  5
2006
  8
0
 10
61.942332505700648
 20
170.83616647980551
 30
0.0
  0
VERTEX
  5
2007
  8
0
 10
61.895351346250969
 20
170.8197649588883
 30
0.0
  0
VERTEX
  5
2008
  8
0
 10
61.847701325172139
 20
170.80353100046759
 30
0.0
  0
VERTEX
  5
2009
  8
0
 10
61.750434909360649
 20
170.771600010507
 30
0.0
  0
VERTEX
  5
200A
  8
0
 10
61.650617595467679
 20
170.74044015661261
 30
0.0
  0
VERTEX
  5
200B
  8
0
 10
61.548339235682832
 20
170.7101149390632
 30
0.0
  0
VERTEX
  5
200C
  8
0
 10
61.443694020977937
 20
170.6806844331401
 30
0.0
  0
VERTEX
  5
200D
  8
0
 10
61.3367801265168
 20
170.65220530404099
 30
0.0
  0
VERTEX
  5
200E
  8
0
 10
61.2825048936324
 20
170.6383394838501
 30
0.0
  0
VERTEX
  5
200F
  8
0
 10
61.22770241956519
 20
170.62473157415431
 30
0.0
  0
VERTEX
  5
2010
  8
0
 10
61.116573248873962
 20
170.59831469304589
 30
0.0
  0
VERTEX
  5
2011
  8
0
 10
61.003511551762138
 20
170.57300316523191
 30
0.0
  0
VERTEX
  5
2012
  8
0
 10
60.8886418214271
 20
170.5488422127014
 30
0.0
  0
VERTEX
  5
2013
  8
0
 10
60.772092967621589
 20
170.5258734859265
 30
0.0
  0
VERTEX
  5
2014
  8
0
 10
60.653997063212167
 20
170.5041348263905
 30
0.0
  0
VERTEX
  5
2015
  8
0
 10
60.594409029812752
 20
170.49373721182869
 30
0.0
  0
VERTEX
  5
2016
  8
0
 10
60.534472224542561
 20
170.48365748621899
 30
0.0
  0
VERTEX
  5
2017
  8
0
 10
60.413615809234919
 20
170.46446617587429
 30
0.0
  0
VERTEX
  5
2018
  8
0
 10
60.291567889155957
 20
170.44658940428411
 30
0.0
  0
VERTEX
  5
2019
  8
0
 10
60.168476203076011
 20
170.43005250909681
 30
0.0
  0
VERTEX
  5
201A
  8
0
 10
60.04449317094501
 20
170.4148770122647
 30
0.0
  0
VERTEX
  5
201B
  8
0
 10
59.919774601821658
 20
170.40108035685739
 30
0.0
  0
VERTEX
  5
201C
  8
0
 10
59.857188771746372
 20
170.3947033809894
 30
0.0
  0
VERTEX
  5
201D
  8
0
 10
59.794478320866901
 20
170.38867571246729
 30
0.0
  0
VERTEX
  5
201E
  8
0
 10
59.668762712484721
 20
170.3776718520059
 30
0.0
  0
VERTEX
  5
201F
  8
0
 10
59.542785724596513
 20
170.36807314196921
 30
0.0
  0
VERTEX
  5
2020
  8
0
 10
59.416707953255461
 20
170.35987982264541
 30
0.0
  0
VERTEX
  5
2021
  8
0
 10
59.2906949566704
 20
170.35308802747841
 30
0.0
  0
VERTEX
  5
2022
  8
0
 10
59.164916037721078
 20
170.34768950565461
 30
0.0
  0
VERTEX
  5
2023
  8
0
 10
59.10216791917928
 20
170.34550889048529
 30
0.0
  0
VERTEX
  5
2024
  8
0
 10
59.039542741570003
 20
170.34367140759619
 30
0.0
  0
VERTEX
  5
2025
  8
0
 10
58.914747330837358
 20
170.3410161567503
 30
0.0
  0
VERTEX
  5
2026
  8
0
 10
58.790701238349847
 20
170.33970140713561
 30
0.0
  0
VERTEX
  5
2027
  8
0
 10
58.729012145891268
 20
170.33953844190739
 30
0.0
  0
VERTEX
  5
2028
  8
0
 10
58.667323053431673
 20
170.3397014071368
 30
0.0
  0
VERTEX
  5
2029
  8
0
 10
58.543276960942443
 20
170.34101615675439
 30
0.0
  0
VERTEX
  5
202A
  8
0
 10
58.418481550208398
 20
170.3436714076031
 30
0.0
  0
VERTEX
  5
202B
  8
0
 10
58.355856372598602
 20
170.34550889049359
 30
0.0
  0
VERTEX
  5
202C
  8
0
 10
58.293108254056321
 20
170.34768950566439
 30
0.0
  0
VERTEX
  5
202D
  8
0
 10
58.167329335106317
 20
170.3530880274912
 30
0.0
  0
VERTEX
  5
202E
  8
0
 10
58.041316338520957
 20
170.35987982266099
 30
0.0
  0
VERTEX
  5
202F
  8
0
 10
57.915238567179941
 20
170.36807314198771
 30
0.0
  0
VERTEX
  5
2030
  8
0
 10
57.789261579292123
 20
170.37767185202731
 30
0.0
  0
VERTEX
  5
2031
  8
0
 10
57.663545970910633
 20
170.3886757124917
 30
0.0
  0
VERTEX
  5
2032
  8
0
 10
57.600835520031652
 20
170.3947033810152
 30
0.0
  0
VERTEX
  5
2033
  8
0
 10
57.538249689956942
 20
170.40108035688471
 30
0.0
  0
VERTEX
  5
2034
  8
0
 10
57.413531120834939
 20
170.41487701229491
 30
0.0
  0
VERTEX
  5
2035
  8
0
 10
57.289548088705651
 20
170.43005250912981
 30
0.0
  0
VERTEX
  5
2036
  8
0
 10
57.166456402627723
 20
170.44658940431981
 30
0.0
  0
VERTEX
  5
2037
  8
0
 10
57.044408482551063
 20
170.46446617591289
 30
0.0
  0
VERTEX
  5
2038
  8
0
 10
56.923552067246057
 20
170.4836574862604
 30
0.0
  0
VERTEX
  5
2039
  8
0
 10
56.86361526197728
 20
170.49373721187129
 30
0.0
  0
VERTEX
  5
203A
  8
0
 10
56.804027228579329
 20
170.50413482643441
 30
0.0
  0
VERTEX
  5
203B
  8
0
 10
56.685931324173012
 20
170.52587348597299
 30
0.0
  0
VERTEX
  5
203C
  8
0
 10
56.569382470370847
 20
170.5488422127504
 30
0.0
  0
VERTEX
  5
203D
  8
0
 10
56.454512740039462
 20
170.57300316528341
 30
0.0
  0
VERTEX
  5
203E
  8
0
 10
56.34145104293151
 20
170.59831469309981
 30
0.0
  0
VERTEX
  5
203F
  8
0
 10
56.230321872244453
 20
170.6247315742105
 30
0.0
  0
VERTEX
  5
2040
  8
0
 10
56.175519398179368
 20
170.63833948390729
 30
0.0
  0
VERTEX
  5
2041
  8
0
 10
56.12124416529722
 20
170.65220530409931
 30
0.0
  0
VERTEX
  5
2042
  8
0
 10
56.014330270840681
 20
170.68068443320041
 30
0.0
  0
VERTEX
  5
2043
  8
0
 10
55.909685056140638
 20
170.7101149391255
 30
0.0
  0
VERTEX
  5
2044
  8
0
 10
55.807406696360822
 20
170.74044015667661
 30
0.0
  0
VERTEX
  5
2045
  8
0
 10
55.70758938247306
 20
170.7716000105726
 30
0.0
  0
VERTEX
  5
2046
  8
0
 10
55.610322966666992
 20
170.80353100053489
 30
0.0
  0
VERTEX
  5
2047
  8
0
 10
55.562672945590897
 20
170.81976495895631
 30
0.0
  0
VERTEX
  5
2048
  8
0
 10
55.515691786144032
 20
170.83616647987409
 30
0.0
  0
VERTEX
  5
2049
  8
0
 10
55.423773628738147
 20
170.8694369709531
 30
0.0
  0
VERTEX
  5
204A
  8
0
 10
55.334638834335621
 20
170.90327051276171
 30
0.0
  0
VERTEX
  5
204B
  8
0
 10
55.248349513799269
 20
170.93759304150481
 30
0.0
  0
VERTEX
  5
204C
  8
0
 10
55.164233237298781
 20
170.97263813326501
 30
0.0
  0
VERTEX
  5
204D
  8
0
 10
55.08167233957635
 20
171.0086675699072
 30
0.0
  0
VERTEX
  5
204E
  8
0
 10
55.041013453720602
 20
171.02704217169639
 30
0.0
  0
VERTEX
  5
204F
  8
0
 10
55.000788797661748
 20
171.04565146604051
 30
0.0
  0
VERTEX
  5
2050
  8
0
 10
54.921699852148322
 20
171.08355763235261
 30
0.0
  0
VERTEX
  5
2051
  8
0
 10
54.844517459692327
 20
171.1223518652067
 30
0.0
  0
VERTEX
  5
2052
  8
0
 10
54.806674648294191
 20
171.14207084157471
 30
0.0
  0
VERTEX
  5
2053
  8
0
 10
54.769347836125952
 20
171.16199825018089
 30
0.0
  0
VERTEX
  5
2054
  8
0
 10
54.696291084275558
 20
171.2024594793983
 30
0.0
  0
VERTEX
  5
2055
  8
0
 10
54.625440902187499
 20
171.24369718259791
 30
0.0
  0
VERTEX
  5
2056
  8
0
 10
54.590870750295537
 20
171.26459501505201
 30
0.0
  0
VERTEX
  5
2057
  8
0
 10
54.556884406483412
 20
171.28567224838389
 30
0.0
  0
VERTEX
  5
2058
  8
0
 10
54.49070287612814
 20
171.32834459281929
 30
0.0
  0
VERTEX
  5
2059
  8
0
 10
54.42697296425122
 20
171.37167247333301
 30
0.0
  0
VERTEX
  5
205A
  8
0
 10
54.365766481875291
 20
171.41561258070439
 30
0.0
  0
VERTEX
  5
205B
  8
0
 10
54.307149969629123
 20
171.46012030432539
 30
0.0
  0
VERTEX
  5
205C
  8
0
 10
54.251184347074201
 20
171.5051500030215
 30
0.0
  0
VERTEX
  5
205D
  8
0
 10
54.224213050038102
 20
171.5278461162778
 30
0.0
  0
VERTEX
  5
205E
  8
0
 10
54.197924635134967
 20
171.55065528153699
 30
0.0
  0
VERTEX
  5
205F
  8
0
 10
54.147419747989389
 20
171.5965892731887
 30
0.0
  0
VERTEX
  5
2060
  8
0
 10
54.099711080573883
 20
171.64290620608099
 30
0.0
  0
VERTEX
  5
2061
  8
0
 10
54.054824645992682
 20
171.68957055337529
 30
0.0
  0
VERTEX
  5
2062
  8
0
 10
54.012791894351359
 20
171.73653705609209
 30
0.0
  0
VERTEX
  5
2063
  8
0
 10
53.973641830558478
 20
171.7837566913681
 30
0.0
  0
VERTEX
  5
2064
  8
0
 10
53.955155297432697
 20
171.80744591857419
 30
0.0
  0
VERTEX
  5
2065
  8
0
 10
53.937397677482892
 20
171.83117974756331
 30
0.0
  0
VERTEX
  5
2066
  8
0
 10
53.904076607289639
 20
171.87875608680841
 30
0.0
  0
VERTEX
  5
2067
  8
0
 10
53.873689541250542
 20
171.92643541075961
 30
0.0
  0
VERTEX
  5
2068
  8
0
 10
53.859597929237928
 20
171.9502979962385
 30
0.0
  0
SEQEND
  5
2069
  8
0
  0
LINE
  5
B56
  8
0
 10
51.979012146019471
 20
144.7607011628121
 30
0.0
 11
65.479012146019471
 21
144.7607011628121
 31
0.0
  0
LINE
  5
B57
  8
3
 10
55.496012146019453
 20
94.760701162812055
 30
0.0
 11
55.496012146019453
 21
144.7607011628121
 31
0.0
  0
LINE
  5
B58
  8
0
 10
54.729012146019471
 20
144.7607011628121
 30
0.0
 11
55.496012146019453
 21
144.7607011628121
 31
0.0
  0
LINE
  5
B59
  8
3
 10
61.962012146019482
 20
94.760701162812055
 30
0.0
 11
61.962012146019482
 21
144.7607011628121
 31
0.0
  0
LINE
  5
B5A
  8
0
 10
62.729012146019471
 20
144.7607011628121
 30
0.0
 11
61.962012146019482
 21
144.7607011628121
 31
0.0
  0
LINE
  5
B6A
  8
1
 10
125.6166307063249
 20
223.15056695206459
 30
0.0
 11
125.6166307063249
 21
246.15016535621601
 31
0.0
  0
LINE
  5
B6B
  8
1
 10
114.35663070632491
 20
234.6503661541403
 30
0.0
 11
192.50972826566081
 21
234.6503661541403
 31
0.0
  0
LINE
  5
B6D
  8
0
 10
190.50972826566081
 20
233.64829577014069
 30
0.0
 11
190.50972826566081
 21
235.65243653813991
 31
0.0
  0
LINE
  5
B6E
  8
0
 10
116.35663070632491
 20
232.52848020056041
 30
0.0
 11
116.35663070632491
 21
236.77225210772011
 31
0.0
  0
POLYLINE
  5
B6F
  8
0
 66
     1
 10
0.0
 20
0.0
 30
0.0
  0
VERTEX
  5
206A
  8
0
 10
116.35663070632491
 20
232.52848020056041
 30
0.0
  0
VERTEX
  5
206B
  8
0
 10
116.35673067682831
 20
232.52804397225341
 30
0.0
  0
VERTEX
  5
206C
  8
0
 10
116.3575278873524
 20
232.5245686596229
 30
0.0
  0
VERTEX
  5
206D
  8
0
 10
116.35911328731081
 20
232.5176750755615
 30
0.0
  0
VERTEX
  5
206E
  8
0
 10
116.3601973221792
 20
232.5129749861805
 30
0.0
  0
VERTEX
  5
206F
  8
0
 10
116.3614727170237
 20
232.50745911157571
 30
0.0
  0
VERTEX
  5
2070
  8
0
 10
116.3645874411105
 20
232.49405091313301
 30
0.0
  0
VERTEX
  5
2071
  8
0
 10
116.3684352116163
 20
232.4776075178319
 30
0.0
  0
VERTEX
  5
2072
  8
0
 10
116.3729911322535
 20
232.458306067222
 30
0.0
  0
VERTEX
  5
2073
  8
0
 10
116.3782274480848
 20
232.43634148441799
 30
0.0
  0
VERTEX
  5
2074
  8
0
 10
116.3841138227253
 20
232.4119220529733
 30
0.0
  0
VERTEX
  5
2075
  8
0
 10
116.3872906984563
 20
232.39885932111591
 30
0.0
  0
VERTEX
  5
2076
  8
0
 10
116.3906177456506
 20
232.3852646443905
 30
0.0
  0
VERTEX
  5
2077
  8
0
 10
116.397704974215
 20
232.35659015246929
 30
0.0
  0
VERTEX
  5
2078
  8
0
 10
116.4053423419888
 20
232.32611000021771
 30
0.0
  0
VERTEX
  5
2079
  8
0
 10
116.41349447684421
 20
232.29403775138741
 30
0.0
  0
VERTEX
  5
207A
  8
0
 10
116.4221236267899
 20
232.26058801289361
 30
0.0
  0
VERTEX
  5
207B
  8
0
 10
116.4311902973763
 20
232.22597251991851
 30
0.0
  0
VERTEX
  5
207C
  8
0
 10
116.43587484186369
 20
232.20829290438681
 30
0.0
  0
VERTEX
  5
207D
  8
0
 10
116.44065307784631
 20
232.19039978004909
 30
0.0
  0
VERTEX
  5
207E
  8
0
 10
116.4504684617073
 20
232.1540749641251
 30
0.0
  0
VERTEX
  5
207F
  8
0
 10
116.4605906808292
 20
232.11719994334371
 30
0.0
  0
VERTEX
  5
2080
  8
0
 10
116.46575189786
 20
232.0986183153465
 30
0.0
  0
VERTEX
  5
2081
  8
0
 10
116.4709715670468
 20
232.07997340046651
 30
0.0
  0
VERTEX
  5
2082
  8
0
 10
116.4815604514784
 20
232.04259096463119
 30
0.0
  0
VERTEX
  5
2083
  8
0
 10
116.4923048515484
 20
232.00524277405819
 30
0.0
  0
VERTEX
  5
2084
  8
0
 10
116.4977655812048
 20
231.9864782379793
 30
0.0
  0
VERTEX
  5
2085
  8
0
 10
116.5033241571691
 20
231.9675236799882
 30
0.0
  0
VERTEX
  5
2086
  8
0
 10
116.5147340204082
 20
231.92906559762349
 30
0.0
  0
VERTEX
  5
2087
  8
0
 10
116.52653281902219
 20
231.88990959783391
 30
0.0
  0
VERTEX
  5
2088
  8
0
 10
116.57086749858721
 20
231.747924425261
 30
0.0
  0
VERTEX
  5
2089
  8
0
 10
116.6576585952712
 20
231.49017332563091
 30
0.0
  0
VERTEX
  5
208A
  8
0
 10
116.7574890425997
 20
231.22026280554451
 30
0.0
  0
VERTEX
  5
208B
  8
0
 10
116.86928508916
 20
230.94443244536109
 30
0.0
  0
VERTEX
  5
208C
  8
0
 10
116.99143159700159
 20
230.66841433065869
 30
0.0
  0
VERTEX
  5
208D
  8
0
 10
117.0557167844555
 20
230.53202269804751
 30
0.0
  0
VERTEX
  5
208E
  8
0
 10
117.1217060917552
 20
230.3975722733158
 30
0.0
  0
VERTEX
  5
208F
  8
0
 10
117.25728668982239
 20
230.13690100929139
 30
0.0
  0
VERTEX
  5
2090
  8
0
 10
117.4019291965952
 20
229.8787124464574
 30
0.0
  0
VERTEX
  5
2091
  8
0
 10
117.55983986449139
 20
229.61666758043239
 30
0.0
  0
VERTEX
  5
2092
  8
0
 10
117.73095683107471
 20
229.35261686475371
 30
0.0
  0
VERTEX
  5
2093
  8
0
 10
117.9150893139353
 20
229.0883287413472
 30
0.0
  0
VERTEX
  5
2094
  8
0
 10
118.01194145694259
 20
228.9566238504942
 30
0.0
  0
VERTEX
  5
2095
  8
0
 10
118.1119154415872
 20
228.8254842845044
 30
0.0
  0
VERTEX
  5
2096
  8
0
 10
118.3209670167512
 20
228.56568938962471
 30
0.0
  0
VERTEX
  5
2097
  8
0
 10
118.5416376234835
 20
228.3104550445311
 30
0.0
  0
VERTEX
  5
2098
  8
0
 10
118.6561279002669
 20
228.18496588139161
 30
0.0
  0
SEQEND
  5
2099
  8
0
  0
POLYLINE
  5
B70
  8
0
 66
     1
 10
0.0
 20
0.0
 30
0.0
  0
VERTEX
  5
209A
  8
0
 10
118.6561279002669
 20
241.115766426889
 30
0.0
  0
VERTEX
  5
209B
  8
0
 10
118.5416376234835
 20
240.9902772637495
 30
0.0
  0
VERTEX
  5
209C
  8
0
 10
118.3209670167513
 20
240.73504291865589
 30
0.0
  0
VERTEX
  5
209D
  8
0
 10
118.1119154415872
 20
240.4752480237762
 30
0.0
  0
VERTEX
  5
209E
  8
0
 10
118.01194145694259
 20
240.3441084577864
 30
0.0
  0
VERTEX
  5
209F
  8
0
 10
117.9150893139353
 20
240.2124035669334
 30
0.0
  0
VERTEX
  5
20A0
  8
0
 10
117.73095683107471
 20
239.948115443527
 30
0.0
  0
VERTEX
  5
20A1
  8
0
 10
117.55983986449139
 20
239.68406472784821
 30
0.0
  0
VERTEX
  5
20A2
  8
0
 10
117.4019291965952
 20
239.4220198618232
 30
0.0
  0
VERTEX
  5
20A3
  8
0
 10
117.25728668982239
 20
239.16383129898921
 30
0.0
  0
VERTEX
  5
20A4
  8
0
 10
117.1217060917552
 20
238.90316003496491
 30
0.0
  0
VERTEX
  5
20A5
  8
0
 10
117.0557167844555
 20
238.76870961023309
 30
0.0
  0
VERTEX
  5
20A6
  8
0
 10
116.99143159700159
 20
238.63231797762191
 30
0.0
  0
VERTEX
  5
20A7
  8
0
 10
116.86928508916
 20
238.35629986291951
 30
0.0
  0
VERTEX
  5
20A8
  8
0
 10
116.7574890425997
 20
238.08046950273609
 30
0.0
  0
VERTEX
  5
20A9
  8
0
 10
116.6576585952712
 20
237.8105589826497
 30
0.0
  0
VERTEX
  5
20AA
  8
0
 10
116.57086749858721
 20
237.5528078830196
 30
0.0
  0
VERTEX
  5
20AB
  8
0
 10
116.52653281902219
 20
237.41082271044681
 30
0.0
  0
VERTEX
  5
20AC
  8
0
 10
116.5147340204082
 20
237.37166671065711
 30
0.0
  0
VERTEX
  5
20AD
  8
0
 10
116.5033241571691
 20
237.33320862829251
 30
0.0
  0
VERTEX
  5
20AE
  8
0
 10
116.4977655812048
 20
237.31425407030139
 30
0.0
  0
VERTEX
  5
20AF
  8
0
 10
116.4923048515484
 20
237.29548953422241
 30
0.0
  0
VERTEX
  5
20B0
  8
0
 10
116.4815604514784
 20
237.25814134364941
 30
0.0
  0
VERTEX
  5
20B1
  8
0
 10
116.4709715670468
 20
237.22075890781409
 30
0.0
  0
VERTEX
  5
20B2
  8
0
 10
116.46575189786
 20
237.2021139929341
 30
0.0
  0
VERTEX
  5
20B3
  8
0
 10
116.4605906808292
 20
237.18353236493681
 30
0.0
  0
VERTEX
  5
20B4
  8
0
 10
116.4504684617073
 20
237.14665734415539
 30
0.0
  0
VERTEX
  5
20B5
  8
0
 10
116.44065307784631
 20
237.11033252823151
 30
0.0
  0
VERTEX
  5
20B6
  8
0
 10
116.43587484186369
 20
237.09243940389371
 30
0.0
  0
VERTEX
  5
20B7
  8
0
 10
116.4311902973763
 20
237.074759788362
 30
0.0
  0
VERTEX
  5
20B8
  8
0
 10
116.4221236267899
 20
237.04014429538699
 30
0.0
  0
VERTEX
  5
20B9
  8
0
 10
116.41349447684421
 20
237.00669455689319
 30
0.0
  0
VERTEX
  5
20BA
  8
0
 10
116.4053423419888
 20
236.97462230806289
 30
0.0
  0
VERTEX
  5
20BB
  8
0
 10
116.397704974215
 20
236.94414215581131
 30
0.0
  0
VERTEX
  5
20BC
  8
0
 10
116.3906177456506
 20
236.9154676638901
 30
0.0
  0
VERTEX
  5
20BD
  8
0
 10
116.3872906984563
 20
236.90187298716469
 30
0.0
  0
VERTEX
  5
20BE
  8
0
 10
116.3841138227253
 20
236.88881025530731
 30
0.0
  0
VERTEX
  5
20BF
  8
0
 10
116.3782274480848
 20
236.86439082386269
 30
0.0
  0
VERTEX
  5
20C0
  8
0
 10
116.3729911322535
 20
236.8424262410586
 30
0.0
  0
VERTEX
  5
20C1
  8
0
 10
116.3684352116163
 20
236.82312479044859
 30
0.0
  0
VERTEX
  5
20C2
  8
0
 10
116.3645874411105
 20
236.80668139514759
 30
0.0
  0
VERTEX
  5
20C3
  8
0
 10
116.3614727170237
 20
236.7932731967048
 30
0.0
  0
VERTEX
  5
20C4
  8
0
 10
116.3601973221792
 20
236.78775732210011
 30
0.0
  0
VERTEX
  5
20C5
  8
0
 10
116.35911328731081
 20
236.7830572327191
 30
0.0
  0
VERTEX
  5
20C6
  8
0
 10
116.3575278873524
 20
236.7761636486577
 30
0.0
  0
VERTEX
  5
20C7
  8
0
 10
116.35673067682831
 20
236.77268833602719
 30
0.0
  0
VERTEX
  5
20C8
  8
0
 10
116.35663070632491
 20
236.77225210772011
 30
0.0
  0
SEQEND
  5
20C9
  8
0
  0
POLYLINE
  5
B71
  8
0
 66
     1
 10
0.0
 20
0.0
 30
0.0
  0
VERTEX
  5
20CA
  8
0
 10
187.891538427131
 20
230.35359425860989
 30
0.0
  0
VERTEX
  5
20CB
  8
0
 10
187.9140131935487
 20
230.3642577851173
 30
0.0
  0
VERTEX
  5
20CC
  8
0
 10
187.9586638362519
 20
230.3858735250825
 30
0.0
  0
VERTEX
  5
20CD
  8
0
 10
188.00288387147589
 20
230.4078524636048
 30
0.0
  0
VERTEX
  5
20CE
  8
0
 10
188.02482051169221
 20
230.41896960406271
 30
0.0
  0
VERTEX
  5
20CF
  8
0
 10
188.04663530918921
 20
230.43016711481869
 30
0.0
  0
VERTEX
  5
20D0
  8
0
 10
188.08988092725679
 20
230.4527884651479
 30
0.0
  0
VERTEX
  5
20D1
  8
0
 10
188.13281121183451
 20
230.47580918166429
 30
0.0
  0
VERTEX
  5
20D2
  8
0
 10
188.17562686893871
 20
230.49933776095449
 30
0.0
  0
VERTEX
  5
20D3
  8
0
 10
188.218311414016
 20
230.52336992818221
 30
0.0
  0
VERTEX
  5
20D4
  8
0
 10
188.260848427485
 20
230.54790085828671
 30
0.0
  0
VERTEX
  5
20D5
  8
0
 10
188.28205651187409
 20
230.56035170699141
 30
0.0
  0
VERTEX
  5
20D6
  8
0
 10
188.30322161682719
 20
230.57292519995619
 30
0.0
  0
VERTEX
  5
20D7
  8
0
 10
188.34541487469551
 20
230.59843710162281
 30
0.0
  0
VERTEX
  5
20D8
  8
0
 10
188.3874123328988
 20
230.6244302392098
 30
0.0
  0
VERTEX
  5
20D9
  8
0
 10
188.42919841220589
 20
230.65089784538031
 30
0.0
  0
VERTEX
  5
20DA
  8
0
 10
188.47075786796239
 20
230.67783274005529
 30
0.0
  0
VERTEX
  5
20DB
  8
0
 10
188.51207583157341
 20
230.70522736199371
 30
0.0
  0
VERTEX
  5
20DC
  8
0
 10
188.53263971951159
 20
230.71909461154661
 30
0.0
  0
VERTEX
  5
20DD
  8
0
 10
188.5531378479422
 20
230.73307380124669
 30
0.0
  0
VERTEX
  5
20DE
  8
0
 10
188.59392990899241
 20
230.7613638323194
 30
0.0
  0
VERTEX
  5
20DF
  8
0
 10
188.634438483427
 20
230.7900889479007
 30
0.0
  0
VERTEX
  5
20E0
  8
0
 10
188.65458237147581
 20
230.80461193516291
 30
0.0
  0
VERTEX
  5
20E1
  8
0
 10
188.67465053734529
 20
230.8192403889642
 30
0.0
  0
VERTEX
  5
20E2
  8
0
 10
188.7145534201978
 20
230.84880907633561
 30
0.0
  0
VERTEX
  5
20E3
  8
0
 10
188.75413467585281
 20
230.87878547411231
 30
0.0
  0
VERTEX
  5
20E4
  8
0
 10
188.77380085606009
 20
230.89392345918429
 30
0.0
  0
VERTEX
  5
20E5
  8
0
 10
188.7933820539794
 20
230.90915959087721
 30
0.0
  0
VERTEX
  5
20E6
  8
0
 10
188.8322835511517
 20
230.9399210051088
 30
0.0
  0
VERTEX
  5
20E7
  8
0
 10
188.87082744780389
 20
230.97105889074319
 30
0.0
  0
VERTEX
  5
20E8
  8
0
 10
188.9090023413917
 20
231.00256204287811
 30
0.0
  0
VERTEX
  5
20E9
  8
0
 10
188.9467971759511
 20
231.03441890350311
 30
0.0
  0
VERTEX
  5
20EA
  8
0
 10
188.9842012682623
 20
231.0666175871589
 30
0.0
  0
VERTEX
  5
20EB
  8
0
 10
189.00275355521001
 20
231.08284131516581
 30
0.0
  0
VERTEX
  5
20EC
  8
0
 10
189.02120433083991
 20
231.09914590646281
 30
0.0
  0
VERTEX
  5
20ED
  8
0
 10
189.05779649197291
 20
231.13199139745089
 30
0.0
  0
VERTEX
  5
20EE
  8
0
 10
189.09396831304261
 20
231.16514134471049
 30
0.0
  0
VERTEX
  5
20EF
  8
0
 10
189.1297108033389
 20
231.1985828062937
 30
0.0
  0
VERTEX
  5
20F0
  8
0
 10
189.16501564810309
 20
231.23230284638109
 30
0.0
  0
VERTEX
  5
20F1
  8
0
 10
189.1998785634226
 20
231.2662918755297
 30
0.0
  0
VERTEX
  5
20F2
  8
0
 10
189.21714237212331
 20
231.2833835914665
 30
0.0
  0
VERTEX
  5
20F3
  8
0
 10
189.2342931399734
 20
231.3005378401827
 30
0.0
  0
VERTEX
  5
20F4
  8
0
 10
189.26825183441369
 20
231.3350270009102
 30
0.0
  0
VERTEX
  5
20F5
  8
0
 10
189.30174739764411
 20
231.36974528043069
 30
0.0
  0
VERTEX
  5
20F6
  8
0
 10
189.3347728967027
 20
231.40467828447049
 30
0.0
  0
VERTEX
  5
20F7
  8
0
 10
189.3673217339412
 20
231.43981132215779
 30
0.0
  0
VERTEX
  5
20F8
  8
0
 10
189.3993876636942
 20
231.47512942593269
 30
0.0
  0
VERTEX
  5
20F9
  8
0
 10
189.41523768631541
 20
231.49285312937511
 30
0.0
  0
VERTEX
  5
20FA
  8
0
 10
189.43096480663479
 20
231.51061737097811
 30
0.0
  0
VERTEX
  5
20FB
  8
0
 10
189.4620476620141
 20
231.5462596941841
 30
0.0
  0
VERTEX
  5
20FC
  8
0
 10
189.4926311179704
 20
231.5820407126746
 30
0.0
  0
VERTEX
  5
20FD
  8
0
 10
189.59567604229881
 20
231.70813555776431
 30
0.0
  0
VERTEX
  5
20FE
  8
0
 10
189.75752276446079
 20
231.92576361579921
 30
0.0
  0
VERTEX
  5
20FF
  8
0
 10
189.8313090040015
 20
232.03429543721921
 30
0.0
  0
VERTEX
  5
2100
  8
0
 10
189.9003040063005
 20
232.1419842635456
 30
0.0
  0
VERTEX
  5
2101
  8
0
 10
190.02683375576601
 20
232.3579415452555
 30
0.0
  0
VERTEX
  5
2102
  8
0
 10
190.1408112407172
 20
232.57819802403549
 30
0.0
  0
VERTEX
  5
2103
  8
0
 10
190.24040991419079
 20
232.79765046066771
 30
0.0
  0
VERTEX
  5
2104
  8
0
 10
190.32456058620221
 20
233.01043896487349
 30
0.0
  0
VERTEX
  5
2105
  8
0
 10
190.3663211914583
 20
233.1287599179544
 30
0.0
  0
VERTEX
  5
2106
  8
0
 10
190.37722445266229
 20
233.16139199200671
 30
0.0
  0
VERTEX
  5
2107
  8
0
 10
190.38767781801531
 20
233.19344027617811
 30
0.0
  0
VERTEX
  5
2108
  8
0
 10
190.39273859024399
 20
233.20923901779
 30
0.0
  0
VERTEX
  5
2109
  8
0
 10
190.39769020353069
 20
233.2248838382973
 30
0.0
  0
VERTEX
  5
210A
  8
0
 10
190.40727013983221
 20
233.25570005256711
 30
0.0
  0
VERTEX
  5
210B
  8
0
 10
190.4164256916284
 20
233.2858641967558
 30
0.0
  0
VERTEX
  5
210C
  8
0
 10
190.42084668992129
 20
233.30069331424369
 30
0.0
  0
VERTEX
  5
210D
  8
0
 10
190.42516434844961
 20
233.315348913197
 30
0.0
  0
VERTEX
  5
210E
  8
0
 10
190.4334928827549
 20
233.3441235038288
 30
0.0
  0
VERTEX
  5
210F
  8
0
 10
190.4414171710103
 20
233.37215302538169
 30
0.0
  0
VERTEX
  5
2110
  8
0
 10
190.44522926089249
 20
233.38587602918429
 30
0.0
  0
VERTEX
  5
2111
  8
0
 10
190.44894197300721
 20
233.39939714763571
 30
0.0
  0
VERTEX
  5
2112
  8
0
 10
190.45607066468691
 20
233.42580873670761
 30
0.0
  0
VERTEX
  5
2113
  8
0
 10
190.46280491812371
 20
233.45133212009679
 30
0.0
  0
VERTEX
  5
2114
  8
0
 10
190.46913561116199
 20
233.47586685616241
 30
0.0
  0
VERTEX
  5
2115
  8
0
 10
190.47505850265549
 20
233.49932608272329
 30
0.0
  0
VERTEX
  5
2116
  8
0
 10
190.4805779513876
 20
233.52165413605161
 30
0.0
  0
VERTEX
  5
2117
  8
0
 10
190.48318674052931
 20
233.53237224402719
 30
0.0
  0
VERTEX
  5
2118
  8
0
 10
190.48569450631919
 20
233.54277886115531
 30
0.0
  0
VERTEX
  5
2119
  8
0
 10
190.4904034945481
 20
233.56260459805969
 30
0.0
  0
VERTEX
  5
211A
  8
0
 10
190.4946931703316
 20
233.58100287197101
 30
0.0
  0
VERTEX
  5
211B
  8
0
 10
190.49854158717611
 20
233.59779711039511
 30
0.0
  0
VERTEX
  5
211C
  8
0
 10
190.50191747791411
 20
233.6127648120395
 30
0.0
  0
VERTEX
  5
211D
  8
0
 10
190.50478135911371
 20
233.62564252211359
 30
0.0
  0
VERTEX
  5
211E
  8
0
 10
190.50600419317871
 20
233.63119313179399
 30
0.0
  0
VERTEX
  5
211F
  8
0
 10
190.506193564988
 20
233.63205555294181
 30
0.0
  0
VERTEX
  5
2120
  8
0
 10
190.50655952535649
 20
233.63372435177359
 30
0.0
  0
VERTEX
  5
2121
  8
0
 10
190.50690811713099
 20
233.63531662295381
 30
0.0
  0
VERTEX
  5
2122
  8
0
 10
190.5070757740354
 20
233.6360833663727
 30
0.0
  0
VERTEX
  5
2123
  8
0
 10
190.5072389355511
 20
233.63683013463319
 30
0.0
  0
VERTEX
  5
2124
  8
0
 10
190.50755155685849
 20
233.6382625729382
 30
0.0
  0
VERTEX
  5
2125
  8
0
 10
190.50784553704199
 20
233.6396115374645
 30
0.0
  0
VERTEX
  5
2126
  8
0
 10
190.50812041057739
 20
233.64087453688069
 30
0.0
  0
VERTEX
  5
2127
  8
0
 10
190.5083756891855
 20
233.64204898474941
 30
0.0
  0
VERTEX
  5
2128
  8
0
 10
190.50861086062591
 20
233.64313219568001
 30
0.0
  0
VERTEX
  5
2129
  8
0
 10
190.50872073924711
 20
233.64363872020229
 30
0.0
  0
VERTEX
  5
212A
  8
0
 10
190.508825387549
 20
233.64412138192299
 30
0.0
  0
VERTEX
  5
212B
  8
0
 10
190.50901870642531
 20
233.64501365052641
 30
0.0
  0
VERTEX
  5
212C
  8
0
 10
190.50919022657311
 20
233.6458060011619
 30
0.0
  0
VERTEX
  5
212D
  8
0
 10
190.5093393293013
 20
233.6464953247301
 30
0.0
  0
VERTEX
  5
212E
  8
0
 10
190.50946536718629
 20
233.64707840284279
 30
0.0
  0
VERTEX
  5
212F
  8
0
 10
190.50956766349711
 20
233.6475519082679
 30
0.0
  0
VERTEX
  5
2130
  8
0
 10
190.5096096889641
 20
233.6477465020437
 30
0.0
  0
VERTEX
  5
2131
  8
0
 10
190.5096455117791
 20
233.6479124064133
 30
0.0
  0
VERTEX
  5
2132
  8
0
 10
190.50969817560829
 20
233.64815635789881
 30
0.0
  0
VERTEX
  5
2133
  8
0
 10
190.50972488851659
 20
233.64828012225601
 30
0.0
  0
VERTEX
  5
2134
  8
0
 10
190.50972826566081
 20
233.64829577014069
 30
0.0
  0
SEQEND
  5
2135
  8
0
  0
POLYLINE
  5
B72
  8
0
 66
     1
 10
0.0
 20
0.0
 30
0.0
  0
VERTEX
  5
2136
  8
0
 10
190.50972826566081
 20
235.65243653813991
 30
0.0
  0
VERTEX
  5
2137
  8
0
 10
190.50972488851659
 20
235.6524521860245
 30
0.0
  0
VERTEX
  5
2138
  8
0
 10
190.50969817560829
 20
235.6525759503817
 30
0.0
  0
VERTEX
  5
2139
  8
0
 10
190.5096455117791
 20
235.6528199018673
 30
0.0
  0
VERTEX
  5
213A
  8
0
 10
190.5096096889641
 20
235.6529858062369
 30
0.0
  0
VERTEX
  5
213B
  8
0
 10
190.50956766349711
 20
235.6531804000127
 30
0.0
  0
VERTEX
  5
213C
  8
0
 10
190.50946536718629
 20
235.65365390543781
 30
0.0
  0
VERTEX
  5
213D
  8
0
 10
190.5093393293013
 20
235.65423698355039
 30
0.0
  0
VERTEX
  5
213E
  8
0
 10
190.50919022657311
 20
235.6549263071187
 30
0.0
  0
VERTEX
  5
213F
  8
0
 10
190.50901870642531
 20
235.65571865775431
 30
0.0
  0
VERTEX
  5
2140
  8
0
 10
190.508825387549
 20
235.65661092635759
 30
0.0
  0
VERTEX
  5
2141
  8
0
 10
190.50872073924711
 20
235.65709358807831
 30
0.0
  0
VERTEX
  5
2142
  8
0
 10
190.50861086062591
 20
235.65760011260051
 30
0.0
  0
VERTEX
  5
2143
  8
0
 10
190.5083756891855
 20
235.65868332353111
 30
0.0
  0
VERTEX
  5
2144
  8
0
 10
190.50812041057739
 20
235.65985777139991
 30
0.0
  0
VERTEX
  5
2145
  8
0
 10
190.50784553704199
 20
235.66112077081601
 30
0.0
  0
VERTEX
  5
2146
  8
0
 10
190.50755155685849
 20
235.66246973534231
 30
0.0
  0
VERTEX
  5
2147
  8
0
 10
190.5072389355511
 20
235.6639021736473
 30
0.0
  0
VERTEX
  5
2148
  8
0
 10
190.5070757740354
 20
235.6646489419079
 30
0.0
  0
VERTEX
  5
2149
  8
0
 10
190.50690811713099
 20
235.66541568532671
 30
0.0
  0
VERTEX
  5
214A
  8
0
 10
190.50655952535649
 20
235.66700795650709
 30
0.0
  0
VERTEX
  5
214B
  8
0
 10
190.506193564988
 20
235.66867675533891
 30
0.0
  0
VERTEX
  5
214C
  8
0
 10
190.50600419317871
 20
235.66953917648661
 30
0.0
  0
VERTEX
  5
214D
  8
0
 10
190.50478135911371
 20
235.67508978616701
 30
0.0
  0
VERTEX
  5
214E
  8
0
 10
190.50191747791411
 20
235.68796749624099
 30
0.0
  0
VERTEX
  5
214F
  8
0
 10
190.49854158717611
 20
235.70293519788549
 30
0.0
  0
VERTEX
  5
2150
  8
0
 10
190.4946931703316
 20
235.71972943630959
 30
0.0
  0
VERTEX
  5
2151
  8
0
 10
190.4904034945481
 20
235.73812771022091
 30
0.0
  0
VERTEX
  5
2152
  8
0
 10
190.48569450631919
 20
235.7579534471252
 30
0.0
  0
VERTEX
  5
2153
  8
0
 10
190.48318674052931
 20
235.7683600642535
 30
0.0
  0
VERTEX
  5
2154
  8
0
 10
190.4805779513876
 20
235.77907817222899
 30
0.0
  0
VERTEX
  5
2155
  8
0
 10
190.47505850265549
 20
235.8014062255572
 30
0.0
  0
VERTEX
  5
2156
  8
0
 10
190.46913561116199
 20
235.8248654521183
 30
0.0
  0
VERTEX
  5
2157
  8
0
 10
190.46280491812371
 20
235.84940018818381
 30
0.0
  0
VERTEX
  5
2158
  8
0
 10
190.45607066468691
 20
235.87492357157299
 30
0.0
  0
VERTEX
  5
2159
  8
0
 10
190.44894197300721
 20
235.90133516064489
 30
0.0
  0
VERTEX
  5
215A
  8
0
 10
190.44522926089249
 20
235.9148562790964
 30
0.0
  0
VERTEX
  5
215B
  8
0
 10
190.4414171710103
 20
235.9285792828988
 30
0.0
  0
VERTEX
  5
215C
  8
0
 10
190.43349288275479
 20
235.95660880445189
 30
0.0
  0
VERTEX
  5
215D
  8
0
 10
190.42516434844961
 20
235.9853833950836
 30
0.0
  0
VERTEX
  5
215E
  8
0
 10
190.42084668992129
 20
236.000038994037
 30
0.0
  0
VERTEX
  5
215F
  8
0
 10
190.4164256916284
 20
236.01486811152469
 30
0.0
  0
VERTEX
  5
2160
  8
0
 10
190.40727013983221
 20
236.04503225571341
 30
0.0
  0
VERTEX
  5
2161
  8
0
 10
190.39769020353069
 20
236.0758484699833
 30
0.0
  0
VERTEX
  5
2162
  8
0
 10
190.39273859024399
 20
236.0914932904906
 30
0.0
  0
VERTEX
  5
2163
  8
0
 10
190.38767781801531
 20
236.10729203210249
 30
0.0
  0
VERTEX
  5
2164
  8
0
 10
190.37722445266229
 20
236.13934031627389
 30
0.0
  0
VERTEX
  5
2165
  8
0
 10
190.3663211914583
 20
236.1719723903262
 30
0.0
  0
VERTEX
  5
2166
  8
0
 10
190.32456058620221
 20
236.29029334340709
 30
0.0
  0
VERTEX
  5
2167
  8
0
 10
190.24040991419079
 20
236.50308184761289
 30
0.0
  0
VERTEX
  5
2168
  8
0
 10
190.1408112407172
 20
236.72253428424511
 30
0.0
  0
VERTEX
  5
2169
  8
0
 10
190.02683375576601
 20
236.94279076302499
 30
0.0
  0
VERTEX
  5
216A
  8
0
 10
189.9003040063005
 20
237.15874804473501
 30
0.0
  0
VERTEX
  5
216B
  8
0
 10
189.8313090040015
 20
237.2664368710613
 30
0.0
  0
VERTEX
  5
216C
  8
0
 10
189.75752276446079
 20
237.37496869248139
 30
0.0
  0
VERTEX
  5
216D
  8
0
 10
189.59567604229881
 20
237.59259675051629
 30
0.0
  0
VERTEX
  5
216E
  8
0
 10
189.4926311179704
 20
237.718691595606
 30
0.0
  0
VERTEX
  5
216F
  8
0
 10
189.4620476620141
 20
237.7544726140965
 30
0.0
  0
VERTEX
  5
2170
  8
0
 10
189.43096480663471
 20
237.79011493730249
 30
0.0
  0
VERTEX
  5
2171
  8
0
 10
189.41523768631561
 20
237.80787917890541
 30
0.0
  0
VERTEX
  5
2172
  8
0
 10
189.3993876636942
 20
237.82560288234791
 30
0.0
  0
VERTEX
  5
2173
  8
0
 10
189.3673217339412
 20
237.86092098612289
 30
0.0
  0
VERTEX
  5
2174
  8
0
 10
189.3347728967027
 20
237.89605402381011
 30
0.0
  0
VERTEX
  5
2175
  8
0
 10
189.30174739764411
 20
237.93098702784991
 30
0.0
  0
VERTEX
  5
2176
  8
0
 10
189.26825183441369
 20
237.96570530737031
 30
0.0
  0
VERTEX
  5
2177
  8
0
 10
189.2342931399734
 20
238.0001944680979
 30
0.0
  0
VERTEX
  5
2178
  8
0
 10
189.21714237212331
 20
238.0173487168141
 30
0.0
  0
VERTEX
  5
2179
  8
0
 10
189.1998785634226
 20
238.0344404327509
 30
0.0
  0
VERTEX
  5
217A
  8
0
 10
189.16501564810309
 20
238.06842946189951
 30
0.0
  0
VERTEX
  5
217B
  8
0
 10
189.1297108033389
 20
238.1021495019869
 30
0.0
  0
VERTEX
  5
217C
  8
0
 10
189.09396831304261
 20
238.13559096357011
 30
0.0
  0
VERTEX
  5
217D
  8
0
 10
189.05779649197291
 20
238.1687409108296
 30
0.0
  0
VERTEX
  5
217E
  8
0
 10
189.02120433083991
 20
238.20158640181771
 30
0.0
  0
VERTEX
  5
217F
  8
0
 10
189.00275355521001
 20
238.21789099311479
 30
0.0
  0
VERTEX
  5
2180
  8
0
 10
188.9842012682623
 20
238.2341147211217
 30
0.0
  0
VERTEX
  5
2181
  8
0
 10
188.9467971759511
 20
238.26631340477749
 30
0.0
  0
VERTEX
  5
2182
  8
0
 10
188.9090023413917
 20
238.2981702654024
 30
0.0
  0
VERTEX
  5
2183
  8
0
 10
188.87082744780389
 20
238.32967341753749
 30
0.0
  0
VERTEX
  5
2184
  8
0
 10
188.8322835511517
 20
238.36081130317169
 30
0.0
  0
VERTEX
  5
2185
  8
0
 10
188.79338205397951
 20
238.39157271740319
 30
0.0
  0
VERTEX
  5
2186
  8
0
 10
188.77380085606009
 20
238.40680884909611
 30
0.0
  0
VERTEX
  5
2187
  8
0
 10
188.75413467585281
 20
238.4219468341683
 30
0.0
  0
VERTEX
  5
2188
  8
0
 10
188.7145534201978
 20
238.4519232319449
 30
0.0
  0
VERTEX
  5
2189
  8
0
 10
188.67465053734529
 20
238.4814919193164
 30
0.0
  0
VERTEX
  5
218A
  8
0
 10
188.65458237147581
 20
238.49612037311761
 30
0.0
  0
VERTEX
  5
218B
  8
0
 10
188.634438483427
 20
238.5106433603799
 30
0.0
  0
VERTEX
  5
218C
  8
0
 10
188.59392990899241
 20
238.5393684759612
 30
0.0
  0
VERTEX
  5
218D
  8
0
 10
188.5531378479422
 20
238.56765850703391
 30
0.0
  0
VERTEX
  5
218E
  8
0
 10
188.53263971951159
 20
238.58163769673399
 30
0.0
  0
VERTEX
  5
218F
  8
0
 10
188.51207583157341
 20
238.59550494628681
 30
0.0
  0
VERTEX
  5
2190
  8
0
 10
188.47075786796239
 20
238.62289956822531
 30
0.0
  0
VERTEX
  5
2191
  8
0
 10
188.42919841220589
 20
238.64983446290029
 30
0.0
  0
VERTEX
  5
2192
  8
0
 10
188.3874123328988
 20
238.67630206907069
 30
0.0
  0
VERTEX
  5
2193
  8
0
 10
188.34541487469551
 20
238.70229520665771
 30
0.0
  0
VERTEX
  5
2194
  8
0
 10
188.30322161682719
 20
238.7278071083243
 30
0.0
  0
VERTEX
  5
2195
  8
0
 10
188.28205651187409
 20
238.74038060128919
 30
0.0
  0
VERTEX
  5
2196
  8
0
 10
188.260848427485
 20
238.75283144999389
 30
0.0
  0
VERTEX
  5
2197
  8
0
 10
188.218311414016
 20
238.7773623800984
 30
0.0
  0
VERTEX
  5
2198
  8
0
 10
188.17562686893871
 20
238.80139454732611
 30
0.0
  0
VERTEX
  5
2199
  8
0
 10
188.13281121183451
 20
238.82492312661631
 30
0.0
  0
VERTEX
  5
219A
  8
0
 10
188.08988092725679
 20
238.8479438431327
 30
0.0
  0
VERTEX
  5
219B
  8
0
 10
188.04663530918921
 20
238.8705651934618
 30
0.0
  0
VERTEX
  5
219C
  8
0
 10
188.02482051169221
 20
238.88176270421789
 30
0.0
  0
VERTEX
  5
219D
  8
0
 10
188.00288387147589
 20
238.89287984467589
 30
0.0
  0
VERTEX
  5
219E
  8
0
 10
187.9586638362519
 20
238.91485878319801
 30
0.0
  0
VERTEX
  5
219F
  8
0
 10
187.9140131935487
 20
238.9364745231633
 30
0.0
  0
VERTEX
  5
21A0
  8
0
 10
187.891538427131
 20
238.9471380496706
 30
0.0
  0
SEQEND
  5
21A1
  8
0
  0
LINE
  5
B74
  8
0
 10
155.96391685774981
 20
228.81956119040851
 30
0.0
 11
185.86663070632491
 21
229.9003661541403
 31
0.0
  0
POLYLINE
  5
B75
  8
0
 66
     1
 10
0.0
 20
0.0
 30
0.0
  0
VERTEX
  5
21A2
  8
0
 10
153.85460415265609
 20
229.02419764982
 30
0.0
  0
VERTEX
  5
21A3
  8
0
 10
153.91356562914601
 20
229.01065482592381
 30
0.0
  0
VERTEX
  5
21A4
  8
0
 10
154.0316160637185
 20
228.98494465357331
 30
0.0
  0
VERTEX
  5
21A5
  8
0
 10
154.14979504906199
 20
228.96106800580961
 30
0.0
  0
VERTEX
  5
21A6
  8
0
 10
154.2089173464328
 20
228.94981666669059
 30
0.0
  0
VERTEX
  5
21A7
  8
0
 10
154.2680533822541
 20
228.9390227827943
 30
0.0
  0
VERTEX
  5
21A8
  8
0
 10
154.38634182253961
 20
228.91880524559301
 30
0.0
  0
VERTEX
  5
21A9
  8
0
 10
154.5046101736001
 20
228.90041015985159
 30
0.0
  0
VERTEX
  5
21AA
  8
0
 10
154.62280751770129
 20
228.88383070020089
 30
0.0
  0
VERTEX
  5
21AB
  8
0
 10
154.7408823349225
 20
228.86905838828849
 30
0.0
  0
VERTEX
  5
21AC
  8
0
 10
154.8587826228293
 20
228.85608303999899
 30
0.0
  0
VERTEX
  5
21AD
  8
0
 10
154.91765096515101
 20
228.85026556730199
 30
0.0
  0
VERTEX
  5
21AE
  8
0
 10
154.97645601663419
 20
228.84489272167741
 30
0.0
  0
VERTEX
  5
21AF
  8
0
 10
155.09384990994479
 20
228.83547371520001
 30
0.0
  0
VERTEX
  5
21B0
  8
0
 10
155.21091157625281
 20
228.82781049177521
 30
0.0
  0
VERTEX
  5
21B1
  8
0
 10
155.32758829137191
 20
228.82188569440561
 30
0.0
  0
VERTEX
  5
21B2
  8
0
 10
155.44382745707941
 20
228.81768012898539
 30
0.0
  0
VERTEX
  5
21B3
  8
0
 10
155.55957672627329
 20
228.81517276406061
 30
0.0
  0
VERTEX
  5
21B4
  8
0
 10
155.6172513910891
 20
228.81454883396771
 30
0.0
  0
VERTEX
  5
21B5
  8
0
 10
155.67478412999679
 20
228.81434073933929
 30
0.0
  0
VERTEX
  5
21B6
  8
0
 10
155.7900092238136
 20
228.8151681483061
 30
0.0
  0
VERTEX
  5
21B7
  8
0
 10
155.90581390022351
 20
228.81767247261649
 30
0.0
  0
VERTEX
  5
21B8
  8
0
 10
155.96391685774981
 20
228.81956119040851
 30
0.0
  0
SEQEND
  5
21B9
  8
0
  0
POLYLINE
  5
B76
  8
0
 66
     1
 10
0.0
 20
0.0
 30
0.0
  0
VERTEX
  5
21BA
  8
0
 10
132.46037158297489
 20
228.06149593131229
 30
0.0
  0
VERTEX
  5
21BB
  8
0
 10
133.02442011938251
 20
228.2434133824963
 30
0.0
  0
VERTEX
  5
21BC
  8
0
 10
134.152170627624
 20
228.57944485447089
 30
0.0
  0
VERTEX
  5
21BD
  8
0
 10
135.27683445125811
 20
228.8785838552065
 30
0.0
  0
VERTEX
  5
21BE
  8
0
 10
135.83700496157951
 20
229.0144408265314
 30
0.0
  0
VERTEX
  5
21BF
  8
0
 10
136.3951881243556
 20
229.14125080678139
 30
0.0
  0
VERTEX
  5
21C0
  8
0
 10
137.51188893006531
 20
229.3696147091502
 30
0.0
  0
VERTEX
  5
21C1
  8
0
 10
138.6519619834225
 20
229.56841522948599
 30
0.0
  0
VERTEX
  5
21C2
  8
0
 10
139.81496571712231
 20
229.7360050236835
 30
0.0
  0
VERTEX
  5
21C3
  8
0
 10
140.9979272575732
 20
229.8704556176053
 30
0.0
  0
VERTEX
  5
21C4
  8
0
 10
142.19782856494831
 20
229.9701047365032
 30
0.0
  0
VERTEX
  5
21C5
  8
0
 10
142.8031867399846
 20
230.00643311901999
 30
0.0
  0
VERTEX
  5
21C6
  8
0
 10
143.41164662553231
 20
230.0335598598013
 30
0.0
  0
VERTEX
  5
21C7
  8
0
 10
144.63631656697081
 20
230.05969469776511
 30
0.0
  0
VERTEX
  5
21C8
  8
0
 10
145.86870748746071
 20
230.04765324916249
 30
0.0
  0
VERTEX
  5
21C9
  8
0
 10
147.10567233183619
 20
229.9968555085342
 30
0.0
  0
VERTEX
  5
21CA
  8
0
 10
148.34404275928441
 20
229.90700013233379
 30
0.0
  0
VERTEX
  5
21CB
  8
0
 10
149.58094173822661
 20
229.77803145301411
 30
0.0
  0
VERTEX
  5
21CC
  8
0
 10
150.19793603844809
 20
229.69893004521421
 30
0.0
  0
VERTEX
  5
21CD
  8
0
 10
150.81342975946649
 20
229.61014952129301
 30
0.0
  0
VERTEX
  5
21CE
  8
0
 10
152.03833494666421
 20
229.40385541925519
 30
0.0
  0
VERTEX
  5
21CF
  8
0
 10
153.2525136283941
 20
229.15993827116449
 30
0.0
  0
VERTEX
  5
21D0
  8
0
 10
153.85460415265609
 20
229.02419764982
 30
0.0
  0
SEQEND
  5
21D1
  8
0
  0
POLYLINE
  5
B77
  8
0
 66
     1
 10
0.0
 20
0.0
 30
0.0
  0
VERTEX
  5
21D2
  8
0
 10
118.6561279002669
 20
228.18496588139161
 30
0.0
  0
VERTEX
  5
21D3
  8
0
 10
118.7064930870782
 20
228.1311638959593
 30
0.0
  0
VERTEX
  5
21D4
  8
0
 10
118.80821335957
 20
228.02500176926259
 30
0.0
  0
VERTEX
  5
21D5
  8
0
 10
118.91119707456799
 20
227.9207926304982
 30
0.0
  0
VERTEX
  5
21D6
  8
0
 10
118.9631411603398
 20
227.86943134679501
 30
0.0
  0
VERTEX
  5
21D7
  8
0
 10
119.01537524434499
 20
227.81857090503621
 30
0.0
  0
VERTEX
  5
21D8
  8
0
 10
119.1206780603285
 20
227.7183679414334
 30
0.0
  0
VERTEX
  5
21D9
  8
0
 10
119.2270332412258
 20
227.6202136498201
 30
0.0
  0
VERTEX
  5
21DA
  8
0
 10
119.3343662102158
 20
227.52413623917641
 30
0.0
  0
VERTEX
  5
21DB
  8
0
 10
119.44260024998481
 20
227.43016200715221
 30
0.0
  0
VERTEX
  5
21DC
  8
0
 10
119.5516566410483
 20
227.3383151704885
 30
0.0
  0
VERTEX
  5
21DD
  8
0
 10
119.6064681062129
 20
227.2931964863798
 30
0.0
  0
VERTEX
  5
21DE
  8
0
 10
119.6614548052264
 20
227.2486177129289
 30
0.0
  0
VERTEX
  5
21DF
  8
0
 10
119.77191245417551
 20
227.16108924959261
 30
0.0
  0
VERTEX
  5
21E0
  8
0
 10
119.8829457430631
 20
227.07574690680741
 30
0.0
  0
VERTEX
  5
21E1
  8
0
 10
119.99446942964801
 20
226.99260521643569
 30
0.0
  0
VERTEX
  5
21E2
  8
0
 10
120.1063970392118
 20
226.9116760237749
 30
0.0
  0
VERTEX
  5
21E3
  8
0
 10
120.218706839193
 20
226.83292297080681
 30
0.0
  0
VERTEX
  5
21E4
  8
0
 10
120.2753219946555
 20
226.7941316078296
 30
0.0
  0
VERTEX
  5
21E5
  8
0
 10
120.3323541977208
 20
226.75565768703299
 30
0.0
  0
VERTEX
  5
21E6
  8
0
 10
120.4476506404912
 20
226.67969208734931
 30
0.0
  0
VERTEX
  5
21E7
  8
0
 10
120.5645569153143
 20
226.6050849029856
 30
0.0
  0
VERTEX
  5
21E8
  8
0
 10
120.62360103966419
 20
226.56830857281571
 30
0.0
  0
VERTEX
  5
21E9
  8
0
 10
120.6830321966702
 20
226.5318930375048
 30
0.0
  0
VERTEX
  5
21EA
  8
0
 10
120.803034216716
 20
226.4601714778689
 30
0.0
  0
VERTEX
  5
21EB
  8
0
 10
120.9245193990069
 20
226.3899732167711
 30
0.0
  0
VERTEX
  5
21EC
  8
0
 10
120.9858042341329
 20
226.35546132138629
 30
0.0
  0
VERTEX
  5
21ED
  8
0
 10
121.04744299530419
 20
226.32134918564651
 30
0.0
  0
VERTEX
  5
21EE
  8
0
 10
121.17175922583419
 20
226.25434819787549
 30
0.0
  0
VERTEX
  5
21EF
  8
0
 10
121.2974214233556
 20
226.18901690180991
 30
0.0
  0
VERTEX
  5
21F0
  8
0
 10
121.4243821813768
 20
226.12539974335189
 30
0.0
  0
VERTEX
  5
21F1
  8
0
 10
121.55259350685679
 20
226.06353893791311
 30
0.0
  0
VERTEX
  5
21F2
  8
0
 10
121.6820069776979
 20
226.00347445167719
 30
0.0
  0
VERTEX
  5
21F3
  8
0
 10
121.747149303575
 20
225.9741277022666
 30
0.0
  0
VERTEX
  5
21F4
  8
0
 10
121.8125738384623
 20
225.9452440213918
 30
0.0
  0
VERTEX
  5
21F5
  8
0
 10
121.9442445042946
 20
225.8888834267056
 30
0.0
  0
VERTEX
  5
21F6
  8
0
 10
122.0769681059252
 20
225.83442668773449
 30
0.0
  0
VERTEX
  5
21F7
  8
0
 10
122.2106925708901
 20
225.7819060049604
 30
0.0
  0
VERTEX
  5
21F8
  8
0
 10
122.345364750554
 20
225.73135168803401
 30
0.0
  0
VERTEX
  5
21F9
  8
0
 10
122.48093054813759
 20
225.68279209434331
 30
0.0
  0
VERTEX
  5
21FA
  8
0
 10
122.5490314209528
 20
225.65926863357109
 30
0.0
  0
VERTEX
  5
21FB
  8
0
 10
122.6173350480929
 20
225.6362535769361
 30
0.0
  0
VERTEX
  5
21FC
  8
0
 10
122.7545226471798
 20
225.5917604414615
 30
0.0
  0
VERTEX
  5
21FD
  8
0
 10
122.8924371876161
 20
225.5493349118785
 30
0.0
  0
VERTEX
  5
21FE
  8
0
 10
123.03102209267981
 20
225.50899710475571
 30
0.0
  0
VERTEX
  5
21FF
  8
0
 10
123.17022050514839
 20
225.47076501206561
 30
0.0
  0
VERTEX
  5
2200
  8
0
 10
123.30997542896731
 20
225.43465449244869
 30
0.0
  0
VERTEX
  5
2201
  8
0
 10
123.3800441421202
 20
225.4173991044417
 30
0.0
  0
VERTEX
  5
2202
  8
0
 10
123.4502357043097
 20
225.40067790559681
 30
0.0
  0
VERTEX
  5
2203
  8
0
 10
123.5909630330161
 20
225.36884308530551
 30
0.0
  0
VERTEX
  5
2204
  8
0
 10
123.7321009853752
 20
225.33916066124851
 30
0.0
  0
VERTEX
  5
2205
  8
0
 10
123.87359077282019
 20
225.31163969973511
 30
0.0
  0
VERTEX
  5
2206
  8
0
 10
124.0153727995492
 20
225.28628728240989
 30
0.0
  0
VERTEX
  5
2207
  8
0
 10
124.15738679456901
 20
225.26310844989021
 30
0.0
  0
VERTEX
  5
2208
  8
0
 10
124.22846179352339
 20
225.25233513325449
 30
0.0
  0
VERTEX
  5
2209
  8
0
 10
124.29957194442019
 20
225.24210615466691
 30
0.0
  0
VERTEX
  5
220A
  8
0
 10
124.4418670269212
 20
225.22328122307309
 30
0.0
  0
VERTEX
  5
220B
  8
0
 10
124.5842105462969
 20
225.20663232619029
 30
0.0
  0
VERTEX
  5
220C
  8
0
 10
124.7265408700864
 20
225.19215595963601
 30
0.0
  0
VERTEX
  5
220D
  8
0
 10
124.86879636825149
 20
225.17984643224551
 30
0.0
  0
VERTEX
  5
220E
  8
0
 10
125.010915554929
 20
225.1696958637352
 30
0.0
  0
VERTEX
  5
220F
  8
0
 10
125.081904892129
 20
225.16542712936891
 30
0.0
  0
VERTEX
  5
2210
  8
0
 10
125.1528372329371
 20
225.16169419152919
 30
0.0
  0
VERTEX
  5
2211
  8
0
 10
125.2945004738817
 20
225.1558291926373
 30
0.0
  0
VERTEX
  5
2212
  8
0
 10
125.4358439332962
 20
225.15208651292639
 30
0.0
  0
VERTEX
  5
2213
  8
0
 10
125.5063763805728
 20
225.1510059660196
 30
0.0
  0
VERTEX
  5
2214
  8
0
 10
125.57680556963081
 20
225.1504496303761
 30
0.0
  0
VERTEX
  5
2215
  8
0
 10
125.7173227817768
 20
225.15089979513141
 30
0.0
  0
VERTEX
  5
2216
  8
0
 10
125.8573325596325
 20
225.153415979594
 30
0.0
  0
VERTEX
  5
2217
  8
0
 10
125.92712739504729
 20
225.15544162540959
 30
0.0
  0
VERTEX
  5
2218
  8
0
 10
125.9967716337266
 20
225.1579748392337
 30
0.0
  0
VERTEX
  5
2219
  8
0
 10
126.1355766241702
 20
225.16455068395791
 30
0.0
  0
VERTEX
  5
221A
  8
0
 10
126.2736841892708
 20
225.173115459949
 30
0.0
  0
VERTEX
  5
221B
  8
0
 10
126.41103117419379
 20
225.1836387419535
 30
0.0
  0
VERTEX
  5
221C
  8
0
 10
126.5475547601168
 20
225.19608773608681
 30
0.0
  0
VERTEX
  5
221D
  8
0
 10
126.68319261437711
 20
225.2104272933058
 30
0.0
  0
VERTEX
  5
221E
  8
0
 10
126.7506600834018
 20
225.2182944107783
 30
0.0
  0
VERTEX
  5
221F
  8
0
 10
126.81788421134409
 20
225.22662008282239
 30
0.0
  0
VERTEX
  5
2220
  8
0
 10
126.9524731472337
 20
225.244754798515
 30
0.0
  0
VERTEX
  5
2221
  8
0
 10
127.0876726119927
 20
225.2649500359403
 30
0.0
  0
VERTEX
  5
2222
  8
0
 10
127.2234090507541
 20
225.28723295248861
 30
0.0
  0
VERTEX
  5
2223
  8
0
 10
127.3596086666942
 20
225.3116281328835
 30
0.0
  0
VERTEX
  5
2224
  8
0
 10
127.496197580065
 20
225.33815758865279
 30
0.0
  0
VERTEX
  5
2225
  8
0
 10
127.564614952114
 20
225.35222884723001
 30
0.0
  0
VERTEX
  5
2226
  8
0
 10
127.6331019863261
 20
225.36684076897919
 30
0.0
  0
VERTEX
  5
2227
  8
0
 10
127.7702483140238
 20
225.39769458319341
 30
0.0
  0
VERTEX
  5
2228
  8
0
 10
127.9075633829664
 20
225.43073343525739
 30
0.0
  0
VERTEX
  5
2229
  8
0
 10
128.04497456314169
 20
225.4659692706721
 30
0.0
  0
VERTEX
  5
222A
  8
0
 10
128.18240993472401
 20
225.50341163631771
 30
0.0
  0
VERTEX
  5
222B
  8
0
 10
128.31979844941111
 20
225.54306775380559
 30
0.0
  0
VERTEX
  5
222C
  8
0
 10
128.38845321116639
 20
225.5637276116619
 30
0.0
  0
VERTEX
  5
222D
  8
0
 10
128.4570700932305
 20
225.58494260698509
 30
0.0
  0
VERTEX
  5
222E
  8
0
 10
128.5941559856999
 20
225.62903902279839
 30
0.0
  0
VERTEX
  5
222F
  8
0
 10
128.73098781970219
 20
225.67535753184049
 30
0.0
  0
VERTEX
  5
2230
  8
0
 10
128.86749729952601
 20
225.72389616913449
 30
0.0
  0
VERTEX
  5
2231
  8
0
 10
129.00361624620371
 20
225.77465046735469
 30
0.0
  0
VERTEX
  5
2232
  8
0
 10
129.1392767670838
 20
225.82761348104441
 30
0.0
  0
VERTEX
  5
2233
  8
0
 10
129.2069140207021
 20
225.85492041657221
 30
0.0
  0
VERTEX
  5
2234
  8
0
 10
129.2744114222688
 20
225.88277582189571
 30
0.0
  0
VERTEX
  5
2235
  8
0
 10
129.40895338835381
 20
225.9401257053714
 30
0.0
  0
VERTEX
  5
2236
  8
0
 10
129.54283661983561
 20
225.9996490090295
 30
0.0
  0
VERTEX
  5
2237
  8
0
 10
129.67599600849891
 20
226.0613293429777
 30
0.0
  0
VERTEX
  5
2238
  8
0
 10
129.8083675410129
 20
226.1251481329563
 30
0.0
  0
VERTEX
  5
2239
  8
0
 10
129.93988845489949
 20
226.19108471660741
 30
0.0
  0
VERTEX
  5
223A
  8
0
 10
130.005310696647
 20
226.224840179903
 30
0.0
  0
VERTEX
  5
223B
  8
0
 10
130.0704973929555
 20
226.25911645354611
 30
0.0
  0
VERTEX
  5
223C
  8
0
 10
130.20014649233431
 20
226.32922542468481
 30
0.0
  0
VERTEX
  5
223D
  8
0
 10
130.32879221145259
 20
226.4013944637056
 30
0.0
  0
VERTEX
  5
223E
  8
0
 10
130.3927203116441
 20
226.43824291578341
 30
0.0
  0
VERTEX
  5
223F
  8
0
 10
130.4563754204552
 20
226.47559575356951
 30
0.0
  0
VERTEX
  5
2240
  8
0
 10
130.58283743950079
 20
226.5517989547304
 30
0.0
  0
VERTEX
  5
2241
  8
0
 10
130.7081202951955
 20
226.62997129064249
 30
0.0
  0
VERTEX
  5
2242
  8
0
 10
130.77030165717389
 20
226.669784989189
 30
0.0
  0
VERTEX
  5
2243
  8
0
 10
130.83216689856499
 20
226.71007760601859
 30
0.0
  0
VERTEX
  5
2244
  8
0
 10
130.95492121790281
 20
226.79208043688649
 30
0.0
  0
VERTEX
  5
2245
  8
0
 10
131.0763284467215
 20
226.8759400927832
 30
0.0
  0
VERTEX
  5
2246
  8
0
 10
131.19633516699619
 20
226.96161475150251
 30
0.0
  0
VERTEX
  5
2247
  8
0
 10
131.31488950785459
 20
227.04906056688819
 30
0.0
  0
VERTEX
  5
2248
  8
0
 10
131.43194129981481
 20
227.1382317902432
 30
0.0
  0
VERTEX
  5
2249
  8
0
 10
131.4898885641845
 20
227.1834496462979
 30
0.0
  0
VERTEX
  5
224A
  8
0
 10
131.54744222462921
 20
227.22908090599421
 30
0.0
  0
VERTEX
  5
224B
  8
0
 10
131.66134645763611
 20
227.32155919216819
 30
0.0
  0
VERTEX
  5
224C
  8
0
 10
131.77360949027559
 20
227.41561582990789
 30
0.0
  0
VERTEX
  5
224D
  8
0
 10
131.8841867142074
 20
227.51119661643801
 30
0.0
  0
VERTEX
  5
224E
  8
0
 10
131.9930347985389
 20
227.60824496427171
 30
0.0
  0
VERTEX
  5
224F
  8
0
 10
132.10011188879511
 20
227.70670200928461
 30
0.0
  0
VERTEX
  5
2250
  8
0
 10
132.1529736789474
 20
227.7564398023253
 30
0.0
  0
VERTEX
  5
2251
  8
0
 10
132.20537778346869
 20
227.80650672006149
 30
0.0
  0
VERTEX
  5
2252
  8
0
 10
132.3087941023139
 20
227.90759602003479
 30
0.0
  0
VERTEX
  5
2253
  8
0
 10
132.41032444653891
 20
228.00990492285689
 30
0.0
  0
VERTEX
  5
2254
  8
0
 10
132.46037158297489
 20
228.06149593131229
 30
0.0
  0
SEQEND
  5
2255
  8
0
  0
POLYLINE
  5
B79
  8
0
 66
     1
 10
0.0
 20
0.0
 30
0.0
  0
VERTEX
  5
2256
  8
0
 10
132.46037158297489
 20
241.23923637696831
 30
0.0
  0
VERTEX
  5
2257
  8
0
 10
132.41032444653891
 20
241.2908273854236
 30
0.0
  0
VERTEX
  5
2258
  8
0
 10
132.3087941023139
 20
241.3931362882457
 30
0.0
  0
VERTEX
  5
2259
  8
0
 10
132.20537778346869
 20
241.494225588219
 30
0.0
  0
VERTEX
  5
225A
  8
0
 10
132.1529736789474
 20
241.5442925059553
 30
0.0
  0
VERTEX
  5
225B
  8
0
 10
132.10011188879511
 20
241.59403029899599
 30
0.0
  0
VERTEX
  5
225C
  8
0
 10
131.9930347985389
 20
241.69248734400881
 30
0.0
  0
VERTEX
  5
225D
  8
0
 10
131.8841867142074
 20
241.78953569184259
 30
0.0
  0
VERTEX
  5
225E
  8
0
 10
131.7736094902757
 20
241.88511647837279
 30
0.0
  0
VERTEX
  5
225F
  8
0
 10
131.66134645763611
 20
241.97917311611241
 30
0.0
  0
VERTEX
  5
2260
  8
0
 10
131.54744222462921
 20
242.07165140228631
 30
0.0
  0
VERTEX
  5
2261
  8
0
 10
131.4898885641845
 20
242.1172826619827
 30
0.0
  0
VERTEX
  5
2262
  8
0
 10
131.43194129981481
 20
242.1625005180374
 30
0.0
  0
VERTEX
  5
2263
  8
0
 10
131.31488950785459
 20
242.25167174139241
 30
0.0
  0
VERTEX
  5
2264
  8
0
 10
131.19633516699619
 20
242.33911755677809
 30
0.0
  0
VERTEX
  5
2265
  8
0
 10
131.0763284467215
 20
242.4247922154974
 30
0.0
  0
VERTEX
  5
2266
  8
0
 10
130.95492121790301
 20
242.50865187139411
 30
0.0
  0
VERTEX
  5
2267
  8
0
 10
130.83216689856511
 20
242.59065470226199
 30
0.0
  0
VERTEX
  5
2268
  8
0
 10
130.77030165717389
 20
242.6309473190916
 30
0.0
  0
VERTEX
  5
2269
  8
0
 10
130.7081202951955
 20
242.67076101763811
 30
0.0
  0
VERTEX
  5
226A
  8
0
 10
130.58283743950079
 20
242.7489333535502
 30
0.0
  0
VERTEX
  5
226B
  8
0
 10
130.4563754204552
 20
242.82513655471109
 30
0.0
  0
VERTEX
  5
226C
  8
0
 10
130.3927203116441
 20
242.8624893924972
 30
0.0
  0
VERTEX
  5
226D
  8
0
 10
130.32879221145271
 20
242.899337844575
 30
0.0
  0
VERTEX
  5
226E
  8
0
 10
130.2001464923344
 20
242.97150688359571
 30
0.0
  0
VERTEX
  5
226F
  8
0
 10
130.0704973929555
 20
243.04161585473449
 30
0.0
  0
VERTEX
  5
2270
  8
0
 10
130.005310696647
 20
243.07589212837749
 30
0.0
  0
VERTEX
  5
2271
  8
0
 10
129.9398884548996
 20
243.10964759167319
 30
0.0
  0
VERTEX
  5
2272
  8
0
 10
129.80836754101301
 20
243.17558417532419
 30
0.0
  0
VERTEX
  5
2273
  8
0
 10
129.67599600849891
 20
243.2394029653029
 30
0.0
  0
VERTEX
  5
2274
  8
0
 10
129.54283661983561
 20
243.3010832992511
 30
0.0
  0
VERTEX
  5
2275
  8
0
 10
129.40895338835381
 20
243.3606066029092
 30
0.0
  0
VERTEX
  5
2276
  8
0
 10
129.2744114222688
 20
243.4179564863849
 30
0.0
  0
VERTEX
  5
2277
  8
0
 10
129.2069140207021
 20
243.44581189170839
 30
0.0
  0
VERTEX
  5
2278
  8
0
 10
129.1392767670838
 20
243.47311882723611
 30
0.0
  0
VERTEX
  5
2279
  8
0
 10
129.00361624620379
 20
243.52608184092591
 30
0.0
  0
VERTEX
  5
227A
  8
0
 10
128.86749729952609
 20
243.57683613914611
 30
0.0
  0
VERTEX
  5
227B
  8
0
 10
128.73098781970219
 20
243.62537477644011
 30
0.0
  0
VERTEX
  5
227C
  8
0
 10
128.59415598570001
 20
243.67169328548209
 30
0.0
  0
VERTEX
  5
227D
  8
0
 10
128.4570700932305
 20
243.71578970129551
 30
0.0
  0
VERTEX
  5
227E
  8
0
 10
128.38845321116651
 20
243.7370046966187
 30
0.0
  0
VERTEX
  5
227F
  8
0
 10
128.31979844941111
 20
243.75766455447501
 30
0.0
  0
VERTEX
  5
2280
  8
0
 10
128.18240993472401
 20
243.79732067196289
 30
0.0
  0
VERTEX
  5
2281
  8
0
 10
128.04497456314181
 20
243.8347630376085
 30
0.0
  0
VERTEX
  5
2282
  8
0
 10
127.9075633829664
 20
243.86999887302321
 30
0.0
  0
VERTEX
  5
2283
  8
0
 10
127.7702483140238
 20
243.90303772508719
 30
0.0
  0
VERTEX
  5
2284
  8
0
 10
127.6331019863261
 20
243.93389153930141
 30
0.0
  0
VERTEX
  5
2285
  8
0
 10
127.5646149521141
 20
243.94850346105051
 30
0.0
  0
VERTEX
  5
2286
  8
0
 10
127.496197580065
 20
243.96257471962781
 30
0.0
  0
VERTEX
  5
2287
  8
0
 10
127.3596086666942
 20
243.9891041753971
 30
0.0
  0
VERTEX
  5
2288
  8
0
 10
127.2234090507541
 20
244.01349935579199
 30
0.0
  0
VERTEX
  5
2289
  8
0
 10
127.0876726119927
 20
244.03578227234041
 30
0.0
  0
VERTEX
  5
228A
  8
0
 10
126.9524731472337
 20
244.05597750976551
 30
0.0
  0
VERTEX
  5
228B
  8
0
 10
126.81788421134419
 20
244.07411222545821
 30
0.0
  0
VERTEX
  5
228C
  8
0
 10
126.7506600834018
 20
244.0824378975023
 30
0.0
  0
VERTEX
  5
228D
  8
0
 10
126.68319261437711
 20
244.09030501497469
 30
0.0
  0
VERTEX
  5
228E
  8
0
 10
126.5475547601168
 20
244.10464457219379
 30
0.0
  0
VERTEX
  5
228F
  8
0
 10
126.41103117419379
 20
244.11709356632721
 30
0.0
  0
VERTEX
  5
2290
  8
0
 10
126.2736841892708
 20
244.12761684833151
 30
0.0
  0
VERTEX
  5
2291
  8
0
 10
126.1355766241702
 20
244.13618162432269
 30
0.0
  0
VERTEX
  5
2292
  8
0
 10
125.9967716337266
 20
244.1427574690469
 30
0.0
  0
VERTEX
  5
2293
  8
0
 10
125.92712739504729
 20
244.14529068287101
 30
0.0
  0
VERTEX
  5
2294
  8
0
 10
125.8573325596326
 20
244.1473163286866
 30
0.0
  0
VERTEX
  5
2295
  8
0
 10
125.7173227817768
 20
244.14983251314919
 30
0.0
  0
VERTEX
  5
2296
  8
0
 10
125.57680556963091
 20
244.1502826779045
 30
0.0
  0
VERTEX
  5
2297
  8
0
 10
125.5063763805728
 20
244.149726342261
 30
0.0
  0
VERTEX
  5
2298
  8
0
 10
125.4358439332962
 20
244.14864579535421
 30
0.0
  0
VERTEX
  5
2299
  8
0
 10
125.2945004738818
 20
244.1449031156433
 30
0.0
  0
VERTEX
  5
229A
  8
0
 10
125.1528372329371
 20
244.13903811675149
 30
0.0
  0
VERTEX
  5
229B
  8
0
 10
125.081904892129
 20
244.13530517891181
 30
0.0
  0
VERTEX
  5
229C
  8
0
 10
125.010915554929
 20
244.1310364445454
 30
0.0
  0
VERTEX
  5
229D
  8
0
 10
124.86879636825149
 20
244.12088587603509
 30
0.0
  0
VERTEX
  5
229E
  8
0
 10
124.7265408700864
 20
244.10857634864459
 30
0.0
  0
VERTEX
  5
229F
  8
0
 10
124.5842105462969
 20
244.09409998209031
 30
0.0
  0
VERTEX
  5
22A0
  8
0
 10
124.4418670269212
 20
244.07745108520751
 30
0.0
  0
VERTEX
  5
22A1
  8
0
 10
124.29957194442019
 20
244.0586261536136
 30
0.0
  0
VERTEX
  5
22A2
  8
0
 10
124.22846179352339
 20
244.04839717502611
 30
0.0
  0
VERTEX
  5
22A3
  8
0
 10
124.15738679456901
 20
244.0376238583905
 30
0.0
  0
VERTEX
  5
22A4
  8
0
 10
124.0153727995492
 20
244.01444502587071
 30
0.0
  0
VERTEX
  5
22A5
  8
0
 10
123.87359077282019
 20
243.98909260854549
 30
0.0
  0
VERTEX
  5
22A6
  8
0
 10
123.7321009853752
 20
243.96157164703209
 30
0.0
  0
VERTEX
  5
22A7
  8
0
 10
123.5909630330161
 20
243.93188922297509
 30
0.0
  0
VERTEX
  5
22A8
  8
0
 10
123.4502357043097
 20
243.90005440268379
 30
0.0
  0
VERTEX
  5
22A9
  8
0
 10
123.3800441421202
 20
243.8833332038389
 30
0.0
  0
VERTEX
  5
22AA
  8
0
 10
123.30997542896731
 20
243.86607781583189
 30
0.0
  0
VERTEX
  5
22AB
  8
0
 10
123.17022050514839
 20
243.82996729621499
 30
0.0
  0
VERTEX
  5
22AC
  8
0
 10
123.03102209267981
 20
243.79173520352481
 30
0.0
  0
VERTEX
  5
22AD
  8
0
 10
122.8924371876161
 20
243.7513973964021
 30
0.0
  0
VERTEX
  5
22AE
  8
0
 10
122.7545226471798
 20
243.7089718668191
 30
0.0
  0
VERTEX
  5
22AF
  8
0
 10
122.6173350480929
 20
243.6644787313445
 30
0.0
  0
VERTEX
  5
22B0
  8
0
 10
122.5490314209529
 20
243.6414636747096
 30
0.0
  0
VERTEX
  5
22B1
  8
0
 10
122.48093054813759
 20
243.61794021393729
 30
0.0
  0
VERTEX
  5
22B2
  8
0
 10
122.345364750554
 20
243.5693806202467
 30
0.0
  0
VERTEX
  5
22B3
  8
0
 10
122.2106925708902
 20
243.5188263033202
 30
0.0
  0
VERTEX
  5
22B4
  8
0
 10
122.0769681059252
 20
243.46630562054619
 30
0.0
  0
VERTEX
  5
22B5
  8
0
 10
121.9442445042946
 20
243.4118488815752
 30
0.0
  0
VERTEX
  5
22B6
  8
0
 10
121.8125738384624
 20
243.3554882868888
 30
0.0
  0
VERTEX
  5
22B7
  8
0
 10
121.747149303575
 20
243.32660460601409
 30
0.0
  0
VERTEX
  5
22B8
  8
0
 10
121.6820069776979
 20
243.29725785660341
 30
0.0
  0
VERTEX
  5
22B9
  8
0
 10
121.55259350685699
 20
243.23719337036749
 30
0.0
  0
VERTEX
  5
22BA
  8
0
 10
121.4243821813769
 20
243.17533256492879
 30
0.0
  0
VERTEX
  5
22BB
  8
0
 10
121.2974214233557
 20
243.11171540647069
 30
0.0
  0
VERTEX
  5
22BC
  8
0
 10
121.17175922583419
 20
243.0463841104052
 30
0.0
  0
VERTEX
  5
22BD
  8
0
 10
121.04744299530419
 20
242.97938312263409
 30
0.0
  0
VERTEX
  5
22BE
  8
0
 10
120.9858042341329
 20
242.94527098689429
 30
0.0
  0
VERTEX
  5
22BF
  8
0
 10
120.9245193990069
 20
242.9107590915095
 30
0.0
  0
VERTEX
  5
22C0
  8
0
 10
120.803034216716
 20
242.8405608304117
 30
0.0
  0
VERTEX
  5
22C1
  8
0
 10
120.6830321966702
 20
242.7688392707758
 30
0.0
  0
VERTEX
  5
22C2
  8
0
 10
120.62360103966419
 20
242.73242373546489
 30
0.0
  0
VERTEX
  5
22C3
  8
0
 10
120.5645569153143
 20
242.6956474052952
 30
0.0
  0
VERTEX
  5
22C4
  8
0
 10
120.4476506404912
 20
242.62104022093129
 30
0.0
  0
VERTEX
  5
22C5
  8
0
 10
120.3323541977208
 20
242.54507462124749
 30
0.0
  0
VERTEX
  5
22C6
  8
0
 10
120.2753219946555
 20
242.506600700451
 30
0.0
  0
VERTEX
  5
22C7
  8
0
 10
120.218706839193
 20
242.4678093374738
 30
0.0
  0
VERTEX
  5
22C8
  8
0
 10
120.1063970392118
 20
242.38905628450561
 30
0.0
  0
VERTEX
  5
22C9
  8
0
 10
119.99446942964801
 20
242.3081270918448
 30
0.0
  0
VERTEX
  5
22CA
  8
0
 10
119.8829457430631
 20
242.22498540147319
 30
0.0
  0
VERTEX
  5
22CB
  8
0
 10
119.77191245417551
 20
242.13964305868799
 30
0.0
  0
VERTEX
  5
22CC
  8
0
 10
119.6614548052264
 20
242.0521145953517
 30
0.0
  0
VERTEX
  5
22CD
  8
0
 10
119.6064681062129
 20
242.0075358219008
 30
0.0
  0
VERTEX
  5
22CE
  8
0
 10
119.5516566410483
 20
241.9624171377921
 30
0.0
  0
VERTEX
  5
22CF
  8
0
 10
119.44260024998481
 20
241.8705703011284
 30
0.0
  0
VERTEX
  5
22D0
  8
0
 10
119.3343662102158
 20
241.7765960691041
 30
0.0
  0
VERTEX
  5
22D1
  8
0
 10
119.2270332412258
 20
241.6805186584605
 30
0.0
  0
VERTEX
  5
22D2
  8
0
 10
119.1206780603285
 20
241.58236436684729
 30
0.0
  0
VERTEX
  5
22D3
  8
0
 10
119.01537524434499
 20
241.48216140324439
 30
0.0
  0
VERTEX
  5
22D4
  8
0
 10
118.9631411603398
 20
241.4313009614855
 30
0.0
  0
VERTEX
  5
22D5
  8
0
 10
118.91119707456799
 20
241.3799396777824
 30
0.0
  0
VERTEX
  5
22D6
  8
0
 10
118.80821335957
 20
241.27573053901801
 30
0.0
  0
VERTEX
  5
22D7
  8
0
 10
118.7064930870782
 20
241.1695684123213
 30
0.0
  0
VERTEX
  5
22D8
  8
0
 10
118.6561279002669
 20
241.11576642688891
 30
0.0
  0
SEQEND
  5
22D9
  8
0
  0
POLYLINE
  5
B7A
  8
0
 66
     1
 10
0.0
 20
0.0
 30
0.0
  0
VERTEX
  5
22DA
  8
0
 10
153.8546039204918
 20
240.2765346042099
 30
0.0
  0
VERTEX
  5
22DB
  8
0
 10
153.25251340130421
 20
240.1407939877802
 30
0.0
  0
VERTEX
  5
22DC
  8
0
 10
152.03833473037159
 20
239.89687684909109
 30
0.0
  0
VERTEX
  5
22DD
  8
0
 10
150.81342955475739
 20
239.6905827558129
 30
0.0
  0
VERTEX
  5
22DE
  8
0
 10
150.19793583979509
 20
239.60180223600659
 30
0.0
  0
VERTEX
  5
22DF
  8
0
 10
149.58094154578961
 20
239.52270083213381
 30
0.0
  0
VERTEX
  5
22E0
  8
0
 10
148.34404257970999
 20
239.39373216007621
 30
0.0
  0
VERTEX
  5
22E1
  8
0
 10
147.1056721655431
 20
239.30387679030491
 30
0.0
  0
VERTEX
  5
22E2
  8
0
 10
145.86870733484071
 20
239.25307905524491
 30
0.0
  0
VERTEX
  5
22E3
  8
0
 10
144.63631642831581
 20
239.241037611324
 30
0.0
  0
VERTEX
  5
22E4
  8
0
 10
143.41164650103099
 20
239.2671724530683
 30
0.0
  0
VERTEX
  5
22E5
  8
0
 10
142.80318662259839
 20
239.29429919540109
 30
0.0
  0
VERTEX
  5
22E6
  8
0
 10
142.19782845468501
 20
239.33062757924429
 30
0.0
  0
VERTEX
  5
22E7
  8
0
 10
140.99792716152501
 20
239.43027670012791
 30
0.0
  0
VERTEX
  5
22E8
  8
0
 10
139.8149656351693
 20
239.5647272951648
 30
0.0
  0
VERTEX
  5
22E9
  8
0
 10
138.65196191534551
 20
239.73231708964039
 30
0.0
  0
VERTEX
  5
22EA
  8
0
 10
137.51188887554531
 20
239.9311176094624
 30
0.0
  0
VERTEX
  5
22EB
  8
0
 10
136.39518808246001
 20
240.15948151069841
 30
0.0
  0
VERTEX
  5
22EC
  8
0
 10
135.83700492552751
 20
240.28629149021469
 30
0.0
  0
VERTEX
  5
22ED
  8
0
 10
135.2768344211191
 20
240.4221484606168
 30
0.0
  0
VERTEX
  5
22EE
  8
0
 10
134.1521706094652
 20
240.72128745892721
 30
0.0
  0
VERTEX
  5
22EF
  8
0
 10
133.0244201133215
 20
241.05731892768901
 30
0.0
  0
VERTEX
  5
22F0
  8
0
 10
132.46037158297489
 20
241.23923637696819
 30
0.0
  0
SEQEND
  5
22F1
  8
0
  0
POLYLINE
  5
B7B
  8
0
 66
     1
 10
0.0
 20
0.0
 30
0.0
  0
VERTEX
  5
22F2
  8
0
 10
155.96391685774981
 20
240.48117111787209
 30
0.0
  0
VERTEX
  5
22F3
  8
0
 10
155.90583497469811
 20
240.4830592272244
 30
0.0
  0
VERTEX
  5
22F4
  8
0
 10
155.79007214619199
 20
240.48556325468351
 30
0.0
  0
VERTEX
  5
22F5
  8
0
 10
155.6748884514503
 20
240.48639157046591
 30
0.0
  0
VERTEX
  5
22F6
  8
0
 10
155.61737570921761
 20
240.48618437004279
 30
0.0
  0
VERTEX
  5
22F7
  8
0
 10
155.559718818927
 20
240.4855615924395
 30
0.0
  0
VERTEX
  5
22F8
  8
0
 10
155.44399871093611
 20
240.48305712717311
 30
0.0
  0
VERTEX
  5
22F9
  8
0
 10
155.32778065517951
 20
240.4788549719953
 30
0.0
  0
VERTEX
  5
22FA
  8
0
 10
155.21111755862569
 20
240.47293378204071
 30
0.0
  0
VERTEX
  5
22FB
  8
0
 10
155.09406257856651
 20
240.46527407895121
 30
0.0
  0
VERTEX
  5
22FC
  8
0
 10
154.976668995539
 20
240.45585825067019
 30
0.0
  0
VERTEX
  5
22FD
  8
0
 10
154.9178618808493
 20
240.45048679409001
 30
0.0
  0
VERTEX
  5
22FE
  8
0
 10
154.858990087742
 20
240.44467054241201
 30
0.0
  0
VERTEX
  5
22FF
  8
0
 10
154.74107900662381
 20
240.43169703883061
 30
0.0
  0
VERTEX
  5
2300
  8
0
 10
154.62298865337431
 20
240.41692563735671
 30
0.0
  0
VERTEX
  5
2301
  8
0
 10
154.5047715561054
 20
240.4003460126242
 30
0.0
  0
VERTEX
  5
2302
  8
0
 10
154.38647974755671
 20
240.3819495718615
 30
0.0
  0
VERTEX
  5
2303
  8
0
 10
154.268164643223
 20
240.36172940108389
 30
0.0
  0
VERTEX
  5
2304
  8
0
 10
154.20901422379279
 20
240.35093370000351
 30
0.0
  0
VERTEX
  5
2305
  8
0
 10
154.1498769198538
 20
240.33968020188419
 30
0.0
  0
VERTEX
  5
2306
  8
0
 10
154.03166626072769
 20
240.31579819055091
 30
0.0
  0
VERTEX
  5
2307
  8
0
 10
153.91358250629071
 20
240.29008129171601
 30
0.0
  0
VERTEX
  5
2308
  8
0
 10
153.8546039204918
 20
240.2765346042099
 30
0.0
  0
SEQEND
  5
2309
  8
0
  0
LINE
  5
B7C
  8
0
 10
185.8666307063248
 20
239.4003661541403
 30
0.0
 11
155.96391685774981
 21
240.48117111787209
 31
0.0
  0
POLYLINE
  5
B7D
  8
0
 66
     1
 10
0.0
 20
0.0
 30
0.0
  0
VERTEX
  5
230A
  8
0
 10
187.891538427131
 20
238.9471380496706
 30
0.0
  0
VERTEX
  5
230B
  8
0
 10
187.83792300744321
 20
238.9719985614085
 30
0.0
  0
VERTEX
  5
230C
  8
0
 10
187.72976313021201
 20
239.019718230943
 30
0.0
  0
VERTEX
  5
230D
  8
0
 10
187.6204529925443
 20
239.0647299121874
 30
0.0
  0
VERTEX
  5
230E
  8
0
 10
187.56539055532241
 20
239.08621049038939
 30
0.0
  0
VERTEX
  5
230F
  8
0
 10
187.5100744748031
 20
239.10700082391639
 30
0.0
  0
VERTEX
  5
2310
  8
0
 10
187.39874085474321
 20
239.1464909848265
 30
0.0
  0
VERTEX
  5
2311
  8
0
 10
187.28657344630881
 20
239.1831646953471
 30
0.0
  0
VERTEX
  5
2312
  8
0
 10
187.17369680594169
 20
239.21699272210401
 30
0.0
  0
VERTEX
  5
2313
  8
0
 10
187.0602379233936
 20
239.2479526744095
 30
0.0
  0
VERTEX
  5
2314
  8
0
 10
186.94632538558881
 20
239.27602928493241
 30
0.0
  0
VERTEX
  5
2315
  8
0
 10
186.8892394037438
 20
239.28898356151109
 30
0.0
  0
VERTEX
  5
2316
  8
0
 10
186.83208851103331
 20
239.3012145958042
 30
0.0
  0
VERTEX
  5
2317
  8
0
 10
186.71765646734599
 20
239.3235080473508
 30
0.0
  0
VERTEX
  5
2318
  8
0
 10
186.60315852072131
 20
239.34291629011329
 30
0.0
  0
VERTEX
  5
2319
  8
0
 10
186.48872662714001
 20
239.35945276040539
 30
0.0
  0
VERTEX
  5
231A
  8
0
 10
186.37449567213309
 20
239.37313792255171
 30
0.0
  0
VERTEX
  5
231B
  8
0
 10
186.2606025867909
 20
239.38399965890201
 30
0.0
  0
VERTEX
  5
231C
  8
0
 10
186.2038258740929
 20
239.38838255542399
 30
0.0
  0
VERTEX
  5
231D
  8
0
 10
186.14718544765981
 20
239.3920735509663
 30
0.0
  0
VERTEX
  5
231E
  8
0
 10
186.03438257309949
 20
239.3974030521635
 30
0.0
  0
VERTEX
  5
231F
  8
0
 10
185.92233161272921
 20
239.4000395543884
 30
0.0
  0
VERTEX
  5
2320
  8
0
 10
185.86663070632491
 20
239.4003661541403
 30
0.0
  0
SEQEND
  5
2321
  8
0
  0
POLYLINE
  5
B7F
  8
0
 66
     1
 10
0.0
 20
0.0
 30
0.0
  0
VERTEX
  5
2322
  8
0
 10
185.86663070632491
 20
229.9003661541403
 30
0.0
  0
VERTEX
  5
2323
  8
0
 10
185.92233429457519
 20
229.90069278534369
 30
0.0
  0
VERTEX
  5
2324
  8
0
 10
186.03438961438641
 20
229.90332950494891
 30
0.0
  0
VERTEX
  5
2325
  8
0
 10
186.14719562576639
 20
229.90865935953789
 30
0.0
  0
VERTEX
  5
2326
  8
0
 10
186.2038372057923
 20
229.91235055932461
 30
0.0
  0
VERTEX
  5
2327
  8
0
 10
186.2606148187246
 20
229.9167336674366
 30
0.0
  0
VERTEX
  5
2328
  8
0
 10
186.37450901331121
 20
229.92759582039631
 30
0.0
  0
VERTEX
  5
2329
  8
0
 10
186.48874026881799
 20
229.9412813500351
 30
0.0
  0
VERTEX
  5
232A
  8
0
 10
186.60317178601599
 20
229.95781810026509
 30
0.0
  0
VERTEX
  5
232B
  8
0
 10
186.71766880577979
 20
229.97722650789859
 30
0.0
  0
VERTEX
  5
232C
  8
0
 10
186.83209949222811
 20
229.99951999204811
 30
0.0
  0
VERTEX
  5
232D
  8
0
 10
186.88924958459469
 20
230.01175099120579
 30
0.0
  0
VERTEX
  5
232E
  8
0
 10
186.9463347086481
 20
230.024705199491
 30
0.0
  0
VERTEX
  5
232F
  8
0
 10
187.06024542821839
 20
230.0527815822505
 30
0.0
  0
VERTEX
  5
2330
  8
0
 10
187.1737024675088
 20
230.0837412066418
 30
0.0
  0
VERTEX
  5
2331
  8
0
 10
187.28657736687359
 20
230.11756884108999
 30
0.0
  0
VERTEX
  5
2332
  8
0
 10
187.3987432547579
 20
230.1542421412893
 30
0.0
  0
VERTEX
  5
2333
  8
0
 10
187.5100756825496
 20
230.19373192973711
 30
0.0
  0
VERTEX
  5
2334
  8
0
 10
187.5653913205841
 20
230.21452211095729
 30
0.0
  0
VERTEX
  5
2335
  8
0
 10
187.6204534324703
 20
230.23600257087531
 30
0.0
  0
VERTEX
  5
2336
  8
0
 10
187.72976308160131
 20
230.28101405660951
 30
0.0
  0
VERTEX
  5
2337
  8
0
 10
187.83792280294841
 20
230.32873365359271
 30
0.0
  0
VERTEX
  5
2338
  8
0
 10
187.891538427131
 20
230.35359425860989
 30
0.0
  0
SEQEND
  5
2339
  8
0
  0
CIRCLE
  5
B81
  8
0
 10
125.6166307063249
 20
234.6503661541403
 30
0.0
 40
5.0
  0
LINE
  5
B8B
  8
1
 10
125.6166307063249
 20
24.716320565893461
 30
0.0
 11
125.6166307063249
 21
47.716320565893447
 31
0.0
  0
LINE
  5
B8C
  8
1
 10
114.35663070632491
 20
36.216320565893483
 30
0.0
 11
192.50972826566081
 21
36.216320565893483
 31
0.0
  0
LINE
  5
B8D
  8
1
 10
125.60663070632491
 20
24.716324913720371
 30
0.0
 11
125.60663070632491
 21
47.716316218066567
 31
0.0
  0
LINE
  5
B8E
  8
0
 10
190.50972826566081
 20
35.21425018189386
 30
0.0
 11
190.50972826566081
 21
37.218390949893113
 31
0.0
  0
LINE
  5
B8F
  8
0
 10
116.35663070632491
 20
38.338206519473452
 30
0.0
 11
116.35663070632491
 21
34.094434612313499
 31
0.0
  0
ARC
  5
B98
  8
0
 10
144.86663070632281
 20
-7.873679434100521
 30
0.0
 40
39.499999999993747
 50
104.6798479306195
 51
108.3054346187775
  0
POLYLINE
  5
B99
  8
0
 66
     1
 10
0.0
 20
0.0
 30
0.0
  0
VERTEX
  5
233A
  8
0
 10
134.85663070632489
 20
30.336919880743341
 30
0.0
  0
VERTEX
  5
233B
  8
0
 10
135.35038861421339
 20
30.46287148592711
 30
0.0
  0
VERTEX
  5
233C
  8
0
 10
136.3479100924944
 20
30.696793717042439
 30
0.0
  0
VERTEX
  5
233D
  8
0
 10
137.35797978407459
 20
30.906085409530611
 30
0.0
  0
VERTEX
  5
233E
  8
0
 10
137.86741876968571
 20
31.001261495314981
 30
0.0
  0
VERTEX
  5
233F
  8
0
 10
138.37963159694019
 20
31.090006769265539
 30
0.0
  0
VERTEX
  5
2340
  8
0
 10
139.41188138943639
 20
31.247871019446681
 30
0.0
  0
VERTEX
  5
2341
  8
0
 10
140.4537192835229
 20
31.379042927208829
 30
0.0
  0
VERTEX
  5
2342
  8
0
 10
141.5041154737043
 20
31.482939974963632
 30
0.0
  0
VERTEX
  5
2343
  8
0
 10
142.56203476506221
 20
31.559033350427061
 30
0.0
  0
VERTEX
  5
2344
  8
0
 10
143.62646795990551
 20
31.60684736534737
 30
0.0
  0
VERTEX
  5
2345
  8
0
 10
144.16079475907679
 20
31.620013677776232
 30
0.0
  0
VERTEX
  5
2346
  8
0
 10
144.69634709665169
 20
31.625953519786581
 30
0.0
  0
VERTEX
  5
2347
  8
0
 10
145.77057910834839
 20
31.615975885818472
 30
0.0
  0
VERTEX
  5
2348
  8
0
 10
146.84805981068641
 20
31.576592284911971
 30
0.0
  0
VERTEX
  5
2349
  8
0
 10
147.9276799575882
 20
31.507534075400031
 30
0.0
  0
VERTEX
  5
234A
  8
0
 10
149.0083203051307
 20
31.408586377161871
 30
0.0
  0
VERTEX
  5
234B
  8
0
 10
150.08884725805191
 20
31.279589321986752
 30
0.0
  0
VERTEX
  5
234C
  8
0
 10
150.62871162449929
 20
31.20378751927225
 30
0.0
  0
VERTEX
  5
234D
  8
0
 10
151.16811944712211
 20
31.120438579378611
 30
0.0
  0
VERTEX
  5
234E
  8
0
 10
152.2450880530177
 20
30.931067275323691
 30
0.0
  0
VERTEX
  5
234F
  8
0
 10
153.3190709942331
 20
30.711372764631609
 30
0.0
  0
VERTEX
  5
2350
  8
0
 10
153.8546039204918
 20
30.590152115823841
 30
0.0
  0
SEQEND
  5
2351
  8
0
  0
ARC
  5
B9A
  8
0
 10
125.6166307063249
 20
36.216320565893469
 30
0.0
 40
9.5000000000000036
 50
43.91299907152743
 51
167.09375167335969
  0
POLYLINE
  5
B9B
  8
0
 66
     1
 10
0.0
 20
0.0
 30
0.0
  0
VERTEX
  5
2352
  8
0
 10
153.85460415265609
 20
41.842489070213709
 30
0.0
  0
VERTEX
  5
2353
  8
0
 10
153.3190712204098
 20
41.721268416701598
 30
0.0
  0
VERTEX
  5
2354
  8
0
 10
152.2450882669668
 20
41.501573897144212
 30
0.0
  0
VERTEX
  5
2355
  8
0
 10
151.16811964859559
 20
41.31220258496667
 30
0.0
  0
VERTEX
  5
2356
  8
0
 10
150.6287118196644
 20
41.228853641292361
 30
0.0
  0
VERTEX
  5
2357
  8
0
 10
150.0888474468463
 20
41.15305183498139
 30
0.0
  0
VERTEX
  5
2358
  8
0
 10
149.008320481016
 20
41.024054773169411
 30
0.0
  0
VERTEX
  5
2359
  8
0
 10
147.92768012037641
 20
40.925107069040237
 30
0.0
  0
VERTEX
  5
235A
  8
0
 10
146.84805996023221
 20
40.856048854386088
 30
0.0
  0
VERTEX
  5
235B
  8
0
 10
145.770579244549
 20
40.816665249086242
 30
0.0
  0
VERTEX
  5
235C
  8
0
 10
144.69634721944541
 20
40.806687611471027
 30
0.0
  0
VERTEX
  5
235D
  8
0
 10
144.1607948751566
 20
40.81262745193618
 30
0.0
  0
VERTEX
  5
235E
  8
0
 10
143.6264680692714
 20
40.825793763004242
 30
0.0
  0
VERTEX
  5
235F
  8
0
 10
142.56203486102021
 20
40.873607775751793
 30
0.0
  0
VERTEX
  5
2360
  8
0
 10
141.50411555631771
 20
40.949701149765097
 30
0.0
  0
VERTEX
  5
2361
  8
0
 10
140.4537193528935
 20
41.053598196779291
 30
0.0
  0
VERTEX
  5
2362
  8
0
 10
139.41188144570191
 20
41.184770104495172
 30
0.0
  0
VERTEX
  5
2363
  8
0
 10
138.3796316402763
 20
41.342634355306529
 30
0.0
  0
VERTEX
  5
2364
  8
0
 10
137.8674188066347
 20
41.43137962981956
 30
0.0
  0
VERTEX
  5
2365
  8
0
 10
137.35797981469449
 20
41.526555716327678
 30
0.0
  0
VERTEX
  5
2366
  8
0
 10
136.34791011064809
 20
41.735847410735097
 30
0.0
  0
VERTEX
  5
2367
  8
0
 10
135.35038862018621
 20
41.969769644377287
 30
0.0
  0
VERTEX
  5
2368
  8
0
 10
134.85663070632489
 20
42.095721251043678
 30
0.0
  0
SEQEND
  5
2369
  8
0
  0
ARC
  5
B9C
  8
0
 10
144.86663070632551
 20
80.306320565896144
 30
0.0
 40
39.500000000002707
 50
251.6945653812227
 51
255.3201520693797
  0
POLYLINE
  5
B9D
  8
0
 66
     1
 10
0.0
 20
0.0
 30
0.0
  0
VERTEX
  5
236A
  8
0
 10
155.96391685774981
 20
42.047125529625319
 30
0.0
  0
VERTEX
  5
236B
  8
0
 10
155.90578961072461
 20
42.049014948608722
 30
0.0
  0
VERTEX
  5
236C
  8
0
 10
155.78996115780899
 20
42.051519262940133
 30
0.0
  0
VERTEX
  5
236D
  8
0
 10
155.67474521292789
 20
42.052345979777371
 30
0.0
  0
VERTEX
  5
236E
  8
0
 10
155.6172252713597
 20
42.05213769762404
 30
0.0
  0
VERTEX
  5
236F
  8
0
 10
155.55956384957329
 20
42.051513770234862
 30
0.0
  0
VERTEX
  5
2370
  8
0
 10
155.44384196439131
 20
42.049007010336993
 30
0.0
  0
VERTEX
  5
2371
  8
0
 10
155.3276306067275
 20
42.044802864609153
 30
0.0
  0
VERTEX
  5
2372
  8
0
 10
155.21098114561809
 20
42.038880270145661
 30
0.0
  0
VERTEX
  5
2373
  8
0
 10
155.09394515398481
 20
42.031219940914468
 30
0.0
  0
VERTEX
  5
2374
  8
0
 10
154.97657429490459
 20
42.021804364192278
 30
0.0
  0
VERTEX
  5
2375
  8
0
 10
154.91777943183951
 20
42.016433367556751
 30
0.0
  0
VERTEX
  5
2376
  8
0
 10
154.8589202095967
 20
42.010617789242112
 30
0.0
  0
VERTEX
  5
2377
  8
0
 10
154.74103440681611
 20
41.99764620829098
 30
0.0
  0
VERTEX
  5
2378
  8
0
 10
154.6229681533828
 20
41.982877329812851
 30
0.0
  0
VERTEX
  5
2379
  8
0
 10
154.50477236562261
 20
41.966300544074997
 30
0.0
  0
VERTEX
  5
237A
  8
0
 10
154.3864975015436
 20
41.947906880861353
 30
0.0
  0
VERTEX
  5
237B
  8
0
 10
154.2681934536123
 20
41.927688959244577
 30
0.0
  0
VERTEX
  5
237C
  8
0
 10
154.2090458961886
 20
41.91689401537824
 30
0.0
  0
VERTEX
  5
237D
  8
0
 10
154.1499094420503
 20
41.905640929244022
 30
0.0
  0
VERTEX
  5
237E
  8
0
 10
154.0316938178313
 20
41.88175838611825
 30
0.0
  0
VERTEX
  5
237F
  8
0
 10
153.91359476103199
 20
41.856038469476573
 30
0.0
  0
VERTEX
  5
2380
  8
0
 10
153.85460415265609
 20
41.842489070213723
 30
0.0
  0
SEQEND
  5
2381
  8
0
  0
LINE
  5
B9E
  8
0
 10
185.86663070632491
 20
40.966320565893469
 30
0.0
 11
155.96391685774981
 21
42.047125529625291
 31
0.0
  0
LINE
  5
B9F
  8
0
 10
155.96391685774981
 20
30.385515602161661
 30
0.0
 11
185.86663070632491
 21
31.46632056589349
 31
0.0
  0
POLYLINE
  5
BA0
  8
0
 66
     1
 10
0.0
 20
0.0
 30
0.0
  0
VERTEX
  5
2382
  8
0
 10
153.8546039204918
 20
30.590152115823841
 30
0.0
  0
VERTEX
  5
2383
  8
0
 10
153.9136286980785
 20
30.576595002513638
 30
0.0
  0
VERTEX
  5
2384
  8
0
 10
154.03179423266761
 20
30.550861670988979
 30
0.0
  0
VERTEX
  5
2385
  8
0
 10
154.15007292916661
 20
30.526968456487179
 30
0.0
  0
VERTEX
  5
2386
  8
0
 10
154.2092392115957
 20
30.515711085967741
 30
0.0
  0
VERTEX
  5
2387
  8
0
 10
154.26841531260169
 20
30.504912545455429
 30
0.0
  0
VERTEX
  5
2388
  8
0
 10
154.38677210552731
 20
30.484689443930119
 30
0.0
  0
VERTEX
  5
2389
  8
0
 10
154.50509308838099
 20
30.46629317133268
 30
0.0
  0
VERTEX
  5
238A
  8
0
 10
154.62332733530809
 20
30.449716164765562
 30
0.0
  0
VERTEX
  5
238B
  8
0
 10
154.74142332526131
 20
30.434949218291219
 30
0.0
  0
VERTEX
  5
238C
  8
0
 10
154.85932905347991
 20
30.421981430726319
 30
0.0
  0
VERTEX
  5
238D
  8
0
 10
154.91819421322421
 20
30.416168340405239
 30
0.0
  0
VERTEX
  5
238E
  8
0
 10
154.9769921434405
 20
30.410800161765
 30
0.0
  0
VERTEX
  5
238F
  8
0
 10
155.0943599594232
 20
30.401390996284519
 30
0.0
  0
VERTEX
  5
2390
  8
0
 10
155.21137971989
 20
30.39373771673008
 30
0.0
  0
VERTEX
  5
2391
  8
0
 10
155.32799861191711
 20
30.387822283522361
 30
0.0
  0
VERTEX
  5
2392
  8
0
 10
155.44416390697339
 20
30.38362482348392
 30
0.0
  0
VERTEX
  5
2393
  8
0
 10
155.55982307838281
 20
30.381123626333761
 30
0.0
  0
VERTEX
  5
2394
  8
0
 10
155.6174465376962
 20
30.380501840525479
 30
0.0
  0
VERTEX
  5
2395
  8
0
 10
155.67492392086061
 20
30.380295149359409
 30
0.0
  0
VERTEX
  5
2396
  8
0
 10
155.79005875864061
 20
30.381123272696399
 30
0.0
  0
VERTEX
  5
2397
  8
0
 10
155.90581907350639
 20
30.383627033722011
 30
0.0
  0
VERTEX
  5
2398
  8
0
 10
155.96391685774981
 20
30.385515602161679
 30
0.0
  0
SEQEND
  5
2399
  8
0
  0
ARC
  5
BA1
  8
0
 10
125.6166307063249
 20
36.216320565893469
 30
0.0
 40
9.5000000000000036
 50
192.90624832664011
 51
316.08700092847261
  0
LINE
  5
BA2
  8
0
 10
190.50972826566081
 20
37.218390949893113
 30
0.0
 11
190.4911715553437
 21
37.300812122226098
 31
0.0
  0
POLYLINE
  5
BA3
  8
0
 66
     1
 10
0.0
 20
0.0
 30
0.0
  0
VERTEX
  5
239A
  8
0
 10
190.4911715553437
 20
37.300812122226098
 30
0.0
  0
VERTEX
  5
239B
  8
0
 10
190.48604877707069
 20
37.32242937051754
 30
0.0
  0
VERTEX
  5
239C
  8
0
 10
190.4755001894186
 20
37.36559080731049
 30
0.0
  0
VERTEX
  5
239D
  8
0
 10
190.464548333127
 20
37.408651684812568
 30
0.0
  0
VERTEX
  5
239E
  8
0
 10
190.4589214773244
 20
37.430143236052672
 30
0.0
  0
VERTEX
  5
239F
  8
0
 10
190.45319416646521
 20
37.451608235266526
 30
0.0
  0
VERTEX
  5
23A0
  8
0
 10
190.4414386829049
 20
37.494456700043528
 30
0.0
  0
VERTEX
  5
23A1
  8
0
 10
190.42928291103161
 20
37.537193329972062
 30
0.0
  0
VERTEX
  5
23A2
  8
0
 10
190.38360110982831
 20
37.685836940036332
 30
0.0
  0
VERTEX
  5
23A3
  8
0
 10
190.29405617881079
 20
37.936902934041363
 30
0.0
  0
VERTEX
  5
23A4
  8
0
 10
190.2440358971746
 20
38.060452826639001
 30
0.0
  0
SEQEND
  5
23A5
  8
0
  0
POLYLINE
  5
BA4
  8
0
 66
     1
 10
0.0
 20
0.0
 30
0.0
  0
VERTEX
  5
23A6
  8
0
 10
190.2440358971746
 20
38.060452826639001
 30
0.0
  0
VERTEX
  5
23A7
  8
0
 10
190.24010999751141
 20
38.069744125029942
 30
0.0
  0
VERTEX
  5
23A8
  8
0
 10
190.23182117863229
 20
38.089182584429892
 30
0.0
  0
VERTEX
  5
23A9
  8
0
 10
190.22295623917239
 20
38.109711136235681
 30
0.0
  0
VERTEX
  5
23AA
  8
0
 10
190.21830989511051
 20
38.120365795894493
 30
0.0
  0
VERTEX
  5
23AB
  8
0
 10
190.2135219773954
 20
38.131271290453
 30
0.0
  0
VERTEX
  5
23AC
  8
0
 10
190.203524033115
 20
38.153807668313249
 30
0.0
  0
VERTEX
  5
23AD
  8
0
 10
190.19296699102679
 20
38.177267875657648
 30
0.0
  0
VERTEX
  5
23AE
  8
0
 10
190.1818544887121
 20
38.201602336302543
 30
0.0
  0
VERTEX
  5
23AF
  8
0
 10
190.17018932497399
 20
38.226764102989478
 30
0.0
  0
VERTEX
  5
23B0
  8
0
 10
190.15797356485641
 20
38.252708660174761
 30
0.0
  0
VERTEX
  5
23B1
  8
0
 10
190.1516596803126
 20
38.265961190999782
 30
0.0
  0
VERTEX
  5
23B2
  8
0
 10
190.14520863838709
 20
38.279393729712332
 30
0.0
  0
VERTEX
  5
23B3
  8
0
 10
190.1318955695709
 20
38.306778804261157
 30
0.0
  0
VERTEX
  5
23B4
  8
0
 10
190.11803792378359
 20
38.334819249239573
 30
0.0
  0
VERTEX
  5
23B5
  8
0
 10
190.06526411450571
 20
38.437576405212212
 30
0.0
  0
VERTEX
  5
23B6
  8
0
 10
190.0147319038669
 20
38.530571298841302
 30
0.0
  0
VERTEX
  5
23B7
  8
0
 10
189.9592767601338
 20
38.627284746100692
 30
0.0
  0
VERTEX
  5
23B8
  8
0
 10
189.83338833133061
 20
38.829237316281443
 30
0.0
  0
VERTEX
  5
23B9
  8
0
 10
189.6870616063045
 20
39.038873973444993
 30
0.0
  0
VERTEX
  5
23BA
  8
0
 10
189.52012784354901
 20
39.251853248684903
 30
0.0
  0
VERTEX
  5
23BB
  8
0
 10
189.33264164511269
 20
39.4642842621504
 30
0.0
  0
VERTEX
  5
23BC
  8
0
 10
189.12463597666959
 20
39.672894253579933
 30
0.0
  0
VERTEX
  5
23BD
  8
0
 10
189.01297989260641
 20
39.774829635431658
 30
0.0
  0
VERTEX
  5
23BE
  8
0
 10
188.89625603130759
 20
39.874717809253397
 30
0.0
  0
VERTEX
  5
23BF
  8
0
 10
188.64774653367999
 20
40.067021119667437
 30
0.0
  0
VERTEX
  5
23C0
  8
0
 10
188.37945483430761
 20
40.247228019783648
 30
0.0
  0
VERTEX
  5
23C1
  8
0
 10
188.2139837367294
 20
40.34577982233985
 30
0.0
  0
VERTEX
  5
23C2
  8
0
 10
188.16550937718
 20
40.372960658166001
 30
0.0
  0
VERTEX
  5
23C3
  8
0
 10
188.11650707043941
 20
40.399687194124702
 30
0.0
  0
VERTEX
  5
23C4
  8
0
 10
188.09180862238961
 20
40.412876682741889
 30
0.0
  0
VERTEX
  5
23C5
  8
0
 10
188.0669709446523
 20
40.425952715570872
 30
0.0
  0
VERTEX
  5
23C6
  8
0
 10
188.0166466011151
 20
40.451876214465379
 30
0.0
  0
VERTEX
  5
23C7
  8
0
 10
187.96542076667629
 20
40.477491799553313
 30
0.0
  0
VERTEX
  5
23C8
  8
0
 10
187.9133061845782
 20
40.502766586400071
 30
0.0
  0
VERTEX
  5
23C9
  8
0
 10
187.8603164671089
 20
40.52766804519117
 30
0.0
  0
VERTEX
  5
23CA
  8
0
 10
187.80646607607011
 20
40.552164052262142
 30
0.0
  0
VERTEX
  5
23CB
  8
0
 10
187.77922287345751
 20
40.564250096396819
 30
0.0
  0
VERTEX
  5
23CC
  8
0
 10
187.75177029743281
 20
40.57622294118098
 30
0.0
  0
VERTEX
  5
23CD
  8
0
 10
187.69624520946479
 20
40.599813553215313
 30
0.0
  0
VERTEX
  5
23CE
  8
0
 10
187.6399076435749
 20
40.622905286946413
 30
0.0
  0
VERTEX
  5
23CF
  8
0
 10
187.58277513710041
 20
40.645468146717377
 30
0.0
  0
VERTEX
  5
23D0
  8
0
 10
187.52486587725269
 20
40.667472789520311
 30
0.0
  0
VERTEX
  5
23D1
  8
0
 10
187.46619863541559
 20
40.688890569842471
 30
0.0
  0
VERTEX
  5
23D2
  8
0
 10
187.43658677853301
 20
40.699370636028391
 30
0.0
  0
VERTEX
  5
23D3
  8
0
 10
187.40679269097271
 20
40.709693581907793
 30
0.0
  0
VERTEX
  5
23D4
  8
0
 10
187.3466677696174
 20
40.729854690200092
 30
0.0
  0
VERTEX
  5
23D5
  8
0
 10
187.28584431786649
 20
40.749347449203903
 30
0.0
  0
VERTEX
  5
23D6
  8
0
 10
187.25517731519261
 20
40.758835102469227
 30
0.0
  0
VERTEX
  5
23D7
  8
0
 10
187.22434381512741
 20
40.768146036425676
 30
0.0
  0
VERTEX
  5
23D8
  8
0
 10
187.16218875377601
 20
40.78622530731694
 30
0.0
  0
VERTEX
  5
23D9
  8
0
 10
187.0994025808273
 20
40.803560858862213
 30
0.0
  0
VERTEX
  5
23DA
  8
0
 10
187.06778039955799
 20
40.811942331709929
 30
0.0
  0
VERTEX
  5
23DB
  8
0
 10
187.03600963149131
 20
40.820129090297669
 30
0.0
  0
VERTEX
  5
23DC
  8
0
 10
186.97203505382291
 20
40.835907260450938
 30
0.0
  0
VERTEX
  5
23DD
  8
0
 10
186.9075047236928
 20
40.850873541097037
 30
0.0
  0
VERTEX
  5
23DE
  8
0
 10
186.8424451493315
 20
40.86500706562861
 30
0.0
  0
VERTEX
  5
23DF
  8
0
 10
186.77688336475219
 20
40.87828797223878
 30
0.0
  0
VERTEX
  5
23E0
  8
0
 10
186.71084681141869
 20
40.890697440718647
 30
0.0
  0
VERTEX
  5
23E1
  8
0
 10
186.67765915145159
 20
40.89656979656435
 30
0.0
  0
VERTEX
  5
23E2
  8
0
 10
186.6443631625028
 20
40.902217729362519
 30
0.0
  0
VERTEX
  5
23E3
  8
0
 10
186.5774475588203
 20
40.912834102785332
 30
0.0
  0
VERTEX
  5
23E4
  8
0
 10
186.51011921015041
 20
40.922531626337339
 30
0.0
  0
VERTEX
  5
23E5
  8
0
 10
186.44240864034151
 20
40.931294560593713
 30
0.0
  0
VERTEX
  5
23E6
  8
0
 10
186.37434723639271
 20
40.939108294036252
 30
0.0
  0
VERTEX
  5
23E7
  8
0
 10
186.3059671236484
 20
40.9459594011972
 30
0.0
  0
VERTEX
  5
23E8
  8
0
 10
186.27166775957571
 20
40.949020111131262
 30
0.0
  0
VERTEX
  5
23E9
  8
0
 10
186.2373010309982
 20
40.951835692086881
 30
0.0
  0
VERTEX
  5
23EA
  8
0
 10
186.16838214580449
 20
40.956726251989537
 30
0.0
  0
VERTEX
  5
23EB
  8
0
 10
186.09924395837439
 20
40.96062147066025
 30
0.0
  0
VERTEX
  5
23EC
  8
0
 10
186.06460313422829
 20
40.962193185105889
 30
0.0
  0
SEQEND
  5
23ED
  8
0
  0
POLYLINE
  5
BA5
  8
0
 66
     1
 10
0.0
 20
0.0
 30
0.0
  0
VERTEX
  5
23EE
  8
0
 10
186.06460313422829
 20
40.962193185105889
 30
0.0
  0
VERTEX
  5
23EF
  8
0
 10
186.03162233446091
 20
40.963454202378237
 30
0.0
  0
VERTEX
  5
23F0
  8
0
 10
185.9656384301172
 20
40.965288608598073
 30
0.0
  0
VERTEX
  5
23F1
  8
0
 10
185.8996354055306
 20
40.966205900281068
 30
0.0
  0
VERTEX
  5
23F2
  8
0
 10
185.86663070632491
 20
40.966320565893469
 30
0.0
  0
SEQEND
  5
23F3
  8
0
  0
POLYLINE
  5
BA6
  8
0
 66
     1
 10
0.0
 20
0.0
 30
0.0
  0
VERTEX
  5
23F4
  8
0
 10
186.06460313422829
 20
31.47044794668108
 30
0.0
  0
VERTEX
  5
23F5
  8
0
 10
186.09924395837439
 20
31.472019661126708
 30
0.0
  0
VERTEX
  5
23F6
  8
0
 10
186.1683821458044
 20
31.475914879797401
 30
0.0
  0
VERTEX
  5
23F7
  8
0
 10
186.23730103099811
 20
31.48080543970007
 30
0.0
  0
VERTEX
  5
23F8
  8
0
 10
186.27166775957551
 20
31.48362102065569
 30
0.0
  0
VERTEX
  5
23F9
  8
0
 10
186.30596712364829
 20
31.486681730589741
 30
0.0
  0
VERTEX
  5
23FA
  8
0
 10
186.37434723639251
 20
31.493532837750688
 30
0.0
  0
VERTEX
  5
23FB
  8
0
 10
186.4424086403412
 20
31.50134657119321
 30
0.0
  0
VERTEX
  5
23FC
  8
0
 10
186.51011921015021
 20
31.510109505449581
 30
0.0
  0
VERTEX
  5
23FD
  8
0
 10
186.5774475588199
 20
31.519807029001569
 30
0.0
  0
VERTEX
  5
23FE
  8
0
 10
186.6443631625024
 20
31.530423402424361
 30
0.0
  0
VERTEX
  5
23FF
  8
0
 10
186.67765915145111
 20
31.53607133522252
 30
0.0
  0
VERTEX
  5
2400
  8
0
 10
186.71084681141821
 20
31.54194369106823
 30
0.0
  0
VERTEX
  5
2401
  8
0
 10
186.7768833647516
 20
31.554353159548072
 30
0.0
  0
VERTEX
  5
2402
  8
0
 10
186.8424451493309
 20
31.56763406615822
 30
0.0
  0
VERTEX
  5
2403
  8
0
 10
186.9075047236922
 20
31.581767590689768
 30
0.0
  0
VERTEX
  5
2404
  8
0
 10
186.97203505382231
 20
31.596733871335861
 30
0.0
  0
VERTEX
  5
2405
  8
0
 10
187.0360096314906
 20
31.612512041489101
 30
0.0
  0
VERTEX
  5
2406
  8
0
 10
187.06778039955731
 20
31.620698800076841
 30
0.0
  0
VERTEX
  5
2407
  8
0
 10
187.09940258082639
 20
31.629080272924561
 30
0.0
  0
VERTEX
  5
2408
  8
0
 10
187.16218875377521
 20
31.646415824469798
 30
0.0
  0
VERTEX
  5
2409
  8
0
 10
187.2243438151265
 20
31.66449509536104
 30
0.0
  0
VERTEX
  5
240A
  8
0
 10
187.2551773151917
 20
31.673806029317479
 30
0.0
  0
VERTEX
  5
240B
  8
0
 10
187.2858443178657
 20
31.683293682582789
 30
0.0
  0
VERTEX
  5
240C
  8
0
 10
187.3466677696164
 20
31.702786441586571
 30
0.0
  0
VERTEX
  5
240D
  8
0
 10
187.4067926909718
 20
31.722947549878839
 30
0.0
  0
VERTEX
  5
240E
  8
0
 10
187.43658677853199
 20
31.733270495758209
 30
0.0
  0
VERTEX
  5
240F
  8
0
 10
187.46619863541471
 20
31.74375056194414
 30
0.0
  0
VERTEX
  5
2410
  8
0
 10
187.52486587725161
 20
31.765168342266271
 30
0.0
  0
VERTEX
  5
2411
  8
0
 10
187.5827751370993
 20
31.787172985069191
 30
0.0
  0
VERTEX
  5
2412
  8
0
 10
187.63990764357371
 20
31.809735844840091
 30
0.0
  0
VERTEX
  5
2413
  8
0
 10
187.6962452094638
 20
31.832827578571191
 30
0.0
  0
VERTEX
  5
2414
  8
0
 10
187.75177029743159
 20
31.856418190605481
 30
0.0
  0
VERTEX
  5
2415
  8
0
 10
187.77922287345629
 20
31.868391035389621
 30
0.0
  0
VERTEX
  5
2416
  8
0
 10
187.80646607606889
 20
31.880477079524301
 30
0.0
  0
VERTEX
  5
2417
  8
0
 10
187.86031646710771
 20
31.904973086595231
 30
0.0
  0
VERTEX
  5
2418
  8
0
 10
187.9133061845769
 20
31.929874545386308
 30
0.0
  0
VERTEX
  5
2419
  8
0
 10
187.96542076667509
 20
31.955149332233059
 30
0.0
  0
VERTEX
  5
241A
  8
0
 10
188.01664660111391
 20
31.98076491732094
 30
0.0
  0
VERTEX
  5
241B
  8
0
 10
188.0669709446509
 20
32.006688416215418
 30
0.0
  0
VERTEX
  5
241C
  8
0
 10
188.0918086223883
 20
32.019764449044388
 30
0.0
  0
VERTEX
  5
241D
  8
0
 10
188.1165070704381
 20
32.03295393766156
 30
0.0
  0
VERTEX
  5
241E
  8
0
 10
188.16550937717869
 20
32.05968047362024
 30
0.0
  0
VERTEX
  5
241F
  8
0
 10
188.21398373672801
 20
32.086861309446327
 30
0.0
  0
VERTEX
  5
2420
  8
0
 10
188.3794548343063
 20
32.185413112002443
 30
0.0
  0
VERTEX
  5
2421
  8
0
 10
188.6477465336784
 20
32.365620012118427
 30
0.0
  0
VERTEX
  5
2422
  8
0
 10
188.896256031306
 20
32.557923322532261
 30
0.0
  0
VERTEX
  5
2423
  8
0
 10
189.01297989260479
 20
32.657811496353887
 30
0.0
  0
VERTEX
  5
2424
  8
0
 10
189.1246359766678
 20
32.759746878205497
 30
0.0
  0
VERTEX
  5
2425
  8
0
 10
189.3326416451111
 20
32.968356869634817
 30
0.0
  0
VERTEX
  5
2426
  8
0
 10
189.52012784354741
 20
33.180787883100137
 30
0.0
  0
VERTEX
  5
2427
  8
0
 10
189.68706160630299
 20
33.393767158339912
 30
0.0
  0
VERTEX
  5
2428
  8
0
 10
189.8333883313293
 20
33.603403815503363
 30
0.0
  0
VERTEX
  5
2429
  8
0
 10
189.9592767601325
 20
33.80535638568405
 30
0.0
  0
VERTEX
  5
242A
  8
0
 10
190.01473190386571
 20
33.90206983294344
 30
0.0
  0
VERTEX
  5
242B
  8
0
 10
190.06526411450449
 20
33.995064726572551
 30
0.0
  0
VERTEX
  5
242C
  8
0
 10
190.11803792378251
 20
34.097821882545261
 30
0.0
  0
VERTEX
  5
242D
  8
0
 10
190.13189556956971
 20
34.125862327523713
 30
0.0
  0
VERTEX
  5
242E
  8
0
 10
190.14520863838609
 20
34.153247402072608
 30
0.0
  0
VERTEX
  5
242F
  8
0
 10
190.15165968031161
 20
34.16667994078523
 30
0.0
  0
VERTEX
  5
2430
  8
0
 10
190.1579735648555
 20
34.179932471610329
 30
0.0
  0
VERTEX
  5
2431
  8
0
 10
190.17018932497319
 20
34.205877028795882
 30
0.0
  0
VERTEX
  5
2432
  8
0
 10
190.18185448871159
 20
34.231038795483101
 30
0.0
  0
VERTEX
  5
2433
  8
0
 10
190.1929669910264
 20
34.255373256128323
 30
0.0
  0
VERTEX
  5
2434
  8
0
 10
190.20352403311469
 20
34.278833463473021
 30
0.0
  0
VERTEX
  5
2435
  8
0
 10
190.2135219773952
 20
34.301369841333504
 30
0.0
  0
VERTEX
  5
2436
  8
0
 10
190.21830989511039
 20
34.312275335892139
 30
0.0
  0
VERTEX
  5
2437
  8
0
 10
190.22295623917231
 20
34.322929995551071
 30
0.0
  0
VERTEX
  5
2438
  8
0
 10
190.23182117863229
 20
34.343458547357002
 30
0.0
  0
VERTEX
  5
2439
  8
0
 10
190.24010999751141
 20
34.362897006757002
 30
0.0
  0
VERTEX
  5
243A
  8
0
 10
190.2440358971746
 20
34.372188305147972
 30
0.0
  0
SEQEND
  5
243B
  8
0
  0
POLYLINE
  5
BA7
  8
0
 66
     1
 10
0.0
 20
0.0
 30
0.0
  0
VERTEX
  5
243C
  8
0
 10
190.2440358971746
 20
34.372188305147972
 30
0.0
  0
VERTEX
  5
243D
  8
0
 10
190.29405617881091
 20
34.495738197745581
 30
0.0
  0
VERTEX
  5
243E
  8
0
 10
190.38360110982831
 20
34.746804191750627
 30
0.0
  0
VERTEX
  5
243F
  8
0
 10
190.42928291103161
 20
34.895447801814903
 30
0.0
  0
VERTEX
  5
2440
  8
0
 10
190.4414386829049
 20
34.938184431743451
 30
0.0
  0
VERTEX
  5
2441
  8
0
 10
190.45319416646521
 20
34.981032896520453
 30
0.0
  0
VERTEX
  5
2442
  8
0
 10
190.4589214773244
 20
35.002497895734287
 30
0.0
  0
VERTEX
  5
2443
  8
0
 10
190.464548333127
 20
35.023989446974397
 30
0.0
  0
VERTEX
  5
2444
  8
0
 10
190.47550018941871
 20
35.067050324476469
 30
0.0
  0
VERTEX
  5
2445
  8
0
 10
190.48604877707069
 20
35.110211761269412
 30
0.0
  0
VERTEX
  5
2446
  8
0
 10
190.4911715553437
 20
35.131829009560867
 30
0.0
  0
SEQEND
  5
2447
  8
0
  0
LINE
  5
BA8
  8
0
 10
190.4911715553437
 20
35.131829009560867
 30
0.0
 11
190.50972826566081
 21
35.214250181893881
 31
0.0
  0
POLYLINE
  5
BA9
  8
0
 66
     1
 10
0.0
 20
0.0
 30
0.0
  0
VERTEX
  5
2448
  8
0
 10
185.86663070632491
 20
31.46632056589349
 30
0.0
  0
VERTEX
  5
2449
  8
0
 10
185.89963540553049
 20
31.466435231505891
 30
0.0
  0
VERTEX
  5
244A
  8
0
 10
185.9656384301172
 20
31.46735252318889
 30
0.0
  0
VERTEX
  5
244B
  8
0
 10
186.03162233446091
 20
31.469186929408721
 30
0.0
  0
VERTEX
  5
244C
  8
0
 10
186.06460313422829
 20
31.47044794668108
 30
0.0
  0
SEQEND
  5
244D
  8
0
  0
ARC
  5
BAA
  8
0
 10
125.60663070632491
 20
36.216320565893483
 30
0.0
 40
9.25
 50
193.35017161745111
 51
166.64982838254861
  0
POLYLINE
  5
BAC
  8
0
 66
     1
 10
0.0
 20
0.0
 30
0.0
  0
VERTEX
  5
244E
  8
0
 10
116.6065929534743
 20
34.080478706751137
 30
0.0
  0
VERTEX
  5
244F
  8
0
 10
116.579699946563
 20
34.19715711078014
 30
0.0
  0
VERTEX
  5
2450
  8
0
 10
116.5304559163114
 20
34.431509320656673
 30
0.0
  0
VERTEX
  5
2451
  8
0
 10
116.4872949447536
 20
34.66705775160797
 30
0.0
  0
VERTEX
  5
2452
  8
0
 10
116.4680048056244
 20
34.78523124406658
 30
0.0
  0
VERTEX
  5
2453
  8
0
 10
116.45024595935421
 20
34.903644533720389
 30
0.0
  0
VERTEX
  5
2454
  8
0
 10
116.4193337911853
 20
35.141111101153641
 30
0.0
  0
VERTEX
  5
2455
  8
0
 10
116.3945791582849
 20
35.379298298415357
 30
0.0
  0
VERTEX
  5
2456
  8
0
 10
116.3759986517708
 20
35.618046487030732
 30
0.0
  0
VERTEX
  5
2457
  8
0
 10
116.3636047247209
 20
35.85719565253568
 30
0.0
  0
VERTEX
  5
2458
  8
0
 10
116.3574056838269
 20
36.096585511722381
 30
0.0
  0
VERTEX
  5
2459
  8
0
 10
116.35663070632491
 20
36.216320565893483
 30
0.0
  0
VERTEX
  5
245A
  8
0
 10
116.3574056838269
 20
36.336055620064577
 30
0.0
  0
VERTEX
  5
245B
  8
0
 10
116.3636047247209
 20
36.575445479251293
 30
0.0
  0
VERTEX
  5
245C
  8
0
 10
116.3759986517708
 20
36.814594644756241
 30
0.0
  0
VERTEX
  5
245D
  8
0
 10
116.3945791582849
 20
37.053342833371602
 30
0.0
  0
VERTEX
  5
245E
  8
0
 10
116.4193337911853
 20
37.291530030633332
 30
0.0
  0
VERTEX
  5
245F
  8
0
 10
116.45024595935421
 20
37.528996598066577
 30
0.0
  0
VERTEX
  5
2460
  8
0
 10
116.4680048056244
 20
37.647409887720393
 30
0.0
  0
VERTEX
  5
2461
  8
0
 10
116.4872949447536
 20
37.765583380178988
 30
0.0
  0
VERTEX
  5
2462
  8
0
 10
116.5304559163114
 20
38.001131811130293
 30
0.0
  0
VERTEX
  5
2463
  8
0
 10
116.579699946563
 20
38.235484021006833
 30
0.0
  0
VERTEX
  5
2464
  8
0
 10
116.6065929534743
 20
38.352162425035829
 30
0.0
  0
SEQEND
  5
2465
  8
0
  0
CIRCLE
  5
BAE
  8
0
 10
125.6166307063249
 20
36.216320565893483
 30
0.0
 40
4.0
  0
CIRCLE
  5
BAF
  8
0
 10
125.6166307063249
 20
36.216320565893483
 30
0.0
 40
6.75
  0
CIRCLE
  5
BB5
  8
3
 10
125.60663070632491
 20
36.216320565893483
 30
0.0
 40
3.243000000000023
  0
LINE
  5
BB8
  8
1
 10
125.6166307063249
 20
92.760701162812083
 30
0.0
 11
125.6166307063249
 21
178.76070116281201
 31
0.0
  0
LINE
  5
BCA
  8
0
 10
134.85663070632489
 20
151.5106634099615
 30
0.0
 11
134.60666845917541
 21
151.26070116281201
 31
0.0
  0
TEXT
  5
18B9
  8
0
 62
     3
 10
0.0
 20
0.0
 30
0.0
 40
10.0
  1
FKRP8X50-SUS
  7
STANDARD1
  0
ENDSEC
  0
EOF
