  0
SECTION
  2
HEADER
  9
$ACADVER
  1
AC1009
  9
$INSBASE
 10
0.0
 20
0.0
 30
0.0
  9
$EXTMIN
 10
0.0
 20
-2.960436562073669
 30
0.0
  9
$EXTMAX
 10
251.5754745329553
 20
208.1211039843748
 30
0.0
  9
$LIMMIN
 10
0.0
 20
0.0
  9
$LIMMAX
 10
750.0
 20
540.0
  9
$ORTHOMODE
 70
     1
  9
$REGENMODE
 70
     1
  9
$FILLMODE
 70
     1
  9
$QTEXTMODE
 70
     0
  9
$MIRRTEXT
 70
     0
  9
$DRAGMODE
 70
     2
  9
$LTSCALE
 40
20.0
  9
$OSMODE
 70
    55
  9
$ATTMODE
 70
     1
  9
$TEXTSIZE
 40
0.2
  9
$TRACEWID
 40
0.05
  9
$TEXTSTYLE
  7
STANDARD
  9
$CLAYER
  8
0
  9
$CELTYPE
  6
BYLAYER
  9
$CECOLOR
 62
   256
  9
$DIMSCALE
 40
1.0
  9
$DIMASZ
 40
3.0
  9
$DIMEXO
 40
2.0
  9
$DIMDLI
 40
0.38
  9
$DIMRND
 40
0.0
  9
$DIMDLE
 40
0.0
  9
$DIMEXE
 40
2.0
  9
$DIMTP
 40
0.0
  9
$DIMTM
 40
0.0
  9
$DIMTXT
 40
3.2000000000000002
  9
$DIMCEN
 40
0.0
  9
$DIMTSZ
 40
0.0
  9
$DIMTOL
 70
     0
  9
$DIMLIM
 70
     0
  9
$DIMTIH
 70
     0
  9
$DIMTOH
 70
     0
  9
$DIMSE1
 70
     0
  9
$DIMSE2
 70
     0
  9
$DIMTAD
 70
     1
  9
$DIMZIN
 70
     0
  9
$DIMBLK
  1

  9
$DIMASO
 70
     0
  9
$DIMSHO
 70
     0
  9
$DIMPOST
  1

  9
$DIMAPOST
  1

  9
$DIMALT
 70
     0
  9
$DIMALTD
 70
     2
  9
$DIMALTF
 40
25.399999999999999
  9
$DIMLFAC
 40
1.0
  9
$DIMTOFL
 70
     0
  9
$DIMTVP
 40
1.6000000000000001
  9
$DIMTIX
 70
     1
  9
$DIMSOXD
 70
     0
  9
$DIMSAH
 70
     0
  9
$DIMBLK1
  1

  9
$DIMBLK2
  1

  9
$DIMSTYLE
  2
STANDARD
  9
$DIMCLRD
 70
     0
  9
$DIMCLRE
 70
     0
  9
$DIMCLRT
 70
     0
  9
$DIMTFAC
 40
1.0
  9
$DIMGAP
 40
0.09
  9
$LUNITS
 70
     2
  9
$LUPREC
 70
     4
  9
$SKETCHINC
 40
0.1
  9
$FILLETRAD
 40
0.0
  9
$AUNITS
 70
     0
  9
$AUPREC
 70
     4
  9
$MENU
  1
E:\r13\win\SUPPORT\ACAD
  9
$ELEVATION
 40
0.0
  9
$PELEVATION
 40
0.0
  9
$THICKNESS
 40
0.0
  9
$LIMCHECK
 70
     0
  9
$BLIPMODE
 70
     0
  9
$CHAMFERA
 40
0.0
  9
$CHAMFERB
 40
0.0
  9
$SKPOLY
 70
     0
  9
$TDCREATE
 40
2449840.6227546302
  9
$TDUPDATE
 40
2456598.6618050118
  9
$TDINDWG
 40
0.0488164352
  9
$TDUSRTIMER
 40
2456429.0979335532
  9
$USRTIMER
 70
     1
  9
$ANGBASE
 50
0.0
  9
$ANGDIR
 70
     0
  9
$PDMODE
 70
     0
  9
$PDSIZE
 40
0.0
  9
$PLINEWID
 40
0.0
  9
$COORDS
 70
     1
  9
$SPLFRAME
 70
     0
  9
$SPLINETYPE
 70
     6
  9
$SPLINESEGS
 70
     8
  9
$ATTDIA
 70
     0
  9
$ATTREQ
 70
     1
  9
$HANDLING
 70
     1
  9
$HANDSEED
  5
24A6
  9
$SURFTAB1
 70
     6
  9
$SURFTAB2
 70
     6
  9
$SURFTYPE
 70
     6
  9
$SURFU
 70
     6
  9
$SURFV
 70
     6
  9
$UCSNAME
  2

  9
$UCSORG
 10
0.0
 20
0.0
 30
0.0
  9
$UCSXDIR
 10
1.0
 20
0.0
 30
0.0
  9
$UCSYDIR
 10
0.0
 20
1.0
 30
0.0
  9
$PUCSNAME
  2

  9
$PUCSORG
 10
0.0
 20
0.0
 30
0.0
  9
$PUCSXDIR
 10
1.0
 20
0.0
 30
0.0
  9
$PUCSYDIR
 10
0.0
 20
1.0
 30
0.0
  9
$USERI1
 70
     0
  9
$USERI2
 70
     1
  9
$USERI3
 70
     0
  9
$USERI4
 70
     0
  9
$USERI5
 70
     0
  9
$USERR1
 40
0.0
  9
$USERR2
 40
0.0
  9
$USERR3
 40
0.0
  9
$USERR4
 40
0.0
  9
$USERR5
 40
0.0
  9
$WORLDVIEW
 70
     1
  9
$SHADEDGE
 70
     3
  9
$SHADEDIF
 70
    70
  9
$TILEMODE
 70
     1
  9
$MAXACTVP
 70
    16
  9
$PLIMCHECK
 70
     0
  9
$PEXTMIN
 10
1.0000000000000000E+020
 20
1.0000000000000000E+020
 30
1.0000000000000000E+020
  9
$PEXTMAX
 10
-1.0000000000000000E+020
 20
-1.0000000000000000E+020
 30
-1.0000000000000000E+020
  9
$PLIMMIN
 10
0.0
 20
0.0
  9
$PLIMMAX
 10
12.0
 20
9.0
  9
$UNITMODE
 70
     0
  9
$VISRETAIN
 70
     0
  9
$PLINEGEN
 70
     0
  9
$PSLTSCALE
 70
     0
  0
ENDSEC
  0
SECTION
  2
TABLES
  0
TABLE
  2
VPORT
 70
     1
  0
VPORT
  2
*ACTIVE
 70
     0
 10
0.0
 20
0.0
 11
1.0
 21
1.0
 12
374.98855678130462
 22
350.86677766270412
 13
0.0
 23
0.0
 14
20.0
 24
20.0
 15
20.0
 25
20.0
 16
0.0
 26
0.0
 36
1.0
 17
0.0
 27
0.0
 37
0.0
 40
713.9403104474975
 41
1.7807262569832401
 42
50.0
 43
0.0
 44
0.0
 50
0.0
 51
0.0
 71
    16
 72
   100
 73
     1
 74
     0
 75
     0
 76
     0
 77
     0
 78
     2
  0
ENDTAB
  0
TABLE
  2
LTYPE
 70
     3
  0
LTYPE
  2
CONTINUOUS
 70
     0
  3
Solid Line
 72
    65
 73
     0
 40
0.0
  0
LTYPE
  2
PHANTOM2
 70
     0
  3
___ _ _ ___ _ _ ___ _ _ ___ _ _
 72
    65
 73
     6
 40
1.25
 49
0.625
 49
-0.125
 49
0.125
 49
-0.125
 49
0.125
 49
-0.125
  0
LTYPE
  2
CENTER
 70
     0
  3
____ _ ____ _ ____ _ ____ _ ____ _ ____ _ ____
 72
    65
 73
     4
 40
2.0
 49
1.25
 49
-0.25
 49
0.25
 49
-0.25
  0
ENDTAB
  0
TABLE
  2
LAYER
 70
     4
  0
LAYER
  2
0
 70
     0
 62
     7
  6
CONTINUOUS
  0
LAYER
  2
1
 70
     0
 62
     1
  6
CENTER
  0
LAYER
  2
3
 70
     0
 62
     3
  6
CONTINUOUS
  0
LAYER
  2
DEFPOINTS
 70
     0
 62
     7
  6
CONTINUOUS
  0
ENDTAB
  0
TABLE
  2
STYLE
 70
     3
  0
STYLE
  2
STANDARD
 70
     0
 40
0.0
 41
1.0
 50
0.0
 71
     0
 42
0.2
  3
TXT
  4
BIGFONT
  0
STYLE
  2
ANNOTATIVE
 70
     0
 40
0.0
 41
1.0
 50
0.0
 71
     0
 42
0.2
  3
txt
  4

  0
STYLE
  2
STANDARD1
 70
     0
 40
0.0
 41
1.0
 50
0.0
 71
     0
 42
3.0
  3
txt
  4

  0
ENDTAB
  0
TABLE
  2
VIEW
 70
     1
  0
VIEW
  2
ALL
 70
     0
 40
540.0
 10
441.98319299999991
 20
270.0
 41
0.0
 11
0.0
 21
0.0
 31
1.0
 12
0.0
 22
0.0
 32
0.0
 42
0.0
 43
0.0
 44
0.0
 50
0.0
 71
     0
  0
ENDTAB
  0
TABLE
  2
UCS
 70
     0
  0
ENDTAB
  0
TABLE
  2
APPID
 70
     7
  0
APPID
  2
ACAD
 70
     0
  0
APPID
  2
ACADANNOTATIVE
 70
     0
  0
APPID
  2
ACAD_NAV_VCDISPLAY
 70
     0
  0
APPID
  2
ACAD_EXEMPT_FROM_CAD_STANDARDS
 70
     0
  0
APPID
  2
ACAD_DSTYLE_DIMJAG
 70
     0
  0
APPID
  2
ACAD_DSTYLE_DIMTALN
 70
     0
  0
APPID
  2
ACAD_MLEADERVER
 70
     0
  0
ENDTAB
  0
TABLE
  2
DIMSTYLE
 70
     2
  0
DIMSTYLE
  2
STANDARD
 70
     0
  3

  4

  5

  6

  7

 40
1.0
 41
0.18
 42
0.0625
 43
0.38
 44
0.18
 45
0.0
 46
0.0
 47
0.0
 48
0.0
140
0.18
141
0.09
142
0.0
143
25.399999999999999
144
1.0
145
0.0
146
1.0
147
0.09
 71
     0
 72
     0
 73
     1
 74
     1
 75
     0
 76
     0
 77
     0
 78
     0
170
     0
171
     2
172
     0
173
     0
174
     0
175
     0
176
     0
177
     0
178
     0
  0
DIMSTYLE
  2
ANNOTATIVE
 70
     0
  3

  4

  5

  6

  7

 40
1.0
 41
0.18
 42
0.0625
 43
0.38
 44
0.18
 45
0.0
 46
0.0
 47
0.0
 48
0.0
140
0.18
141
0.09
142
0.0
143
25.399999999999999
144
1.0
145
0.0
146
1.0
147
0.09
 71
     0
 72
     0
 73
     1
 74
     1
 75
     0
 76
     0
 77
     0
 78
     0
170
     0
171
     2
172
     0
173
     0
174
     0
175
     0
176
     0
177
     0
178
     0
  0
ENDTAB
  0
ENDSEC
  0
SECTION
  2
BLOCKS
  0
BLOCK
  8
0
  2
$MODEL_SPACE
 70
     0
 10
0.0
 20
0.0
 30
0.0
  3
$MODEL_SPACE
  1

  0
ENDBLK
  5
1834
  8
0
  0
BLOCK
 67
     1
  8
0
  2
$PAPER_SPACE
 70
     0
 10
0.0
 20
0.0
 30
0.0
  3
$PAPER_SPACE
  1

  0
ENDBLK
  5
1830
 67
     1
  8
0
  0
ENDSEC
  0
SECTION
  2
ENTITIES
  0
LINE
  5
A39
  8
0
 10
116.35663070632491
 20
127.93546470919
 30
0.0
 11
116.35663070632491
 21
113.4816020381203
 31
0.0
  0
LINE
  5
A3A
  8
0
 10
134.85663070632489
 20
113.4816020381203
 30
0.0
 11
134.85663070632489
 21
124.2316397909709
 31
0.0
  0
ARC
  5
A3B
  8
0
 10
125.6166307063249
 20
130.73163979097089
 30
0.0
 40
8.0000000000000089
 50
55.15009542095342
 51
124.84990457904649
  0
ARC
  5
A3C
  8
0
 10
121.6166307063249
 20
136.4762024375089
 30
0.0
 40
0.9999999999999975
 50
124.84990457904701
 51
180.0
  0
ARC
  5
A3D
  8
0
 10
129.61663070632491
 20
136.4762024375089
 30
0.0
 40
0.9999999999999982
 50
0.0
 51
55.15009542095234
  0
LINE
  5
A3E
  8
0
 10
129.61663070632491
 20
82.498639790970898
 30
0.0
 11
129.61663070632491
 21
106.7316397909709
 31
0.0
  0
LINE
  5
A3F
  8
0
 10
121.6166307063249
 20
106.7316397909709
 30
0.0
 11
121.6166307063249
 21
82.498639790970898
 31
0.0
  0
LINE
  5
A40
  8
0
 10
128.84963070632489
 20
81.731639790970902
 30
0.0
 11
129.61663070632491
 21
82.498639790970898
 31
0.0
  0
LINE
  5
A41
  8
0
 10
121.6166307063249
 20
82.498639790970898
 30
0.0
 11
122.38363070632479
 21
81.731639790970902
 31
0.0
  0
LINE
  5
A42
  8
0
 10
130.61663070632491
 20
136.30046212073
 30
0.0
 11
130.61663070632491
 21
136.4762024375089
 31
0.0
  0
LINE
  5
A43
  8
0
 10
120.6166307063249
 20
136.4762024375089
 30
0.0
 11
120.6166307063249
 21
132.3104770700663
 31
0.0
  0
LINE
  5
A44
  8
0
 10
132.36663070632491
 20
106.7316397909709
 30
0.0
 11
132.36663070632491
 21
113.2316397909709
 31
0.0
  0
LINE
  5
A45
  8
0
 10
118.8666307063249
 20
113.2316397909709
 30
0.0
 11
118.8666307063249
 21
106.7316397909709
 31
0.0
  0
POLYLINE
  5
A47
  8
0
 66
     1
 10
0.0
 20
0.0
 30
0.0
  0
VERTEX
  5
18D8
  8
0
 10
116.35663070632491
 20
127.93546470919
 30
0.0
  0
VERTEX
  5
18D9
  8
0
 10
116.35673067682831
 20
127.9632093101478
 30
0.0
  0
VERTEX
  5
18DA
  8
0
 10
116.3575278873524
 20
128.0185760139467
 30
0.0
  0
VERTEX
  5
18DB
  8
0
 10
116.35911328731071
 20
128.07370258526879
 30
0.0
  0
VERTEX
  5
18DC
  8
0
 10
116.3601973221792
 20
128.1011457923874
 30
0.0
  0
VERTEX
  5
18DD
  8
0
 10
116.3614727170236
 20
128.1284933011467
 30
0.0
  0
VERTEX
  5
18DE
  8
0
 10
116.3645874411104
 20
128.18285821803869
 30
0.0
  0
VERTEX
  5
18DF
  8
0
 10
116.3684352116163
 20
128.23672098613551
 30
0.0
  0
VERTEX
  5
18E0
  8
0
 10
116.3729911322534
 20
128.29001740783059
 30
0.0
  0
VERTEX
  5
18E1
  8
0
 10
116.3782274480848
 20
128.34268515599589
 30
0.0
  0
VERTEX
  5
18E2
  8
0
 10
116.3841138227253
 20
128.3946647468604
 30
0.0
  0
VERTEX
  5
18E3
  8
0
 10
116.3872906984563
 20
128.42037903594701
 30
0.0
  0
VERTEX
  5
18E4
  8
0
 10
116.3906177456506
 20
128.4459008795053
 30
0.0
  0
VERTEX
  5
18E5
  8
0
 10
116.397704974215
 20
128.49634327650301
 30
0.0
  0
VERTEX
  5
18E6
  8
0
 10
116.4053423419888
 20
128.54596186001331
 30
0.0
  0
VERTEX
  5
18E7
  8
0
 10
116.41349447684421
 20
128.59472000465681
 30
0.0
  0
VERTEX
  5
18E8
  8
0
 10
116.4221236267898
 20
128.64257584964059
 30
0.0
  0
VERTEX
  5
18E9
  8
0
 10
116.4311902973763
 20
128.6894870685922
 30
0.0
  0
VERTEX
  5
18EA
  8
0
 10
116.43587484186369
 20
128.7125748755318
 30
0.0
  0
VERTEX
  5
18EB
  8
0
 10
116.44065307784631
 20
128.73541002094481
 30
0.0
  0
VERTEX
  5
18EC
  8
0
 10
116.4504684617073
 20
128.78029912616739
 30
0.0
  0
VERTEX
  5
18ED
  8
0
 10
116.4605906808292
 20
128.8241064409269
 30
0.0
  0
VERTEX
  5
18EE
  8
0
 10
116.46575189786
 20
128.84558873391319
 30
0.0
  0
VERTEX
  5
18EF
  8
0
 10
116.4709715670468
 20
128.8667814088835
 30
0.0
  0
VERTEX
  5
18F0
  8
0
 10
116.4815604514784
 20
128.90827075175861
 30
0.0
  0
VERTEX
  5
18F1
  8
0
 10
116.4923048515484
 20
128.9485211955415
 30
0.0
  0
VERTEX
  5
18F2
  8
0
 10
116.4977655812048
 20
128.96833424774169
 30
0.0
  0
VERTEX
  5
18F3
  8
0
 10
116.5033241571691
 20
128.9880902850621
 30
0.0
  0
VERTEX
  5
18F4
  8
0
 10
116.5147340204082
 20
129.02743488301221
 30
0.0
  0
VERTEX
  5
18F5
  8
0
 10
116.52653281902219
 20
129.0665613186228
 30
0.0
  0
VERTEX
  5
18F6
  8
0
 10
116.57086749858721
 20
129.20184770704691
 30
0.0
  0
VERTEX
  5
18F7
  8
0
 10
116.6576585952712
 20
129.427877840653
 30
0.0
  0
VERTEX
  5
18F8
  8
0
 10
116.7574890425997
 20
129.6459973114969
 30
0.0
  0
VERTEX
  5
18F9
  8
0
 10
116.86928508916
 20
129.8550022137963
 30
0.0
  0
VERTEX
  5
18FA
  8
0
 10
116.99143159700159
 20
130.05324531336191
 30
0.0
  0
VERTEX
  5
18FB
  8
0
 10
117.0557167844555
 20
130.14775796664239
 30
0.0
  0
VERTEX
  5
18FC
  8
0
 10
117.1217060917552
 20
130.2388839333918
 30
0.0
  0
VERTEX
  5
18FD
  8
0
 10
117.25728668982239
 20
130.41011011254011
 30
0.0
  0
VERTEX
  5
18FE
  8
0
 10
117.4019291965952
 20
130.5729160246307
 30
0.0
  0
VERTEX
  5
18FF
  8
0
 10
117.55983986449139
 20
130.73135423483041
 30
0.0
  0
VERTEX
  5
1900
  8
0
 10
117.73095683107471
 20
130.88394548128321
 30
0.0
  0
VERTEX
  5
1901
  8
0
 10
117.9150893139353
 20
131.02922262586111
 30
0.0
  0
VERTEX
  5
1902
  8
0
 10
118.01194145694259
 20
131.09866547718519
 30
0.0
  0
VERTEX
  5
1903
  8
0
 10
118.1119154415872
 20
131.16573837556481
 30
0.0
  0
VERTEX
  5
1904
  8
0
 10
118.3209670167512
 20
131.2920660334201
 30
0.0
  0
VERTEX
  5
1905
  8
0
 10
118.5416376234834
 20
131.4068186286413
 30
0.0
  0
VERTEX
  5
1906
  8
0
 10
118.6561279002669
 20
131.45944556163599
 30
0.0
  0
SEQEND
  5
1907
  8
0
  0
POLYLINE
  5
A48
  8
0
 66
     1
 10
0.0
 20
0.0
 30
0.0
  0
VERTEX
  5
1908
  8
0
 10
153.85460415265609
 20
132.5537393479978
 30
0.0
  0
VERTEX
  5
1909
  8
0
 10
153.3190712204098
 20
132.3550315025357
 30
0.0
  0
VERTEX
  5
190A
  8
0
 10
152.24508826696689
 20
131.9505312524102
 30
0.0
  0
VERTEX
  5
190B
  8
0
 10
151.16811964859559
 20
131.53681296795861
 30
0.0
  0
VERTEX
  5
190C
  8
0
 10
150.6287118196644
 20
131.3265335719145
 30
0.0
  0
VERTEX
  5
190D
  8
0
 10
150.0888474468463
 20
131.1140170708029
 30
0.0
  0
VERTEX
  5
190E
  8
0
 10
149.008320481016
 20
130.6824497923017
 30
0.0
  0
VERTEX
  5
190F
  8
0
 10
147.92768012037641
 20
130.2424851179598
 30
0.0
  0
VERTEX
  5
1910
  8
0
 10
146.84805996023221
 20
129.79452700833301
 30
0.0
  0
VERTEX
  5
1911
  8
0
 10
145.770579244549
 20
129.3390069142977
 30
0.0
  0
VERTEX
  5
1912
  8
0
 10
144.69634721944541
 20
128.87638566913111
 30
0.0
  0
VERTEX
  5
1913
  8
0
 10
144.1607948751566
 20
128.6425648463771
 30
0.0
  0
VERTEX
  5
1914
  8
0
 10
143.6264680692714
 20
128.407155778781
 30
0.0
  0
VERTEX
  5
1915
  8
0
 10
142.56203486102021
 20
127.9318389302431
 30
0.0
  0
VERTEX
  5
1916
  8
0
 10
141.50411555631771
 20
127.4509795055684
 30
0.0
  0
VERTEX
  5
1917
  8
0
 10
140.4537193528935
 20
126.96512817433801
 30
0.0
  0
VERTEX
  5
1918
  8
0
 10
139.41188144570191
 20
126.47487998958159
 30
0.0
  0
VERTEX
  5
1919
  8
0
 10
138.3796316402763
 20
125.9808604364536
 30
0.0
  0
VERTEX
  5
191A
  8
0
 10
137.8674188066347
 20
125.7326382964123
 30
0.0
  0
VERTEX
  5
191B
  8
0
 10
137.35797981469449
 20
125.4837181633318
 30
0.0
  0
VERTEX
  5
191C
  8
0
 10
136.34791011064809
 20
124.9841212872853
 30
0.0
  0
VERTEX
  5
191D
  8
0
 10
135.35038862018621
 20
124.4827601783696
 30
0.0
  0
VERTEX
  5
191E
  8
0
 10
134.85663070632489
 20
124.2316397909709
 30
0.0
  0
SEQEND
  5
191F
  8
0
  0
LINE
  5
A4A
  8
0
 10
155.96391685774981
 20
133.3171831059303
 30
0.0
 11
153.85460415265609
 21
132.5537393479978
 31
0.0
  0
LINE
  5
A4C
  8
0
 10
186.06460313422829
 20
139.2989037386192
 30
0.0
 11
179.44608145686399
 21
137.2146315646564
 31
0.0
  0
POLYLINE
  5
A4D
  8
0
 66
     1
 10
0.0
 20
0.0
 30
0.0
  0
VERTEX
  5
1920
  8
0
 10
179.44608145686399
 20
137.2146315646564
 30
0.0
  0
VERTEX
  5
1921
  8
0
 10
179.37194139011521
 20
137.19162858921851
 30
0.0
  0
VERTEX
  5
1922
  8
0
 10
179.22308976967969
 20
137.14751161022019
 30
0.0
  0
VERTEX
  5
1923
  8
0
 10
179.07351182246481
 20
137.10592374601461
 30
0.0
  0
VERTEX
  5
1924
  8
0
 10
178.99846389614461
 20
137.0860819937852
 30
0.0
  0
VERTEX
  5
1925
  8
0
 10
178.92325051692711
 20
137.0668769433247
 30
0.0
  0
VERTEX
  5
1926
  8
0
 10
178.77234901782771
 20
137.0303824189167
 30
0.0
  0
VERTEX
  5
1927
  8
0
 10
178.6208506738329
 20
136.99645065637719
 30
0.0
  0
VERTEX
  5
1928
  8
0
 10
178.4687990050613
 20
136.96509140310221
 30
0.0
  0
VERTEX
  5
1929
  8
0
 10
178.31623769058211
 20
136.93631366749651
 30
0.0
  0
VERTEX
  5
192A
  8
0
 10
178.16321055586781
 20
136.91012571638629
 30
0.0
  0
VERTEX
  5
192B
  8
0
 10
178.0865360383174
 20
136.89800529003591
 30
0.0
  0
VERTEX
  5
192C
  8
0
 10
178.00976156020471
 20
136.88653507264411
 30
0.0
  0
VERTEX
  5
192D
  8
0
 10
177.85593478406449
 20
136.86554851302799
 30
0.0
  0
VERTEX
  5
192E
  8
0
 10
177.70177441644211
 20
136.84717206623449
 30
0.0
  0
VERTEX
  5
192F
  8
0
 10
177.54732474216161
 20
136.8314110111674
 30
0.0
  0
VERTEX
  5
1930
  8
0
 10
177.39263012915421
 20
136.81826987542041
 30
0.0
  0
VERTEX
  5
1931
  8
0
 10
177.23773501571389
 20
136.80775243397741
 30
0.0
  0
VERTEX
  5
1932
  8
0
 10
177.1602261743966
 20
136.80347857223919
 30
0.0
  0
VERTEX
  5
1933
  8
0
 10
177.0826838977309
 20
136.79986170812759
 30
0.0
  0
VERTEX
  5
1934
  8
0
 10
176.9275213159103
 20
136.7945999645973
 30
0.0
  0
VERTEX
  5
1935
  8
0
 10
176.77229184297661
 20
136.79196871489981
 30
0.0
  0
VERTEX
  5
1936
  8
0
 10
176.69466595692339
 20
136.79163979097089
 30
0.0
  0
SEQEND
  5
1937
  8
0
  0
LINE
  5
A4E
  8
0
 10
176.69466595692339
 20
136.79163979097089
 30
0.0
 11
167.8561125074699
 21
136.79163979097089
 31
0.0
  0
POLYLINE
  5
A4F
  8
0
 66
     1
 10
0.0
 20
0.0
 30
0.0
  0
VERTEX
  5
1938
  8
0
 10
167.8561125074699
 20
136.79163979097089
 30
0.0
  0
VERTEX
  5
1939
  8
0
 10
167.80159121718251
 20
136.79142685283071
 30
0.0
  0
VERTEX
  5
193A
  8
0
 10
167.69256194260771
 20
136.78972342566121
 30
0.0
  0
VERTEX
  5
193B
  8
0
 10
167.58357258278579
 20
136.78631698704621
 30
0.0
  0
VERTEX
  5
193C
  8
0
 10
167.52910118365631
 20
136.7839753820119
 30
0.0
  0
VERTEX
  5
193D
  8
0
 10
167.47464973672831
 20
136.7812083683319
 30
0.0
  0
VERTEX
  5
193E
  8
0
 10
167.365819987214
 20
136.7743988162841
 30
0.0
  0
VERTEX
  5
193F
  8
0
 10
167.25710989430141
 20
136.765889992784
 30
0.0
  0
VERTEX
  5
1940
  8
0
 10
167.14854598884639
 20
136.75568397442211
 30
0.0
  0
VERTEX
  5
1941
  8
0
 10
167.040154766028
 20
136.7437832519922
 30
0.0
  0
VERTEX
  5
1942
  8
0
 10
166.9319626788814
 20
136.73019072988291
 30
0.0
  0
VERTEX
  5
1943
  8
0
 10
166.877949564646
 20
136.7227610644899
 30
0.0
  0
VERTEX
  5
1944
  8
0
 10
166.8239961318427
 20
136.71490972536881
 30
0.0
  0
VERTEX
  5
1945
  8
0
 10
166.71628147430431
 20
136.69794396780139
 30
0.0
  0
VERTEX
  5
1946
  8
0
 10
166.60884499418509
 20
136.67929759769831
 30
0.0
  0
VERTEX
  5
1947
  8
0
 10
166.50171291151401
 20
136.65897516573341
 30
0.0
  0
VERTEX
  5
1948
  8
0
 10
166.3949113720312
 20
136.6369816316257
 30
0.0
  0
VERTEX
  5
1949
  8
0
 10
166.28846644080781
 20
136.61332236292901
 30
0.0
  0
VERTEX
  5
194A
  8
0
 10
166.2353858250039
 20
136.60086986666749
 30
0.0
  0
VERTEX
  5
194B
  8
0
 10
166.18240409588361
 20
136.58800313372231
 30
0.0
  0
VERTEX
  5
194C
  8
0
 10
166.07675022192811
 20
136.56103012320031
 30
0.0
  0
VERTEX
  5
194D
  8
0
 10
165.97153060392259
 20
136.53240991416521
 30
0.0
  0
VERTEX
  5
194E
  8
0
 10
165.9190916699001
 20
136.5174842772993
 30
0.0
  0
SEQEND
  5
194F
  8
0
  0
POLYLINE
  5
A50
  8
0
 66
     1
 10
0.0
 20
0.0
 30
0.0
  0
VERTEX
  5
1950
  8
0
 10
165.9190916699001
 20
136.5174842772993
 30
0.0
  0
VERTEX
  5
1951
  8
0
 10
164.24690744603279
 20
136.0254426209427
 30
0.0
  0
VERTEX
  5
1952
  8
0
 10
160.91763196603461
 20
134.9915932331221
 30
0.0
  0
VERTEX
  5
1953
  8
0
 10
157.6095771808026
 20
133.89173264362981
 30
0.0
  0
VERTEX
  5
1954
  8
0
 10
155.96391685774981
 20
133.3171831059303
 30
0.0
  0
SEQEND
  5
1955
  8
0
  0
POLYLINE
  5
A52
  8
0
 66
     1
 10
0.0
 20
0.0
 30
0.0
  0
VERTEX
  5
1956
  8
0
 10
187.891538427131
 20
149.00854482314389
 30
0.0
  0
VERTEX
  5
1957
  8
0
 10
187.91553465519681
 20
149.0103965743163
 30
0.0
  0
VERTEX
  5
1958
  8
0
 10
187.96318478952651
 20
149.01336322876659
 30
0.0
  0
VERTEX
  5
1959
  8
0
 10
188.01033946401591
 20
149.01537147964231
 30
0.0
  0
VERTEX
  5
195A
  8
0
 10
188.0337165467572
 20
149.0160257245787
 30
0.0
  0
VERTEX
  5
195B
  8
0
 10
188.0569525359688
 20
149.0164520541681
 30
0.0
  0
VERTEX
  5
195C
  8
0
 10
188.10300017299301
 20
149.01663762294399
 30
0.0
  0
VERTEX
  5
195D
  8
0
 10
188.14880370790331
 20
149.0159528537078
 30
0.0
  0
VERTEX
  5
195E
  8
0
 10
188.19446951358
 20
149.01440627442719
 30
0.0
  0
VERTEX
  5
195F
  8
0
 10
188.2399775412679
 20
149.01200528885531
 30
0.0
  0
VERTEX
  5
1960
  8
0
 10
188.28530786280839
 20
149.00875789174501
 30
0.0
  0
VERTEX
  5
1961
  8
0
 10
188.30790020989861
 20
149.00681944837439
 30
0.0
  0
VERTEX
  5
1962
  8
0
 10
188.33044075425161
 20
149.00467266639041
 30
0.0
  0
VERTEX
  5
1963
  8
0
 10
188.37535677344559
 20
148.99975877480091
 30
0.0
  0
VERTEX
  5
1964
  8
0
 10
188.42003683145461
 20
148.99402594131209
 30
0.0
  0
VERTEX
  5
1965
  8
0
 10
188.46446225776589
 20
148.98748443039699
 30
0.0
  0
VERTEX
  5
1966
  8
0
 10
188.50861485933891
 20
148.98014501940179
 30
0.0
  0
VERTEX
  5
1967
  8
0
 10
188.5524769736258
 20
148.97201896688381
 30
0.0
  0
VERTEX
  5
1968
  8
0
 10
188.57429373527501
 20
148.9676645912798
 30
0.0
  0
VERTEX
  5
1969
  8
0
 10
188.5960315157553
 20
148.96311797716771
 30
0.0
  0
VERTEX
  5
196A
  8
0
 10
188.6392620201164
 20
148.9534541616876
 30
0.0
  0
VERTEX
  5
196B
  8
0
 10
188.6821526628986
 20
148.94304000107999
 30
0.0
  0
VERTEX
  5
196C
  8
0
 10
188.7034657254213
 20
148.93755554501081
 30
0.0
  0
VERTEX
  5
196D
  8
0
 10
188.724688080297
 20
148.93188836080191
 30
0.0
  0
VERTEX
  5
196E
  8
0
 10
188.76685315649439
 20
148.92001253730359
 30
0.0
  0
VERTEX
  5
196F
  8
0
 10
188.80863305739609
 20
148.90742625342551
 30
0.0
  0
VERTEX
  5
1970
  8
0
 10
188.8293740222185
 20
148.90087109028559
 30
0.0
  0
VERTEX
  5
1971
  8
0
 10
188.850013285919
 20
148.8941436437218
 30
0.0
  0
VERTEX
  5
1972
  8
0
 10
188.8909797314042
 20
148.8801792362618
 30
0.0
  0
VERTEX
  5
1973
  8
0
 10
188.9315187135096
 20
148.86554793145109
 30
0.0
  0
VERTEX
  5
1974
  8
0
 10
188.9716170209029
 20
148.8502649783679
 30
0.0
  0
VERTEX
  5
1975
  8
0
 10
189.01126194509081
 20
148.83434594904759
 30
0.0
  0
VERTEX
  5
1976
  8
0
 10
189.05044130973999
 20
148.81780671108871
 30
0.0
  0
VERTEX
  5
1977
  8
0
 10
189.0698527539196
 20
148.8093095462585
 30
0.0
  0
VERTEX
  5
1978
  8
0
 10
189.08914349584751
 20
148.8006633988939
 30
0.0
  0
VERTEX
  5
1979
  8
0
 10
189.12735746311409
 20
148.7829323838084
 30
0.0
  0
VERTEX
  5
197A
  8
0
 10
189.165072985884
 20
148.7646301352261
 30
0.0
  0
VERTEX
  5
197B
  8
0
 10
189.2022844879597
 20
148.74577118793209
 30
0.0
  0
VERTEX
  5
197C
  8
0
 10
189.23898414142889
 20
148.7263713968911
 30
0.0
  0
VERTEX
  5
197D
  8
0
 10
189.2751627971511
 20
148.7064476943107
 30
0.0
  0
VERTEX
  5
197E
  8
0
 10
189.29305399663289
 20
148.6962947406341
 30
0.0
  0
VERTEX
  5
197F
  8
0
 10
189.31081169263101
 20
148.68601727800851
 30
0.0
  0
VERTEX
  5
1980
  8
0
 10
189.34592248176131
 20
148.66509759291461
 30
0.0
  0
VERTEX
  5
1981
  8
0
 10
189.38048726060109
 20
148.64370631155859
 30
0.0
  0
VERTEX
  5
1982
  8
0
 10
189.4144985895125
 20
148.6218613137822
 30
0.0
  0
VERTEX
  5
1983
  8
0
 10
189.4479495119711
 20
148.59958066587291
 30
0.0
  0
VERTEX
  5
1984
  8
0
 10
189.4808335703496
 20
148.57688259927539
 30
0.0
  0
VERTEX
  5
1985
  8
0
 10
189.49706114717961
 20
148.56538277114771
 30
0.0
  0
VERTEX
  5
1986
  8
0
 10
189.5131448189635
 20
148.5537854890058
 30
0.0
  0
VERTEX
  5
1987
  8
0
 10
189.5448778346518
 20
148.53030783185781
 30
0.0
  0
VERTEX
  5
1988
  8
0
 10
189.57602772514309
 20
148.50646822446379
 30
0.0
  0
VERTEX
  5
1989
  8
0
 10
189.680401368068
 20
148.42045006670639
 30
0.0
  0
VERTEX
  5
198A
  8
0
 10
189.8422099566277
 20
148.2655682380886
 30
0.0
  0
VERTEX
  5
198B
  8
0
 10
189.91492804849531
 20
148.1857132711333
 30
0.0
  0
VERTEX
  5
198C
  8
0
 10
189.98320035943701
 20
148.10371198221759
 30
0.0
  0
VERTEX
  5
198D
  8
0
 10
190.10944162538431
 20
147.92977489211859
 30
0.0
  0
VERTEX
  5
198E
  8
0
 10
190.21982715745031
 20
147.7451855363442
 30
0.0
  0
VERTEX
  5
198F
  8
0
 10
190.31279768496509
 20
147.55289698054611
 30
0.0
  0
VERTEX
  5
1990
  8
0
 10
190.3587183332005
 20
147.4381513325456
 30
0.0
  0
VERTEX
  5
1991
  8
0
 10
190.37067394108499
 20
147.40518303053531
 30
0.0
  0
VERTEX
  5
1992
  8
0
 10
190.38211018020229
 20
147.37216428587499
 30
0.0
  0
VERTEX
  5
1993
  8
0
 10
190.38763701985229
 20
147.35563077246309
 30
0.0
  0
VERTEX
  5
1994
  8
0
 10
190.39303814286109
 20
147.33907795614661
 30
0.0
  0
VERTEX
  5
1995
  8
0
 10
190.40346846194311
 20
147.3059033899174
 30
0.0
  0
VERTEX
  5
1996
  8
0
 10
190.4134112172672
 20
147.27261598177779
 30
0.0
  0
VERTEX
  5
1997
  8
0
 10
190.42287580175071
 20
147.23918672053611
 30
0.0
  0
VERTEX
  5
1998
  8
0
 10
190.43187074157541
 20
147.20558174557391
 30
0.0
  0
VERTEX
  5
1999
  8
0
 10
190.44040346368379
 20
147.17176193448111
 30
0.0
  0
VERTEX
  5
199A
  8
0
 10
190.44449844280311
 20
147.1547577134935
 30
0.0
  0
VERTEX
  5
199B
  8
0
 10
190.44848000324239
 20
147.1376825566029
 30
0.0
  0
VERTEX
  5
199C
  8
0
 10
190.45610464354681
 20
147.10329304317671
 30
0.0
  0
VERTEX
  5
199D
  8
0
 10
190.46327940454151
 20
147.0685373347664
 30
0.0
  0
VERTEX
  5
199E
  8
0
 10
190.46669462707541
 20
147.05102070869731
 30
0.0
  0
VERTEX
  5
199F
  8
0
 10
190.46999291522141
 20
147.03341215092209
 30
0.0
  0
VERTEX
  5
19A0
  8
0
 10
190.47624228291261
 20
146.99786081272671
 30
0.0
  0
VERTEX
  5
19A1
  8
0
 10
190.4820320825028
 20
146.96175270381119
 30
0.0
  0
VERTEX
  5
19A2
  8
0
 10
190.4847546776893
 20
146.94344265073781
 30
0.0
  0
VERTEX
  5
19A3
  8
0
 10
190.48736158802029
 20
146.92493374829269
 30
0.0
  0
VERTEX
  5
19A4
  8
0
 10
190.4922226586003
 20
146.88722640747039
 30
0.0
  0
VERTEX
  5
19A5
  8
0
 10
190.49659688764581
 20
146.84843468957581
 30
0.0
  0
VERTEX
  5
19A6
  8
0
 10
190.50045132932999
 20
146.80836792358451
 30
0.0
  0
VERTEX
  5
19A7
  8
0
 10
190.5024437056951
 20
146.78430185404599
 30
0.0
  0
VERTEX
  5
19A8
  8
0
 10
190.5029764793085
 20
146.77732024349879
 30
0.0
  0
VERTEX
  5
19A9
  8
0
 10
190.5034925259904
 20
146.7702888072223
 30
0.0
  0
VERTEX
  5
19AA
  8
0
 10
190.50374417974081
 20
146.76675389941099
 30
0.0
  0
VERTEX
  5
19AB
  8
0
 10
190.50399153275001
 20
146.763205926914
 30
0.0
  0
VERTEX
  5
19AC
  8
0
 10
190.5044731653561
 20
146.75606996813491
 30
0.0
  0
VERTEX
  5
19AD
  8
0
 10
190.50493706738541
 20
146.7488792860357
 30
0.0
  0
VERTEX
  5
19AE
  8
0
 10
190.5053828593237
 20
146.74163223157231
 30
0.0
  0
VERTEX
  5
19AF
  8
0
 10
190.5058101377347
 20
146.7343271582636
 30
0.0
  0
VERTEX
  5
19B0
  8
0
 10
190.50621847439291
 20
146.72696243157819
 30
0.0
  0
VERTEX
  5
19B1
  8
0
 10
190.50641539930709
 20
146.72325718311311
 30
0.0
  0
VERTEX
  5
19B2
  8
0
 10
190.5066074177868
 20
146.7195363948756
 30
0.0
  0
VERTEX
  5
19B3
  8
0
 10
190.50697649454389
 20
146.71204732347741
 30
0.0
  0
VERTEX
  5
19B4
  8
0
 10
190.5073252079797
 20
146.70449342334351
 30
0.0
  0
VERTEX
  5
19B5
  8
0
 10
190.50749176644109
 20
146.7006915837465
 30
0.0
  0
VERTEX
  5
19B6
  8
0
 10
190.5076530363776
 20
146.69687283463369
 30
0.0
  0
VERTEX
  5
19B7
  8
0
 10
190.50795943124299
 20
146.6891836365844
 30
0.0
  0
VERTEX
  5
19B8
  8
0
 10
190.5082438155589
 20
146.6814238536827
 30
0.0
  0
VERTEX
  5
19B9
  8
0
 10
190.5083775652221
 20
146.6775168623968
 30
0.0
  0
VERTEX
  5
19BA
  8
0
 10
190.50850558207719
 20
146.67359146309289
 30
0.0
  0
VERTEX
  5
19BB
  8
0
 10
190.5087440916775
 20
146.6656844032679
 30
0.0
  0
VERTEX
  5
19BC
  8
0
 10
190.50895867182371
 20
146.65770058364271
 30
0.0
  0
VERTEX
  5
19BD
  8
0
 10
190.50914861515469
 20
146.64963789528321
 30
0.0
  0
VERTEX
  5
19BE
  8
0
 10
190.5093131782335
 20
146.6414942223345
 30
0.0
  0
VERTEX
  5
19BF
  8
0
 10
190.5094515804897
 20
146.63326745408131
 30
0.0
  0
VERTEX
  5
19C0
  8
0
 10
190.50951071701411
 20
146.6291222540855
 30
0.0
  0
VERTEX
  5
19C1
  8
0
 10
190.5095630033727
 20
146.62495549741399
 30
0.0
  0
VERTEX
  5
19C2
  8
0
 10
190.50964658974161
 20
146.6165562894698
 30
0.0
  0
VERTEX
  5
19C3
  8
0
 10
190.5097014435008
 20
146.60806781020199
 30
0.0
  0
VERTEX
  5
19C4
  8
0
 10
190.5097266294957
 20
146.59948809462361
 30
0.0
  0
VERTEX
  5
19C5
  8
0
 10
190.50972127648879
 20
146.5908578714504
 30
0.0
  0
VERTEX
  5
19C6
  8
0
 10
190.5096856372719
 20
146.58231018746571
 30
0.0
  0
VERTEX
  5
19C7
  8
0
 10
190.50965675767819
 20
146.57807042754291
 30
0.0
  0
VERTEX
  5
19C8
  8
0
 10
190.5096206607929
 20
146.5738530616332
 30
0.0
  0
VERTEX
  5
19C9
  8
0
 10
190.50952726859151
 20
146.5654845084085
 30
0.0
  0
VERTEX
  5
19CA
  8
0
 10
190.50940634315501
 20
146.5572024914035
 30
0.0
  0
VERTEX
  5
19CB
  8
0
 10
190.5092587281145
 20
146.54900493577259
 30
0.0
  0
VERTEX
  5
19CC
  8
0
 10
190.50908522869611
 20
146.54088974083581
 30
0.0
  0
VERTEX
  5
19CD
  8
0
 10
190.5088866124151
 20
146.53285479268641
 30
0.0
  0
VERTEX
  5
19CE
  8
0
 10
190.50877811521059
 20
146.5288667499924
 30
0.0
  0
VERTEX
  5
19CF
  8
0
 10
190.50866360999851
 20
146.52489797653999
 30
0.0
  0
VERTEX
  5
19D0
  8
0
 10
190.50841691651439
 20
146.51701718860519
 30
0.0
  0
VERTEX
  5
19D1
  8
0
 10
190.5081471926797
 20
146.50921034727099
 30
0.0
  0
VERTEX
  5
19D2
  8
0
 10
190.50785506632079
 20
146.50147540344051
 30
0.0
  0
VERTEX
  5
19D3
  8
0
 10
190.50754113395391
 20
146.49381034985959
 30
0.0
  0
VERTEX
  5
19D4
  8
0
 10
190.50720596245441
 20
146.48621322932459
 30
0.0
  0
VERTEX
  5
19D5
  8
0
 10
190.5070305814973
 20
146.4824395477568
 30
0.0
  0
VERTEX
  5
19D6
  8
0
 10
190.5068500907814
 20
146.4786821416796
 30
0.0
  0
VERTEX
  5
19D7
  8
0
 10
190.5064740317253
 20
146.47121524954059
 30
0.0
  0
VERTEX
  5
19D8
  8
0
 10
190.50607827364931
 20
146.4638107827156
 30
0.0
  0
VERTEX
  5
19D9
  8
0
 10
190.50566328219239
 20
146.4564670413022
 30
0.0
  0
VERTEX
  5
19DA
  8
0
 10
190.5052295011194
 20
146.44918238455151
 30
0.0
  0
VERTEX
  5
19DB
  8
0
 10
190.50477734995769
 20
146.44195517332159
 30
0.0
  0
VERTEX
  5
19DC
  8
0
 10
190.50454450996469
 20
146.4383625947919
 30
0.0
  0
VERTEX
  5
19DD
  8
0
 10
190.5043072237097
 20
146.4347837593964
 30
0.0
  0
VERTEX
  5
19DE
  8
0
 10
190.50381949374039
 20
146.4276664944596
 30
0.0
  0
VERTEX
  5
19DF
  8
0
 10
190.5033145086303
 20
146.42060173661011
 30
0.0
  0
VERTEX
  5
19E0
  8
0
 10
190.50305564832351
 20
146.41708853800191
 30
0.0
  0
VERTEX
  5
19E1
  8
0
 10
190.5014157076146
 20
146.39626522847129
 30
0.0
  0
VERTEX
  5
19E2
  8
0
 10
190.49771114529131
 20
146.35580382033109
 30
0.0
  0
VERTEX
  5
19E3
  8
0
 10
190.4934762110984
 20
146.31668149017059
 30
0.0
  0
VERTEX
  5
19E4
  8
0
 10
190.4911715553437
 20
146.2975584427958
 30
0.0
  0
SEQEND
  5
19E5
  8
0
  0
LINE
  5
A53
  8
0
 10
190.4911715553437
 20
146.29755844279561
 30
0.0
 11
190.2440358971746
 21
144.31343484606509
 31
0.0
  0
POLYLINE
  5
A54
  8
0
 66
     1
 10
0.0
 20
0.0
 30
0.0
  0
VERTEX
  5
19E6
  8
0
 10
190.2440358971746
 20
144.31343484606521
 30
0.0
  0
VERTEX
  5
19E7
  8
0
 10
190.2401099975115
 20
144.2825644188473
 30
0.0
  0
VERTEX
  5
19E8
  8
0
 10
190.23182117863229
 20
144.22117049669839
 30
0.0
  0
VERTEX
  5
19E9
  8
0
 10
190.22295623917239
 20
144.1602174806805
 30
0.0
  0
VERTEX
  5
19EA
  8
0
 10
190.21830989511051
 20
144.1298982349864
 30
0.0
  0
VERTEX
  5
19EB
  8
0
 10
190.2135219773954
 20
144.0996795842799
 30
0.0
  0
VERTEX
  5
19EC
  8
0
 10
190.203524033115
 20
144.03953161920839
 30
0.0
  0
VERTEX
  5
19ED
  8
0
 10
190.19296699102679
 20
143.97974932327671
 30
0.0
  0
VERTEX
  5
19EE
  8
0
 10
190.1818544887121
 20
143.92030962127669
 30
0.0
  0
VERTEX
  5
19EF
  8
0
 10
190.17018932497399
 20
143.86119082049041
 30
0.0
  0
VERTEX
  5
19F0
  8
0
 10
190.15797356485641
 20
143.8023727446878
 30
0.0
  0
VERTEX
  5
19F1
  8
0
 10
190.1516596803126
 20
143.77307060844109
 30
0.0
  0
VERTEX
  5
19F2
  8
0
 10
190.14520863838709
 20
143.7438368118828
 30
0.0
  0
VERTEX
  5
19F3
  8
0
 10
190.1318955695709
 20
143.68556665612141
 30
0.0
  0
VERTEX
  5
19F4
  8
0
 10
190.11803792378359
 20
143.62755973086271
 30
0.0
  0
VERTEX
  5
19F5
  8
0
 10
190.06526411450571
 20
143.42646844162201
 30
0.0
  0
VERTEX
  5
19F6
  8
0
 10
190.0147319038669
 20
143.25623814135199
 30
0.0
  0
VERTEX
  5
19F7
  8
0
 10
189.9592767601338
 20
143.0877386489876
 30
0.0
  0
VERTEX
  5
19F8
  8
0
 10
189.83338833133061
 20
142.75536326872259
 30
0.0
  0
VERTEX
  5
19F9
  8
0
 10
189.6870616063045
 20
142.42868054290821
 30
0.0
  0
VERTEX
  5
19FA
  8
0
 10
189.52012784354901
 20
142.1085386403976
 30
0.0
  0
VERTEX
  5
19FB
  8
0
 10
189.3326416451128
 20
141.7962595721153
 30
0.0
  0
VERTEX
  5
19FC
  8
0
 10
189.12463597666959
 20
141.49306389596691
 30
0.0
  0
VERTEX
  5
19FD
  8
0
 10
189.01297989260641
 20
141.3452918213037
 30
0.0
  0
VERTEX
  5
19FE
  8
0
 10
188.89625603130759
 20
141.2003030156333
 30
0.0
  0
VERTEX
  5
19FF
  8
0
 10
188.64774653367999
 20
140.91939451665101
 30
0.0
  0
VERTEX
  5
1A00
  8
0
 10
188.37945483430761
 20
140.65180203193421
 30
0.0
  0
VERTEX
  5
1A01
  8
0
 10
188.2139837367294
 20
140.5024428708285
 30
0.0
  0
VERTEX
  5
1A02
  8
0
 10
188.16550937718
 20
140.46073404114969
 30
0.0
  0
VERTEX
  5
1A03
  8
0
 10
188.11650707043941
 20
140.4194665470267
 30
0.0
  0
VERTEX
  5
1A04
  8
0
 10
188.09180862238961
 20
140.39900039415301
 30
0.0
  0
VERTEX
  5
1A05
  8
0
 10
188.0669709446523
 20
140.37864050868049
 30
0.0
  0
VERTEX
  5
1A06
  8
0
 10
188.0166466011151
 20
140.3380583519409
 30
0.0
  0
VERTEX
  5
1A07
  8
0
 10
187.96542076667629
 20
140.29765046422469
 30
0.0
  0
VERTEX
  5
1A08
  8
0
 10
187.9133061845782
 20
140.25745101301661
 30
0.0
  0
VERTEX
  5
1A09
  8
0
 10
187.8603164671089
 20
140.21749364880071
 30
0.0
  0
VERTEX
  5
1A0A
  8
0
 10
187.80646607607011
 20
140.1778114566647
 30
0.0
  0
VERTEX
  5
1A0B
  8
0
 10
187.77922287345751
 20
140.15808372258559
 30
0.0
  0
VERTEX
  5
1A0C
  8
0
 10
187.75177029743281
 20
140.1384369073657
 30
0.0
  0
VERTEX
  5
1A0D
  8
0
 10
187.69624520946499
 20
140.0994018078074
 30
0.0
  0
VERTEX
  5
1A0E
  8
0
 10
187.6399076435749
 20
140.06073725093941
 30
0.0
  0
VERTEX
  5
1A0F
  8
0
 10
187.58277513710041
 20
140.02247356515511
 30
0.0
  0
VERTEX
  5
1A10
  8
0
 10
187.52486587725269
 20
139.98464026333451
 30
0.0
  0
VERTEX
  5
1A11
  8
0
 10
187.46619863541559
 20
139.9472659917507
 30
0.0
  0
VERTEX
  5
1A12
  8
0
 10
187.43658677853301
 20
139.9287596947527
 30
0.0
  0
VERTEX
  5
1A13
  8
0
 10
187.40679269097279
 20
139.91037847912
 30
0.0
  0
VERTEX
  5
1A14
  8
0
 10
187.34666776961751
 20
139.87400450154871
 30
0.0
  0
VERTEX
  5
1A15
  8
0
 10
187.28584431786649
 20
139.83817004846799
 30
0.0
  0
VERTEX
  5
1A16
  8
0
 10
187.25517731519261
 20
139.82046309538771
 30
0.0
  0
VERTEX
  5
1A17
  8
0
 10
187.22434381512741
 20
139.80290048362721
 30
0.0
  0
VERTEX
  5
1A18
  8
0
 10
187.16218875377601
 20
139.768220494513
 30
0.0
  0
VERTEX
  5
1A19
  8
0
 10
187.0994025808273
 20
139.73415402369531
 30
0.0
  0
VERTEX
  5
1A1A
  8
0
 10
187.06778039955799
 20
139.71735811947849
 30
0.0
  0
VERTEX
  5
1A1B
  8
0
 10
187.03600963149131
 20
139.70072420178869
 30
0.0
  0
VERTEX
  5
1A1C
  8
0
 10
186.97203505382291
 20
139.66795328224001
 30
0.0
  0
VERTEX
  5
1A1D
  8
0
 10
186.9075047236928
 20
139.63586257823269
 30
0.0
  0
VERTEX
  5
1A1E
  8
0
 10
186.8424451493315
 20
139.60447240208339
 30
0.0
  0
VERTEX
  5
1A1F
  8
0
 10
186.77688336475219
 20
139.57380200758661
 30
0.0
  0
VERTEX
  5
1A20
  8
0
 10
186.71084681141869
 20
139.54386953585069
 30
0.0
  0
VERTEX
  5
1A21
  8
0
 10
186.67765915145159
 20
139.52918537345229
 30
0.0
  0
VERTEX
  5
1A22
  8
0
 10
186.6443631625028
 20
139.51469194577319
 30
0.0
  0
VERTEX
  5
1A23
  8
0
 10
186.5774475588203
 20
139.48627970268959
 30
0.0
  0
VERTEX
  5
1A24
  8
0
 10
186.51011921015061
 20
139.4586443908326
 30
0.0
  0
VERTEX
  5
1A25
  8
0
 10
186.44240864034151
 20
139.4318012665475
 30
0.0
  0
VERTEX
  5
1A26
  8
0
 10
186.37434723639271
 20
139.4057645691274
 30
0.0
  0
VERTEX
  5
1A27
  8
0
 10
186.3059671236484
 20
139.38054744801741
 30
0.0
  0
VERTEX
  5
1A28
  8
0
 10
186.27166775957571
 20
139.36825002333089
 30
0.0
  0
VERTEX
  5
1A29
  8
0
 10
186.2373010309982
 20
139.3561618965754
 30
0.0
  0
VERTEX
  5
1A2A
  8
0
 10
186.16838214580449
 20
139.33261869292639
 30
0.0
  0
VERTEX
  5
1A2B
  8
0
 10
186.09924395837439
 20
139.309927348489
 30
0.0
  0
VERTEX
  5
1A2C
  8
0
 10
186.06460313422829
 20
139.29890373861929
 30
0.0
  0
SEQEND
  5
1A2D
  8
0
  0
LINE
  5
A56
  8
0
 10
134.60666845917541
 20
113.2316397909709
 30
0.0
 11
116.6065929534743
 21
113.2316397909709
 31
0.0
  0
LINE
  5
A57
  8
0
 10
116.35663070632491
 20
113.4816020381203
 30
0.0
 11
116.6065929534743
 21
113.2316397909709
 31
0.0
  0
LINE
  5
A58
  8
0
 10
130.61669993584329
 20
136.30049098265411
 30
0.0
 11
131.43626464894021
 21
136.6021384513115
 31
0.0
  0
POLYLINE
  5
A59
  8
0
 66
     1
 10
0.0
 20
0.0
 30
0.0
  0
VERTEX
  5
1A2E
  8
0
 10
155.96391685774981
 20
143.95580829442119
 30
0.0
  0
VERTEX
  5
1A2F
  8
0
 10
160.89554747368419
 20
145.05970791588771
 30
0.0
  0
VERTEX
  5
1A30
  8
0
 10
170.82958284312241
 20
146.9196096796685
 30
0.0
  0
VERTEX
  5
1A31
  8
0
 10
180.8398053451759
 20
148.31235472150041
 30
0.0
  0
VERTEX
  5
1A32
  8
0
 10
185.86663070632491
 20
148.83254862266111
 30
0.0
  0
SEQEND
  5
1A33
  8
0
  0
LINE
  5
A5A
  8
0
 10
153.85460415265609
 20
143.4464426860284
 30
0.0
 11
155.96391685774981
 21
143.95580829442119
 31
0.0
  0
POLYLINE
  5
A5B
  8
0
 66
     1
 10
0.0
 20
0.0
 30
0.0
  0
VERTEX
  5
1A34
  8
0
 10
132.46037158297489
 20
136.97378994093941
 30
0.0
  0
VERTEX
  5
1A35
  8
0
 10
133.02442011938251
 20
137.17599087277941
 30
0.0
  0
VERTEX
  5
1A36
  8
0
 10
134.152170627624
 20
137.57498204093491
 30
0.0
  0
VERTEX
  5
1A37
  8
0
 10
135.27683445125811
 20
137.9658963825058
 30
0.0
  0
VERTEX
  5
1A38
  8
0
 10
135.83700496157951
 20
138.15801246179299
 30
0.0
  0
VERTEX
  5
1A39
  8
0
 10
136.3951881243556
 20
138.34774045515061
 30
0.0
  0
VERTEX
  5
1A3A
  8
0
 10
137.51188893006531
 20
138.7222160872972
 30
0.0
  0
VERTEX
  5
1A3B
  8
0
 10
138.6519619834225
 20
139.09755407767861
 30
0.0
  0
VERTEX
  5
1A3C
  8
0
 10
139.81496571712231
 20
139.473219532298
 30
0.0
  0
VERTEX
  5
1A3D
  8
0
 10
140.9979272575732
 20
139.8478899678698
 30
0.0
  0
VERTEX
  5
1A3E
  8
0
 10
142.19782856494831
 20
140.2203004063945
 30
0.0
  0
VERTEX
  5
1A3F
  8
0
 10
142.8031867399846
 20
140.4052826042907
 30
0.0
  0
VERTEX
  5
1A40
  8
0
 10
143.41164662553231
 20
140.58925882786559
 30
0.0
  0
VERTEX
  5
1A41
  8
0
 10
144.63631656697081
 20
140.95363689277281
 30
0.0
  0
VERTEX
  5
1A42
  8
0
 10
145.86870748746071
 20
141.31236525323669
 30
0.0
  0
VERTEX
  5
1A43
  8
0
 10
147.10567233183619
 20
141.66445015088749
 30
0.0
  0
VERTEX
  5
1A44
  8
0
 10
148.34404275928441
 20
142.00897246906209
 30
0.0
  0
VERTEX
  5
1A45
  8
0
 10
149.58094173822661
 20
142.34517184526541
 30
0.0
  0
VERTEX
  5
1A46
  8
0
 10
150.19793603844809
 20
142.50993142236641
 30
0.0
  0
VERTEX
  5
1A47
  8
0
 10
150.81342975946649
 20
142.6723436524162
 30
0.0
  0
VERTEX
  5
1A48
  8
0
 10
152.03833494666421
 20
142.98979619133809
 30
0.0
  0
VERTEX
  5
1A49
  8
0
 10
153.2525136283941
 20
143.2969213013329
 30
0.0
  0
VERTEX
  5
1A4A
  8
0
 10
153.85460415265609
 20
143.44644268602829
 30
0.0
  0
SEQEND
  5
1A4B
  8
0
  0
POLYLINE
  5
A5C
  8
0
 66
     1
 10
0.0
 20
0.0
 30
0.0
  0
VERTEX
  5
1A4C
  8
0
 10
118.6561279002669
 20
131.4594455616363
 30
0.0
  0
VERTEX
  5
1A4D
  8
0
 10
118.7064930870782
 20
131.48159788358211
 30
0.0
  0
VERTEX
  5
1A4E
  8
0
 10
118.8082133595699
 20
131.5262911990047
 30
0.0
  0
VERTEX
  5
1A4F
  8
0
 10
118.91119707456799
 20
131.57147601042371
 30
0.0
  0
VERTEX
  5
1A50
  8
0
 10
118.9631411603397
 20
131.59424255844959
 30
0.0
  0
VERTEX
  5
1A51
  8
0
 10
119.01537524434499
 20
131.61711980218459
 30
0.0
  0
VERTEX
  5
1A52
  8
0
 10
119.1206780603285
 20
131.66318984933059
 30
0.0
  0
VERTEX
  5
1A53
  8
0
 10
119.2270332412258
 20
131.70965250371529
 30
0.0
  0
VERTEX
  5
1A54
  8
0
 10
119.3343662102158
 20
131.75647328356479
 30
0.0
  0
VERTEX
  5
1A55
  8
0
 10
119.44260024998481
 20
131.80361695257881
 30
0.0
  0
VERTEX
  5
1A56
  8
0
 10
119.5516566410483
 20
131.85104759098431
 30
0.0
  0
VERTEX
  5
1A57
  8
0
 10
119.6064681062129
 20
131.87485912971121
 30
0.0
  0
VERTEX
  5
1A58
  8
0
 10
119.6614548052264
 20
131.8987286680551
 30
0.0
  0
VERTEX
  5
1A59
  8
0
 10
119.77191245417551
 20
131.94662311599129
 30
0.0
  0
VERTEX
  5
1A5A
  8
0
 10
119.8829457430631
 20
131.99469340512599
 30
0.0
  0
VERTEX
  5
1A5B
  8
0
 10
119.99446942964801
 20
132.04290162051419
 30
0.0
  0
VERTEX
  5
1A5C
  8
0
 10
120.1063970392118
 20
132.0912095400339
 30
0.0
  0
VERTEX
  5
1A5D
  8
0
 10
120.218706839193
 20
132.13960704861319
 30
0.0
  0
VERTEX
  5
1A5E
  8
0
 10
120.2753219946555
 20
132.16397553788781
 30
0.0
  0
VERTEX
  5
1A5F
  8
0
 10
120.3323541977208
 20
132.18850415927821
 30
0.0
  0
VERTEX
  5
1A60
  8
0
 10
120.4476506404912
 20
132.23803191755911
 30
0.0
  0
VERTEX
  5
1A61
  8
0
 10
120.5645569153143
 20
132.28817015478899
 30
0.0
  0
VERTEX
  5
1A62
  8
0
 10
120.62360103966419
 20
132.31346173287511
 30
0.0
  0
VERTEX
  5
1A63
  8
0
 10
120.6830321966702
 20
132.33889809650799
 30
0.0
  0
VERTEX
  5
1A64
  8
0
 10
120.803034216716
 20
132.3901944277126
 30
0.0
  0
VERTEX
  5
1A65
  8
0
 10
120.9245193990069
 20
132.44203735878199
 30
0.0
  0
VERTEX
  5
1A66
  8
0
 10
120.9858042341329
 20
132.46815687663121
 30
0.0
  0
VERTEX
  5
1A67
  8
0
 10
121.04744299530419
 20
132.4944046921911
 30
0.0
  0
VERTEX
  5
1A68
  8
0
 10
121.17175922583419
 20
132.5472738901118
 30
0.0
  0
VERTEX
  5
1A69
  8
0
 10
121.2974214233556
 20
132.60062214300359
 30
0.0
  0
VERTEX
  5
1A6A
  8
0
 10
121.4243821813768
 20
132.6544264392852
 30
0.0
  0
VERTEX
  5
1A6B
  8
0
 10
121.55259350685679
 20
132.7086636361748
 30
0.0
  0
VERTEX
  5
1A6C
  8
0
 10
121.6820069776979
 20
132.76331053177739
 30
0.0
  0
VERTEX
  5
1A6D
  8
0
 10
121.747149303575
 20
132.79078036588271
 30
0.0
  0
VERTEX
  5
1A6E
  8
0
 10
121.8125738384623
 20
132.81834391033121
 30
0.0
  0
VERTEX
  5
1A6F
  8
0
 10
121.9442445042946
 20
132.87374033814581
 30
0.0
  0
VERTEX
  5
1A70
  8
0
 10
122.0769681059252
 20
132.92947597898549
 30
0.0
  0
VERTEX
  5
1A71
  8
0
 10
122.2106925708901
 20
132.9855266360623
 30
0.0
  0
VERTEX
  5
1A72
  8
0
 10
122.3453647505539
 20
133.04186781272341
 30
0.0
  0
VERTEX
  5
1A73
  8
0
 10
122.48093054813759
 20
133.09847477286471
 30
0.0
  0
VERTEX
  5
1A74
  8
0
 10
122.5490314209528
 20
133.1268701410624
 30
0.0
  0
VERTEX
  5
1A75
  8
0
 10
122.6173350480929
 20
133.15532260118431
 30
0.0
  0
VERTEX
  5
1A76
  8
0
 10
122.7545226471797
 20
133.21238626339311
 30
0.0
  0
VERTEX
  5
1A77
  8
0
 10
122.8924371876161
 20
133.2696406665074
 30
0.0
  0
VERTEX
  5
1A78
  8
0
 10
123.03102209267981
 20
133.32706071935149
 30
0.0
  0
VERTEX
  5
1A79
  8
0
 10
123.17022050514839
 20
133.3846213933987
 30
0.0
  0
VERTEX
  5
1A7A
  8
0
 10
123.30997542896731
 20
133.4422977840849
 30
0.0
  0
VERTEX
  5
1A7B
  8
0
 10
123.3800441421202
 20
133.47117179325721
 30
0.0
  0
VERTEX
  5
1A7C
  8
0
 10
123.4502357043097
 20
133.50006757147
 30
0.0
  0
VERTEX
  5
1A7D
  8
0
 10
123.5909630330161
 20
133.55791388249079
 30
0.0
  0
VERTEX
  5
1A7E
  8
0
 10
123.7321009853752
 20
133.6158125374609
 30
0.0
  0
VERTEX
  5
1A7F
  8
0
 10
123.87359077282019
 20
133.6737385766458
 30
0.0
  0
VERTEX
  5
1A80
  8
0
 10
124.0153727995492
 20
133.7316669041991
 30
0.0
  0
VERTEX
  5
1A81
  8
0
 10
124.15738679456901
 20
133.7895723459807
 30
0.0
  0
VERTEX
  5
1A82
  8
0
 10
124.22846179352339
 20
133.8185086104757
 30
0.0
  0
VERTEX
  5
1A83
  8
0
 10
124.29957194442019
 20
133.8474297067942
 30
0.0
  0
VERTEX
  5
1A84
  8
0
 10
124.4418670269212
 20
133.90521382716631
 30
0.0
  0
VERTEX
  5
1A85
  8
0
 10
124.5842105462969
 20
133.9628996398076
 30
0.0
  0
VERTEX
  5
1A86
  8
0
 10
124.7265408700864
 20
134.02046222590039
 30
0.0
  0
VERTEX
  5
1A87
  8
0
 10
124.86879636825149
 20
134.07787687137429
 30
0.0
  0
VERTEX
  5
1A88
  8
0
 10
125.0109155549289
 20
134.13511912333649
 30
0.0
  0
VERTEX
  5
1A89
  8
0
 10
125.081904892129
 20
134.16366804559661
 30
0.0
  0
VERTEX
  5
1A8A
  8
0
 10
125.1528372329371
 20
134.19216484669101
 30
0.0
  0
VERTEX
  5
1A8B
  8
0
 10
125.2945004738817
 20
134.24899021395751
 30
0.0
  0
VERTEX
  5
1A8C
  8
0
 10
125.4358439332962
 20
134.3055714290642
 30
0.0
  0
VERTEX
  5
1A8D
  8
0
 10
125.5063763805728
 20
134.3337630198078
 30
0.0
  0
VERTEX
  5
1A8E
  8
0
 10
125.57680556963081
 20
134.3618846154661
 30
0.0
  0
VERTEX
  5
1A8F
  8
0
 10
125.7173227817768
 20
134.41790587209579
 30
0.0
  0
VERTEX
  5
1A90
  8
0
 10
125.8573325596325
 20
134.4736113335849
 30
0.0
  0
VERTEX
  5
1A91
  8
0
 10
125.92712739504719
 20
134.50133820750011
 30
0.0
  0
VERTEX
  5
1A92
  8
0
 10
125.9967716337266
 20
134.52897722913909
 30
0.0
  0
VERTEX
  5
1A93
  8
0
 10
126.1355766241702
 20
134.58397994018759
 30
0.0
  0
VERTEX
  5
1A94
  8
0
 10
126.2736841892708
 20
134.63859605695239
 30
0.0
  0
VERTEX
  5
1A95
  8
0
 10
126.41103117419379
 20
134.692802434106
 30
0.0
  0
VERTEX
  5
1A96
  8
0
 10
126.5475547601168
 20
134.7465762457083
 30
0.0
  0
VERTEX
  5
1A97
  8
0
 10
126.68319261437701
 20
134.79989503963591
 30
0.0
  0
VERTEX
  5
1A98
  8
0
 10
126.7506600834017
 20
134.82637690422831
 30
0.0
  0
VERTEX
  5
1A99
  8
0
 10
126.81788421134409
 20
134.8527372499785
 30
0.0
  0
VERTEX
  5
1A9A
  8
0
 10
126.9524731472337
 20
134.90543513901341
 30
0.0
  0
VERTEX
  5
1A9B
  8
0
 10
127.0876726119927
 20
134.9582674468611
 30
0.0
  0
VERTEX
  5
1A9C
  8
0
 10
127.2234090507541
 20
135.01120417853639
 30
0.0
  0
VERTEX
  5
1A9D
  8
0
 10
127.3596086666942
 20
135.06421547019261
 30
0.0
  0
VERTEX
  5
1A9E
  8
0
 10
127.496197580065
 20
135.1172716534445
 30
0.0
  0
VERTEX
  5
1A9F
  8
0
 10
127.564614952114
 20
135.1438073770027
 30
0.0
  0
VERTEX
  5
1AA0
  8
0
 10
127.6331019863261
 20
135.1703433182833
 30
0.0
  0
VERTEX
  5
1AA1
  8
0
 10
127.7702483140238
 20
135.223401374834
 30
0.0
  0
VERTEX
  5
1AA2
  8
0
 10
127.9075633829664
 20
135.27641711416959
 30
0.0
  0
VERTEX
  5
1AA3
  8
0
 10
128.04497456314169
 20
135.32936226835361
 30
0.0
  0
VERTEX
  5
1AA4
  8
0
 10
128.18240993472401
 20
135.38220906984731
 30
0.0
  0
VERTEX
  5
1AA5
  8
0
 10
128.31979844941111
 20
135.43493031037909
 30
0.0
  0
VERTEX
  5
1AA6
  8
0
 10
128.38845321116639
 20
135.46123551000301
 30
0.0
  0
VERTEX
  5
1AA7
  8
0
 10
128.4570700932305
 20
135.48749939933509
 30
0.0
  0
VERTEX
  5
1AA8
  8
0
 10
128.5941559856999
 20
135.53989039681969
 30
0.0
  0
VERTEX
  5
1AA9
  8
0
 10
128.73098781970219
 20
135.59207779480991
 30
0.0
  0
VERTEX
  5
1AAA
  8
0
 10
128.86749729952601
 20
135.644036299985
 30
0.0
  0
VERTEX
  5
1AAB
  8
0
 10
129.00361624620371
 20
135.69574087213559
 30
0.0
  0
VERTEX
  5
1AAC
  8
0
 10
129.1392767670838
 20
135.74716678615539
 30
0.0
  0
VERTEX
  5
1AAD
  8
0
 10
129.2069140207021
 20
135.77276762068499
 30
0.0
  0
VERTEX
  5
1AAE
  8
0
 10
129.2744114222688
 20
135.7982896918208
 30
0.0
  0
VERTEX
  5
1AAF
  8
0
 10
129.40895338835381
 20
135.8490856715558
 30
0.0
  0
VERTEX
  5
1AB0
  8
0
 10
129.54283661983561
 20
135.89953129635569
 30
0.0
  0
VERTEX
  5
1AB1
  8
0
 10
129.67599600849891
 20
135.9496036800206
 30
0.0
  0
VERTEX
  5
1AB2
  8
0
 10
129.8083675410129
 20
135.99928053182131
 30
0.0
  0
VERTEX
  5
1AB3
  8
0
 10
129.93988845489949
 20
136.04854020769761
 30
0.0
  0
VERTEX
  5
1AB4
  8
0
 10
130.005310696647
 20
136.0730070300024
 30
0.0
  0
VERTEX
  5
1AB5
  8
0
 10
130.0704973929555
 20
136.09736176005899
 30
0.0
  0
VERTEX
  5
1AB6
  8
0
 10
130.20014649233431
 20
136.1457294348628
 30
0.0
  0
VERTEX
  5
1AB7
  8
0
 10
130.32879221145259
 20
136.1936292070566
 30
0.0
  0
VERTEX
  5
1AB8
  8
0
 10
130.3927203116441
 20
136.21739746063921
 30
0.0
  0
VERTEX
  5
1AB9
  8
0
 10
130.4563754204552
 20
136.24104137065129
 30
0.0
  0
VERTEX
  5
1ABA
  8
0
 10
130.58283743950079
 20
136.2879465344368
 30
0.0
  0
VERTEX
  5
1ABB
  8
0
 10
130.7081202951955
 20
136.3343257113946
 30
0.0
  0
VERTEX
  5
1ABC
  8
0
 10
130.77030165717389
 20
136.3573122465275
 30
0.0
  0
VERTEX
  5
1ABD
  8
0
 10
130.83216689856499
 20
136.38016037794381
 30
0.0
  0
VERTEX
  5
1ABE
  8
0
 10
130.95492121790281
 20
136.4254325304685
 30
0.0
  0
VERTEX
  5
1ABF
  8
0
 10
131.0763284467215
 20
136.47012473927319
 30
0.0
  0
VERTEX
  5
1AC0
  8
0
 10
131.19633516699611
 20
136.5142202000971
 30
0.0
  0
VERTEX
  5
1AC1
  8
0
 10
131.31488950785459
 20
136.55770278330689
 30
0.0
  0
VERTEX
  5
1AC2
  8
0
 10
131.43194129981481
 20
136.600557080871
 30
0.0
  0
VERTEX
  5
1AC3
  8
0
 10
131.4898885641845
 20
136.62174401591631
 30
0.0
  0
VERTEX
  5
1AC4
  8
0
 10
131.54744222462901
 20
136.64276845119841
 30
0.0
  0
VERTEX
  5
1AC5
  8
0
 10
131.66134645763611
 20
136.68432324302981
 30
0.0
  0
VERTEX
  5
1AC6
  8
0
 10
131.77360949027559
 20
136.72520835485551
 30
0.0
  0
VERTEX
  5
1AC7
  8
0
 10
131.8841867142074
 20
136.76541071234541
 30
0.0
  0
VERTEX
  5
1AC8
  8
0
 10
131.9930347985389
 20
136.8049177639592
 30
0.0
  0
VERTEX
  5
1AC9
  8
0
 10
132.10011188879511
 20
136.8437175449138
 30
0.0
  0
VERTEX
  5
1ACA
  8
0
 10
132.1529736789474
 20
136.8628486440129
 30
0.0
  0
VERTEX
  5
1ACB
  8
0
 10
132.20537778346869
 20
136.88179873245039
 30
0.0
  0
VERTEX
  5
1ACC
  8
0
 10
132.3087941023139
 20
136.91915069765321
 30
0.0
  0
VERTEX
  5
1ACD
  8
0
 10
132.41032444653891
 20
136.9557635539621
 30
0.0
  0
VERTEX
  5
1ACE
  8
0
 10
132.46037158297489
 20
136.97378994093941
 30
0.0
  0
SEQEND
  5
1ACF
  8
0
  0
LINE
  5
A5D
  8
0
 10
185.86663070632491
 20
148.83254862266111
 30
0.0
 11
187.891538427131
 21
149.00854482314389
 31
0.0
  0
LINE
  5
A5F
  8
0
 10
121.6166307063249
 20
82.498639790970898
 30
0.0
 11
129.61663070632491
 21
82.498639790970898
 31
0.0
  0
LINE
  5
A60
  8
0
 10
122.38363070632479
 20
81.731639790970902
 30
0.0
 11
128.84963070632489
 21
81.731639790970902
 31
0.0
  0
LINE
  5
A62
  8
0
 10
118.8666307063249
 20
106.7316397909709
 30
0.0
 11
132.36663070632491
 21
106.7316397909709
 31
0.0
  0
LINE
  5
A63
  8
3
 10
128.84963070632489
 20
81.731639790970902
 30
0.0
 11
128.84963070632489
 21
106.7316397909709
 31
0.0
  0
LINE
  5
A64
  8
0
 10
129.61663070632491
 20
106.7316397909709
 30
0.0
 11
128.84963070632489
 21
106.7316397909709
 31
0.0
  0
LINE
  5
A65
  8
3
 10
122.38363070632479
 20
81.731639790970902
 30
0.0
 11
122.38363070632479
 21
106.7316397909709
 31
0.0
  0
LINE
  5
A66
  8
0
 10
121.6166307063249
 20
106.7316397909709
 30
0.0
 11
122.38363070632479
 21
106.7316397909709
 31
0.0
  0
LINE
  5
A97
  8
1
 10
242.07547453295521
 20
151.01667401650781
 30
0.0
 11
242.07547453295521
 21
79.731639790970902
 31
0.0
  0
LINE
  5
A98
  8
0
 10
246.27313307572339
 20
149.01667401650781
 30
0.0
 11
237.877815990187
 21
149.01667401650781
 31
0.0
  0
LINE
  5
A99
  8
0
 10
232.57547453295521
 20
134.37777365261101
 30
0.0
 11
232.82547453295521
 21
113.2316397909709
 31
0.0
  0
LINE
  5
A9A
  8
0
 10
236.2394491163675
 20
143.8873538945958
 30
0.0
 11
236.2394491163675
 21
133.21439762448449
 31
0.0
  0
LINE
  5
A9B
  8
0
 10
247.9114999495429
 20
133.21439762448449
 30
0.0
 11
247.9114999495429
 21
143.8873538945958
 31
0.0
  0
LINE
  5
A9C
  8
0
 10
251.32547453295521
 20
113.2316397909709
 30
0.0
 11
251.5754745329553
 21
134.37777365261101
 31
0.0
  0
LINE
  5
A9F
  8
0
 10
246.07547453295521
 20
82.498639790970898
 30
0.0
 11
246.07547453295521
 21
106.7316397909709
 31
0.0
  0
LINE
  5
AA0
  8
0
 10
238.07547453295521
 20
106.7316397909709
 30
0.0
 11
238.07547453295521
 21
82.498639790970898
 31
0.0
  0
LINE
  5
AA1
  8
0
 10
245.3084745329551
 20
81.731639790970902
 30
0.0
 11
246.07547453295521
 21
82.498639790970898
 31
0.0
  0
LINE
  5
AA2
  8
0
 10
238.07547453295521
 20
82.498639790970898
 30
0.0
 11
238.84247453295521
 21
81.731639790970902
 31
0.0
  0
LINE
  5
AA3
  8
0
 10
248.82547453295521
 20
106.7316397909709
 30
0.0
 11
248.82547453295521
 21
113.2316397909709
 31
0.0
  0
LINE
  5
AA4
  8
0
 10
235.32547453295521
 20
113.2316397909709
 30
0.0
 11
235.32547453295521
 21
106.7316397909709
 31
0.0
  0
LINE
  5
AA7
  8
0
 10
236.6044898319017
 20
136.5174842772993
 30
0.0
 11
247.54645923400869
 21
136.5174842772993
 31
0.0
  0
LINE
  5
AA8
  8
0
 10
237.32960191374281
 20
139.29890373861929
 30
0.0
 11
246.82134715216759
 21
139.29890373861929
 31
0.0
  0
LINE
  5
AA9
  8
0
 10
237.09340992725279
 20
137.2146315646564
 30
0.0
 11
247.0575391386576
 21
137.2146315646564
 31
0.0
  0
POLYLINE
  5
AAB
  8
0
 66
     1
 10
0.0
 20
0.0
 30
0.0
  0
VERTEX
  5
1AD0
  8
0
 10
246.6654745329551
 20
128.95028609692321
 30
0.0
  0
VERTEX
  5
1AD1
  8
0
 10
246.6662575097283
 20
129.0578358435647
 30
0.0
  0
VERTEX
  5
1AD2
  8
0
 10
246.67253356553971
 20
129.2718329006081
 30
0.0
  0
VERTEX
  5
1AD3
  8
0
 10
246.6851156686046
 20
129.48431963791421
 30
0.0
  0
VERTEX
  5
1AD4
  8
0
 10
246.6937806242596
 20
129.58998182843561
 30
0.0
  0
VERTEX
  5
1AD5
  8
0
 10
246.7040327474173
 20
129.69524885773691
 30
0.0
  0
VERTEX
  5
1AD6
  8
0
 10
246.72931127330841
 20
129.90457488650171
 30
0.0
  0
VERTEX
  5
1AD7
  8
0
 10
246.7609752679092
 20
130.11225351421669
 30
0.0
  0
VERTEX
  5
1AD8
  8
0
 10
246.79904626209211
 20
130.31824175513691
 30
0.0
  0
VERTEX
  5
1AD9
  8
0
 10
246.8435432584767
 20
130.52249783230781
 30
0.0
  0
VERTEX
  5
1ADA
  8
0
 10
246.89448270904171
 20
130.72498124260969
 30
0.0
  0
VERTEX
  5
1ADB
  8
0
 10
246.92237279505059
 20
130.8255459042883
 30
0.0
  0
VERTEX
  5
1ADC
  8
0
 10
246.95187850213239
 20
130.92565281955399
 30
0.0
  0
VERTEX
  5
1ADD
  8
0
 10
247.01574195910749
 20
131.1244747931178
 30
0.0
  0
VERTEX
  5
1ADE
  8
0
 10
247.08608184095581
 20
131.32141084655399
 30
0.0
  0
VERTEX
  5
1ADF
  8
0
 10
247.1629043652274
 20
131.51642617012081
 30
0.0
  0
VERTEX
  5
1AE0
  8
0
 10
247.24621323363519
 20
131.7094875116631
 30
0.0
  0
VERTEX
  5
1AE1
  8
0
 10
247.3360200974227
 20
131.9005845247919
 30
0.0
  0
VERTEX
  5
1AE2
  8
0
 10
247.383366194313
 20
131.99539759033661
 30
0.0
  0
VERTEX
  5
1AE3
  8
0
 10
247.4323410872617
 20
132.08971515761201
 30
0.0
  0
VERTEX
  5
1AE4
  8
0
 10
247.53517723962071
 20
132.2768485228826
 30
0.0
  0
VERTEX
  5
1AE5
  8
0
 10
247.6445268638065
 20
132.4619549806016
 30
0.0
  0
VERTEX
  5
1AE6
  8
0
 10
247.7016429830249
 20
132.5537392622841
 30
0.0
  0
SEQEND
  5
1AE7
  8
0
  0
POLYLINE
  5
AAD
  8
0
 66
     1
 10
0.0
 20
0.0
 30
0.0
  0
VERTEX
  5
1AE8
  8
0
 10
236.44930602863499
 20
132.5537393479978
 30
0.0
  0
VERTEX
  5
1AE9
  8
0
 10
236.50642215084159
 20
132.4619550644037
 30
0.0
  0
VERTEX
  5
1AEA
  8
0
 10
236.61577178075169
 20
132.2768486027723
 30
0.0
  0
VERTEX
  5
1AEB
  8
0
 10
236.71860793849731
 20
132.0897152334714
 30
0.0
  0
VERTEX
  5
1AEC
  8
0
 10
236.76758283401239
 20
131.9953976641371
 30
0.0
  0
VERTEX
  5
1AED
  8
0
 10
236.81492893338421
 20
131.9005845965047
 30
0.0
  0
VERTEX
  5
1AEE
  8
0
 10
236.90473580187921
 20
131.70948757911671
 30
0.0
  0
VERTEX
  5
1AEF
  8
0
 10
236.98804467464799
 20
131.5164262332184
 30
0.0
  0
VERTEX
  5
1AF0
  8
0
 10
237.06486720294239
 20
131.3214109051834
 30
0.0
  0
VERTEX
  5
1AF1
  8
0
 10
237.1352070884748
 20
131.12447484716901
 30
0.0
  0
VERTEX
  5
1AF2
  8
0
 10
237.19907054879499
 20
130.92565286891909
 30
0.0
  0
VERTEX
  5
1AF3
  8
0
 10
237.22857625742211
 20
130.8255459512707
 30
0.0
  0
VERTEX
  5
1AF4
  8
0
 10
237.25646634489181
 20
130.72498128718331
 30
0.0
  0
VERTEX
  5
1AF5
  8
0
 10
237.30740579812411
 20
130.5224978719873
 30
0.0
  0
VERTEX
  5
1AF6
  8
0
 10
237.351902796838
 20
130.31824178982211
 30
0.0
  0
VERTEX
  5
1AF7
  8
0
 10
237.38997379301301
 20
130.1122535438106
 30
0.0
  0
VERTEX
  5
1AF8
  8
0
 10
237.42163778926951
 20
129.9045749109103
 30
0.0
  0
VERTEX
  5
1AF9
  8
0
 10
237.44691631648161
 20
129.69524887686941
 30
0.0
  0
VERTEX
  5
1AFA
  8
0
 10
237.4571684401746
 20
129.5899818448969
 30
0.0
  0
VERTEX
  5
1AFB
  8
0
 10
237.46583339628191
 20
129.48431965168299
 30
0.0
  0
VERTEX
  5
1AFC
  8
0
 10
237.4784155000028
 20
129.2718329089293
 30
0.0
  0
VERTEX
  5
1AFD
  8
0
 10
237.4846915561414
 20
129.05783584635779
 30
0.0
  0
VERTEX
  5
1AFE
  8
0
 10
237.48547453295521
 20
128.95028609692321
 30
0.0
  0
SEQEND
  5
1AFF
  8
0
  0
POLYLINE
  5
AB0
  8
0
 66
     1
 10
0.0
 20
0.0
 30
0.0
  0
VERTEX
  5
1B00
  8
0
 10
236.24466956922339
 20
133.3171831059303
 30
0.0
  0
VERTEX
  5
1B01
  8
0
 10
236.24306644710671
 20
133.30000182825111
 30
0.0
  0
VERTEX
  5
1B02
  8
0
 10
236.2407454812861
 20
133.26569531577081
 30
0.0
  0
VERTEX
  5
1B03
  8
0
 10
236.23959248553689
 20
133.2314732839053
 30
0.0
  0
VERTEX
  5
1B04
  8
0
 10
236.2394491163675
 20
133.21439762448449
 30
0.0
  0
SEQEND
  5
1B05
  8
0
  0
POLYLINE
  5
AB1
  8
0
 66
     1
 10
0.0
 20
0.0
 30
0.0
  0
VERTEX
  5
1B06
  8
0
 10
236.2394491163675
 20
133.21439762448449
 30
0.0
  0
VERTEX
  5
1B07
  8
0
 10
236.23960243048819
 20
133.19672319029979
 30
0.0
  0
VERTEX
  5
1B08
  8
0
 10
236.24083486522889
 20
133.16121217515851
 30
0.0
  0
VERTEX
  5
1B09
  8
0
 10
236.24331436468549
 20
133.1254939178452
 30
0.0
  0
VERTEX
  5
1B0A
  8
0
 10
236.24502628209589
 20
133.10756046930669
 30
0.0
  0
VERTEX
  5
1B0B
  8
0
 10
236.2470552659077
 20
133.0895793041982
 30
0.0
  0
VERTEX
  5
1B0C
  8
0
 10
236.2520709300307
 20
133.05347936540079
 30
0.0
  0
VERTEX
  5
1B0D
  8
0
 10
236.25837374054771
 20
133.01720525971021
 30
0.0
  0
VERTEX
  5
1B0E
  8
0
 10
236.26597510479129
 20
132.98076825419881
 30
0.0
  0
VERTEX
  5
1B0F
  8
0
 10
236.27488545858211
 20
132.9441797064645
 30
0.0
  0
VERTEX
  5
1B10
  8
0
 10
236.28511427402341
 20
132.90745104626561
 30
0.0
  0
VERTEX
  5
1B11
  8
0
 10
236.29072580400381
 20
132.8890377609801
 30
0.0
  0
VERTEX
  5
1B12
  8
0
 10
236.29667007042991
 20
132.8705937570503
 30
0.0
  0
VERTEX
  5
1B13
  8
0
 10
236.30956042840231
 20
132.83361935734439
 30
0.0
  0
VERTEX
  5
1B14
  8
0
 10
236.32379200706589
 20
132.79653938197501
 30
0.0
  0
VERTEX
  5
1B15
  8
0
 10
236.33937056450731
 20
132.75936536310951
 30
0.0
  0
VERTEX
  5
1B16
  8
0
 10
236.3563009814583
 20
132.7221088110928
 30
0.0
  0
VERTEX
  5
1B17
  8
0
 10
236.37458728828099
 20
132.6847811950779
 30
0.0
  0
VERTEX
  5
1B18
  8
0
 10
236.38423993475939
 20
132.66609430610279
 30
0.0
  0
VERTEX
  5
1B19
  8
0
 10
236.39423269592649
 20
132.64739392233199
 30
0.0
  0
VERTEX
  5
1B1A
  8
0
 10
236.4152396479592
 20
132.6099582873193
 30
0.0
  0
VERTEX
  5
1B1B
  8
0
 10
236.4376096559719
 20
132.5724857894794
 30
0.0
  0
VERTEX
  5
1B1C
  8
0
 10
236.44930602863499
 20
132.5537393479978
 30
0.0
  0
SEQEND
  5
1B1D
  8
0
  0
LINE
  5
AB2
  8
0
 10
237.32547453295521
 20
139.236559238925
 30
0.0
 11
237.09340992725279
 21
137.2146315646564
 31
0.0
  0
POLYLINE
  5
AB3
  8
0
 66
     1
 10
0.0
 20
0.0
 30
0.0
  0
VERTEX
  5
1B1E
  8
0
 10
237.09340992725279
 20
137.2146315646564
 30
0.0
  0
VERTEX
  5
1B1F
  8
0
 10
237.09073020552049
 20
137.19162858921851
 30
0.0
  0
VERTEX
  5
1B20
  8
0
 10
237.08535010620781
 20
137.14751161022019
 30
0.0
  0
VERTEX
  5
1B21
  8
0
 10
237.079943754509
 20
137.10592374601461
 30
0.0
  0
VERTEX
  5
1B22
  8
0
 10
237.0772312190617
 20
137.0860819937852
 30
0.0
  0
VERTEX
  5
1B23
  8
0
 10
237.07451270347781
 20
137.0668769433247
 30
0.0
  0
VERTEX
  5
1B24
  8
0
 10
237.06905851326329
 20
137.0303824189167
 30
0.0
  0
VERTEX
  5
1B25
  8
0
 10
237.0635827506614
 20
136.99645065637719
 30
0.0
  0
VERTEX
  5
1B26
  8
0
 10
237.05808698866511
 20
136.96509140310221
 30
0.0
  0
VERTEX
  5
1B27
  8
0
 10
237.05257280601279
 20
136.93631366749651
 30
0.0
  0
VERTEX
  5
1B28
  8
0
 10
237.04704178673401
 20
136.91012571638629
 30
0.0
  0
VERTEX
  5
1B29
  8
0
 10
237.04427045970391
 20
136.89800529003591
 30
0.0
  0
VERTEX
  5
1B2A
  8
0
 10
237.0414955196951
 20
136.88653507264411
 30
0.0
  0
VERTEX
  5
1B2B
  8
0
 10
237.0359355981424
 20
136.86554851302799
 30
0.0
  0
VERTEX
  5
1B2C
  8
0
 10
237.03036361924521
 20
136.84717206623449
 30
0.0
  0
VERTEX
  5
1B2D
  8
0
 10
237.0247811836357
 20
136.8314110111674
 30
0.0
  0
VERTEX
  5
1B2E
  8
0
 10
237.01918989495039
 20
136.81826987542041
 30
0.0
  0
VERTEX
  5
1B2F
  8
0
 10
237.01359135936889
 20
136.80775243397741
 30
0.0
  0
VERTEX
  5
1B30
  8
0
 10
237.0107898765051
 20
136.80347857223919
 30
0.0
  0
VERTEX
  5
1B31
  8
0
 10
237.00798718515259
 20
136.79986170812759
 30
0.0
  0
VERTEX
  5
1B32
  8
0
 10
237.00237898218251
 20
136.7945999645973
 30
0.0
  0
VERTEX
  5
1B33
  8
0
 10
236.99676836149729
 20
136.79196871489981
 30
0.0
  0
VERTEX
  5
1B34
  8
0
 10
236.9939626481636
 20
136.79163979097089
 30
0.0
  0
SEQEND
  5
1B35
  8
0
  0
POLYLINE
  5
AB4
  8
0
 66
     1
 10
0.0
 20
0.0
 30
0.0
  0
VERTEX
  5
1B36
  8
0
 10
236.6745015956065
 20
136.79163979097089
 30
0.0
  0
VERTEX
  5
1B37
  8
0
 10
236.67253097576679
 20
136.79142685283071
 30
0.0
  0
VERTEX
  5
1B38
  8
0
 10
236.66859021702001
 20
136.78972342566121
 30
0.0
  0
VERTEX
  5
1B39
  8
0
 10
236.6646509009536
 20
136.78631698704621
 30
0.0
  0
VERTEX
  5
1B3A
  8
0
 10
236.66268208438211
 20
136.7839753820119
 30
0.0
  0
VERTEX
  5
1B3B
  8
0
 10
236.66071398896369
 20
136.7812083683319
 30
0.0
  0
VERTEX
  5
1B3C
  8
0
 10
236.65678044185921
 20
136.7743988162841
 30
0.0
  0
VERTEX
  5
1B3D
  8
0
 10
236.65285121962799
 20
136.765889992784
 30
0.0
  0
VERTEX
  5
1B3E
  8
0
 10
236.64892728120239
 20
136.75568397442211
 30
0.0
  0
VERTEX
  5
1B3F
  8
0
 10
236.64500958422551
 20
136.7437832519922
 30
0.0
  0
VERTEX
  5
1B40
  8
0
 10
236.6410990848168
 20
136.73019072988291
 30
0.0
  0
VERTEX
  5
1B41
  8
0
 10
236.63914683251389
 20
136.7227610644899
 30
0.0
  0
VERTEX
  5
1B42
  8
0
 10
236.63719673733931
 20
136.71490972536881
 30
0.0
  0
VERTEX
  5
1B43
  8
0
 10
236.6333034941666
 20
136.69794396780139
 30
0.0
  0
VERTEX
  5
1B44
  8
0
 10
236.62942030545051
 20
136.67929759769831
 30
0.0
  0
VERTEX
  5
1B45
  8
0
 10
236.6255481188887
 20
136.65897516573341
 30
0.0
  0
VERTEX
  5
1B46
  8
0
 10
236.621687879494
 20
136.6369816316257
 30
0.0
  0
VERTEX
  5
1B47
  8
0
 10
236.61784052936341
 20
136.61332236292901
 30
0.0
  0
VERTEX
  5
1B48
  8
0
 10
236.61592198132359
 20
136.60086986666749
 30
0.0
  0
VERTEX
  5
1B49
  8
0
 10
236.61400700744829
 20
136.58800313372231
 30
0.0
  0
VERTEX
  5
1B4A
  8
0
 10
236.61018824932529
 20
136.56103012320031
 30
0.0
  0
VERTEX
  5
1B4B
  8
0
 10
236.60638518696791
 20
136.53240991416521
 30
0.0
  0
VERTEX
  5
1B4C
  8
0
 10
236.6044898319017
 20
136.5174842772993
 30
0.0
  0
SEQEND
  5
1B4D
  8
0
  0
LINE
  5
AB5
  8
0
 10
236.6044898319017
 20
136.5174842772993
 30
0.0
 11
236.24466956922339
 21
133.3171831059303
 31
0.0
  0
LINE
  5
AB6
  8
0
 10
236.24466956922339
 20
143.95580829442119
 30
0.0
 11
236.24466956922339
 21
133.3171831059303
 31
0.0
  0
LINE
  5
AB7
  8
0
 10
247.90627949668701
 20
133.3171831059303
 30
0.0
 11
247.54645923400869
 21
136.5174842772993
 31
0.0
  0
POLYLINE
  5
AB8
  8
0
 66
     1
 10
0.0
 20
0.0
 30
0.0
  0
VERTEX
  5
1B4E
  8
0
 10
247.54645923400869
 20
136.5174842772993
 30
0.0
  0
VERTEX
  5
1B4F
  8
0
 10
247.54456387894251
 20
136.53240991416521
 30
0.0
  0
VERTEX
  5
1B50
  8
0
 10
247.54076081658519
 20
136.56103012320031
 30
0.0
  0
VERTEX
  5
1B51
  8
0
 10
247.5369420584621
 20
136.58800313372231
 30
0.0
  0
VERTEX
  5
1B52
  8
0
 10
247.53502708458689
 20
136.60086986666749
 30
0.0
  0
VERTEX
  5
1B53
  8
0
 10
247.53310853654691
 20
136.61332236292901
 30
0.0
  0
VERTEX
  5
1B54
  8
0
 10
247.52926118641639
 20
136.6369816316257
 30
0.0
  0
VERTEX
  5
1B55
  8
0
 10
247.52540094702169
 20
136.65897516573341
 30
0.0
  0
VERTEX
  5
1B56
  8
0
 10
247.52152876045989
 20
136.67929759769831
 30
0.0
  0
VERTEX
  5
1B57
  8
0
 10
247.5176455717438
 20
136.69794396780139
 30
0.0
  0
VERTEX
  5
1B58
  8
0
 10
247.51375232857109
 20
136.71490972536881
 30
0.0
  0
VERTEX
  5
1B59
  8
0
 10
247.51180223339651
 20
136.7227610644899
 30
0.0
  0
VERTEX
  5
1B5A
  8
0
 10
247.50984998109371
 20
136.73019072988291
 30
0.0
  0
VERTEX
  5
1B5B
  8
0
 10
247.50593948168489
 20
136.7437832519922
 30
0.0
  0
VERTEX
  5
1B5C
  8
0
 10
247.50202178470801
 20
136.75568397442211
 30
0.0
  0
VERTEX
  5
1B5D
  8
0
 10
247.49809784628241
 20
136.765889992784
 30
0.0
  0
VERTEX
  5
1B5E
  8
0
 10
247.49416862405121
 20
136.7743988162841
 30
0.0
  0
VERTEX
  5
1B5F
  8
0
 10
247.4902350769467
 20
136.7812083683319
 30
0.0
  0
VERTEX
  5
1B60
  8
0
 10
247.48826698152831
 20
136.7839753820119
 30
0.0
  0
VERTEX
  5
1B61
  8
0
 10
247.48629816495679
 20
136.78631698704621
 30
0.0
  0
VERTEX
  5
1B62
  8
0
 10
247.4823588488905
 20
136.78972342566121
 30
0.0
  0
VERTEX
  5
1B63
  8
0
 10
247.47841809014369
 20
136.79142685283071
 30
0.0
  0
VERTEX
  5
1B64
  8
0
 10
247.4764474703039
 20
136.79163979097089
 30
0.0
  0
SEQEND
  5
1B65
  8
0
  0
LINE
  5
AB9
  8
0
 10
247.4764474703039
 20
136.79163979097089
 30
0.0
 11
236.6745015956065
 21
136.79163979097089
 31
0.0
  0
POLYLINE
  5
ABA
  8
0
 66
     1
 10
0.0
 20
0.0
 30
0.0
  0
VERTEX
  5
1B66
  8
0
 10
247.15698641774679
 20
136.79163979097089
 30
0.0
  0
VERTEX
  5
1B67
  8
0
 10
247.15418070441311
 20
136.79196871489981
 30
0.0
  0
VERTEX
  5
1B68
  8
0
 10
247.14857008372789
 20
136.7945999645973
 30
0.0
  0
VERTEX
  5
1B69
  8
0
 10
247.14296188075789
 20
136.79986170812759
 30
0.0
  0
VERTEX
  5
1B6A
  8
0
 10
247.1401591894053
 20
136.80347857223919
 30
0.0
  0
VERTEX
  5
1B6B
  8
0
 10
247.13735770654151
 20
136.80775243397741
 30
0.0
  0
VERTEX
  5
1B6C
  8
0
 10
247.13175917096001
 20
136.81826987542041
 30
0.0
  0
VERTEX
  5
1B6D
  8
0
 10
247.1261678822747
 20
136.8314110111674
 30
0.0
  0
VERTEX
  5
1B6E
  8
0
 10
247.12058544666519
 20
136.84717206623449
 30
0.0
  0
VERTEX
  5
1B6F
  8
0
 10
247.11501346776791
 20
136.86554851302799
 30
0.0
  0
VERTEX
  5
1B70
  8
0
 10
247.10945354621529
 20
136.88653507264411
 30
0.0
  0
VERTEX
  5
1B71
  8
0
 10
247.10667860620649
 20
136.89800529003591
 30
0.0
  0
VERTEX
  5
1B72
  8
0
 10
247.10390727917641
 20
136.91012571638629
 30
0.0
  0
VERTEX
  5
1B73
  8
0
 10
247.09837625989761
 20
136.93631366749651
 30
0.0
  0
VERTEX
  5
1B74
  8
0
 10
247.09286207724529
 20
136.96509140310221
 30
0.0
  0
VERTEX
  5
1B75
  8
0
 10
247.0873663152492
 20
136.99645065637719
 30
0.0
  0
VERTEX
  5
1B76
  8
0
 10
247.08189055264711
 20
137.0303824189167
 30
0.0
  0
VERTEX
  5
1B77
  8
0
 10
247.0764363624327
 20
137.0668769433247
 30
0.0
  0
VERTEX
  5
1B78
  8
0
 10
247.07371784684889
 20
137.0860819937852
 30
0.0
  0
VERTEX
  5
1B79
  8
0
 10
247.07100531140139
 20
137.10592374601461
 30
0.0
  0
VERTEX
  5
1B7A
  8
0
 10
247.06559895970261
 20
137.14751161022019
 30
0.0
  0
VERTEX
  5
1B7B
  8
0
 10
247.06021886038991
 20
137.19162858921851
 30
0.0
  0
VERTEX
  5
1B7C
  8
0
 10
247.0575391386576
 20
137.2146315646564
 30
0.0
  0
SEQEND
  5
1B7D
  8
0
  0
LINE
  5
ABB
  8
0
 10
247.0575391386576
 20
137.2146315646564
 30
0.0
 11
246.82547453295521
 21
139.23655923892491
 31
0.0
  0
LINE
  5
ABC
  8
0
 10
247.90627949668701
 20
143.95580829442119
 30
0.0
 11
247.90627949668701
 21
133.3171831059303
 31
0.0
  0
POLYLINE
  5
ABD
  8
0
 66
     1
 10
0.0
 20
0.0
 30
0.0
  0
VERTEX
  5
1B7E
  8
0
 10
247.7016429830249
 20
132.5537392622841
 30
0.0
  0
VERTEX
  5
1B7F
  8
0
 10
247.71334488172121
 20
132.5724946878029
 30
0.0
  0
VERTEX
  5
1B80
  8
0
 10
247.73572465862401
 20
132.60998460873969
 30
0.0
  0
VERTEX
  5
1B81
  8
0
 10
247.7567396284565
 20
132.647436735311
 30
0.0
  0
VERTEX
  5
1B82
  8
0
 10
247.76673572700321
 20
132.66614492402351
 30
0.0
  0
VERTEX
  5
1B83
  8
0
 10
247.77639125805001
 20
132.68483927081999
 30
0.0
  0
VERTEX
  5
1B84
  8
0
 10
247.79468201557381
 20
132.72218068386761
 30
0.0
  0
VERTEX
  5
1B85
  8
0
 10
247.8116151818337
 20
132.75944936022171
 30
0.0
  0
VERTEX
  5
1B86
  8
0
 10
247.8271948787467
 20
132.7966336084518
 30
0.0
  0
VERTEX
  5
1B87
  8
0
 10
247.84142610683031
 20
132.83372169116399
 30
0.0
  0
VERTEX
  5
1B88
  8
0
 10
247.8543147732702
 20
132.87070184516051
 30
0.0
  0
VERTEX
  5
1B89
  8
0
 10
247.86025774591121
 20
132.8891477707418
 30
0.0
  0
VERTEX
  5
1B8A
  8
0
 10
247.86586771652441
 20
132.9075623013575
 30
0.0
  0
VERTEX
  5
1B8B
  8
0
 10
247.8760927275296
 20
132.9442913044719
 30
0.0
  0
VERTEX
  5
1B8C
  8
0
 10
247.8849985675628
 20
132.9808771324935
 30
0.0
  0
VERTEX
  5
1B8D
  8
0
 10
247.89259498279799
 20
133.01730811596511
 30
0.0
  0
VERTEX
  5
1B8E
  8
0
 10
247.89889271558559
 20
133.05357265709841
 30
0.0
  0
VERTEX
  5
1B8F
  8
0
 10
247.9039035124641
 20
133.0896592487604
 30
0.0
  0
VERTEX
  5
1B90
  8
0
 10
247.90593025654761
 20
133.10763224699991
 30
0.0
  0
VERTEX
  5
1B91
  8
0
 10
247.90764012890151
 20
133.1255564933669
 30
0.0
  0
VERTEX
  5
1B92
  8
0
 10
247.9101163307437
 20
133.1612531217302
 30
0.0
  0
VERTEX
  5
1B93
  8
0
 10
247.9113468923307
 20
133.19673801190831
 30
0.0
  0
VERTEX
  5
1B94
  8
0
 10
247.9114999495429
 20
133.21439762448449
 30
0.0
  0
SEQEND
  5
1B95
  8
0
  0
POLYLINE
  5
ABE
  8
0
 66
     1
 10
0.0
 20
0.0
 30
0.0
  0
VERTEX
  5
1B96
  8
0
 10
247.9114999495429
 20
133.21439762448449
 30
0.0
  0
VERTEX
  5
1B97
  8
0
 10
247.9113566162336
 20
133.23147114925101
 30
0.0
  0
VERTEX
  5
1B98
  8
0
 10
247.9102037751548
 20
133.26569155145219
 30
0.0
  0
VERTEX
  5
1B99
  8
0
 10
247.9078827923276
 20
133.2999997801995
 30
0.0
  0
VERTEX
  5
1B9A
  8
0
 10
247.90627949668701
 20
133.3171831059303
 30
0.0
  0
SEQEND
  5
1B9B
  8
0
  0
POLYLINE
  5
AC0
  8
0
 66
     1
 10
0.0
 20
0.0
 30
0.0
  0
VERTEX
  5
1B9C
  8
0
 10
237.7787026374248
 20
149.00854482314389
 30
0.0
  0
VERTEX
  5
1B9D
  8
0
 10
237.79472186662039
 20
149.01107381342391
 30
0.0
  0
VERTEX
  5
1B9E
  8
0
 10
237.82739434713039
 20
149.014691527179
 30
0.0
  0
VERTEX
  5
1B9F
  8
0
 10
237.86083650538089
 20
149.01645763495941
 30
0.0
  0
VERTEX
  5
1BA0
  8
0
 10
237.877815990187
 20
149.01667401650781
 30
0.0
  0
SEQEND
  5
1BA1
  8
0
  0
POLYLINE
  5
AC1
  8
0
 66
     1
 10
0.0
 20
0.0
 30
0.0
  0
VERTEX
  5
1BA2
  8
0
 10
237.877815990187
 20
149.01667401650781
 30
0.0
  0
VERTEX
  5
1BA3
  8
0
 10
237.8895635168202
 20
149.01657363767109
 30
0.0
  0
VERTEX
  5
1BA4
  8
0
 10
237.9134607006437
 20
149.01577281651041
 30
0.0
  0
VERTEX
  5
1BA5
  8
0
 10
237.9378903857353
 20
149.0141770788978
 30
0.0
  0
VERTEX
  5
1BA6
  8
0
 10
237.95030339320229
 20
149.0130831719014
 30
0.0
  0
VERTEX
  5
1BA7
  8
0
 10
237.9628476228373
 20
149.0117930654047
 30
0.0
  0
VERTEX
  5
1BA8
  8
0
 10
237.9883268671235
 20
149.00862792087301
 30
0.0
  0
VERTEX
  5
1BA9
  8
0
 10
238.01432200684309
 20
149.00468929179479
 30
0.0
  0
VERTEX
  5
1BAA
  8
0
 10
238.04082639413869
 20
148.99998531793651
 30
0.0
  0
VERTEX
  5
1BAB
  8
0
 10
238.06783287772711
 20
148.99452461881441
 30
0.0
  0
VERTEX
  5
1BAC
  8
0
 10
238.0953338371597
 20
148.98831627560219
 30
0.0
  0
VERTEX
  5
1BAD
  8
0
 10
238.10926724437209
 20
148.9849346961947
 30
0.0
  0
VERTEX
  5
1BAE
  8
0
 10
238.12332121839981
 20
148.9813698090145
 30
0.0
  0
VERTEX
  5
1BAF
  8
0
 10
238.15178657048611
 20
148.97369515368899
 30
0.0
  0
VERTEX
  5
1BB0
  8
0
 10
238.18072108307661
 20
148.96530262952979
 30
0.0
  0
VERTEX
  5
1BB1
  8
0
 10
238.21011562469249
 20
148.95620291045549
 30
0.0
  0
VERTEX
  5
1BB2
  8
0
 10
238.23996077989531
 20
148.94640699147891
 30
0.0
  0
VERTEX
  5
1BB3
  8
0
 10
238.27024680447619
 20
148.93592618332289
 30
0.0
  0
VERTEX
  5
1BB4
  8
0
 10
238.28555196412569
 20
148.93043257885341
 30
0.0
  0
VERTEX
  5
1BB5
  8
0
 10
238.30096346207739
 20
148.9247721580287
 30
0.0
  0
VERTEX
  5
1BB6
  8
0
 10
238.3321000077473
 20
148.91295695500011
 30
0.0
  0
VERTEX
  5
1BB7
  8
0
 10
238.3636452167805
 20
148.900492970155
 30
0.0
  0
VERTEX
  5
1BB8
  8
0
 10
238.37956743830509
 20
148.8940216524214
 30
0.0
  0
VERTEX
  5
1BB9
  8
0
 10
238.39558741378889
 20
148.88739294214079
 30
0.0
  0
VERTEX
  5
1BBA
  8
0
 10
238.42791450195011
 20
148.8736699360189
 30
0.0
  0
VERTEX
  5
1BBB
  8
0
 10
238.46061399229089
 20
148.85933732481459
 30
0.0
  0
VERTEX
  5
1BBC
  8
0
 10
238.47709938543571
 20
148.85194667563829
 30
0.0
  0
VERTEX
  5
1BBD
  8
0
 10
238.4936730328921
 20
148.8444087692842
 30
0.0
  0
VERTEX
  5
1BBE
  8
0
 10
238.5270784379361
 20
148.82889819620331
 30
0.0
  0
VERTEX
  5
1BBF
  8
0
 10
238.5608167165374
 20
148.8128197754431
 30
0.0
  0
VERTEX
  5
1BC0
  8
0
 10
238.59487410133011
 20
148.79618789605249
 30
0.0
  0
VERTEX
  5
1BC1
  8
0
 10
238.6292365767992
 20
148.77901714153131
 30
0.0
  0
VERTEX
  5
1BC2
  8
0
 10
238.66389049516431
 20
148.7613219611674
 30
0.0
  0
VERTEX
  5
1BC3
  8
0
 10
238.68132371236661
 20
148.75228159004021
 30
0.0
  0
VERTEX
  5
1BC4
  8
0
 10
238.69882563334559
 20
148.74311501946659
 30
0.0
  0
VERTEX
  5
1BC5
  8
0
 10
238.73402823983491
 20
148.72441073497069
 30
0.0
  0
VERTEX
  5
1BC6
  8
0
 10
238.76948337989461
 20
148.70522416466491
 30
0.0
  0
VERTEX
  5
1BC7
  8
0
 10
238.8051757497648
 20
148.68557059057071
 30
0.0
  0
VERTEX
  5
1BC8
  8
0
 10
238.841089700271
 20
148.66546550450391
 30
0.0
  0
VERTEX
  5
1BC9
  8
0
 10
238.8772092598806
 20
148.6449245920486
 30
0.0
  0
VERTEX
  5
1BCA
  8
0
 10
238.89534106939661
 20
148.6344956515704
 30
0.0
  0
VERTEX
  5
1BCB
  8
0
 10
238.91351815719329
 20
148.62396371592411
 30
0.0
  0
VERTEX
  5
1BCC
  8
0
 10
238.94999984287651
 20
148.60259889889369
 30
0.0
  0
VERTEX
  5
1BCD
  8
0
 10
238.98663751106531
 20
148.5808463063365
 30
0.0
  0
VERTEX
  5
1BCE
  8
0
 10
239.02341412026641
 20
148.55872222857579
 30
0.0
  0
VERTEX
  5
1BCF
  8
0
 10
239.06031241381729
 20
148.53624306303681
 30
0.0
  0
VERTEX
  5
1BD0
  8
0
 10
239.09731493996159
 20
148.51342529628349
 30
0.0
  0
VERTEX
  5
1BD1
  8
0
 10
239.1158497881049
 20
148.50189460943551
 30
0.0
  0
VERTEX
  5
1BD2
  8
0
 10
239.13440407099071
 20
148.49028548635579
 30
0.0
  0
VERTEX
  5
1BD3
  8
0
 10
239.1715619802674
 20
148.4668402716328
 30
0.0
  0
VERTEX
  5
1BD4
  8
0
 10
239.2087705456116
 20
148.44310642848581
 30
0.0
  0
VERTEX
  5
1BD5
  8
0
 10
239.33913081357451
 20
148.35801049818781
 30
0.0
  0
VERTEX
  5
1BD6
  8
0
 10
239.56114936577791
 20
148.2065209539698
 30
0.0
  0
VERTEX
  5
1BD7
  8
0
 10
239.671131594538
 20
148.12854074680001
 30
0.0
  0
VERTEX
  5
1BD8
  8
0
 10
239.78271753479939
 20
148.04744344999099
 30
0.0
  0
VERTEX
  5
1BD9
  8
0
 10
240.00875919936411
 20
147.87676186373821
 30
0.0
  0
VERTEX
  5
1BDA
  8
0
 10
240.2338072768076
 20
147.69707699450629
 30
0.0
  0
VERTEX
  5
1BDB
  8
0
 10
240.4514983373117
 20
147.5108992313175
 30
0.0
  0
VERTEX
  5
1BDC
  8
0
 10
240.5720362817255
 20
147.40022866509901
 30
0.0
  0
VERTEX
  5
1BDD
  8
0
 10
240.6051863110759
 20
147.36848983737281
 30
0.0
  0
VERTEX
  5
1BDE
  8
0
 10
240.6377089239819
 20
147.33668666010371
 30
0.0
  0
VERTEX
  5
1BDF
  8
0
 10
240.65372763117821
 20
147.32075524692911
 30
0.0
  0
VERTEX
  5
1BE0
  8
0
 10
240.66958045388441
 20
147.3048005030908
 30
0.0
  0
VERTEX
  5
1BE1
  8
0
 10
240.7007750998105
 20
147.27280933598931
 30
0.0
  0
VERTEX
  5
1BE2
  8
0
 10
240.73126437516581
 20
147.24068735777541
 30
0.0
  0
VERTEX
  5
1BE3
  8
0
 10
240.76101637595349
 20
147.2084046330065
 30
0.0
  0
VERTEX
  5
1BE4
  8
0
 10
240.789994829492
 20
147.1759267524221
 30
0.0
  0
VERTEX
  5
1BE5
  8
0
 10
240.8181578802614
 20
147.14321454376579
 30
0.0
  0
VERTEX
  5
1BE6
  8
0
 10
240.83191865553999
 20
147.12675697049821
 30
0.0
  0
VERTEX
  5
1BE7
  8
0
 10
240.84545656729159
 20
147.11022387019531
 30
0.0
  0
VERTEX
  5
1BE8
  8
0
 10
240.87183294990101
 20
147.07690556911999
 30
0.0
  0
VERTEX
  5
1BE9
  8
0
 10
240.89719272560191
 20
147.04323986990249
 30
0.0
  0
VERTEX
  5
1BEA
  8
0
 10
240.90945470393001
 20
147.02627644933921
 30
0.0
  0
VERTEX
  5
1BEB
  8
0
 10
240.92142891898359
 20
147.00920928755681
 30
0.0
  0
VERTEX
  5
1BEC
  8
0
 10
240.94448229959309
 20
146.97470523802511
 30
0.0
  0
VERTEX
  5
1BED
  8
0
 10
240.9662772803714
 20
146.93959813686109
 30
0.0
  0
VERTEX
  5
1BEE
  8
0
 10
240.97667263772971
 20
146.9217723533601
 30
0.0
  0
VERTEX
  5
1BEF
  8
0
 10
240.98671311875631
 20
146.9037380407874
 30
0.0
  0
VERTEX
  5
1BF0
  8
0
 10
241.0056535518201
 20
146.8669564444624
 30
0.0
  0
VERTEX
  5
1BF1
  8
0
 10
241.02291009304591
 20
146.82908172281529
 30
0.0
  0
VERTEX
  5
1BF2
  8
0
 10
241.03824283858631
 20
146.78992017748851
 30
0.0
  0
VERTEX
  5
1BF3
  8
0
 10
241.04618828977939
 20
146.76637321870271
 30
0.0
  0
VERTEX
  5
1BF4
  8
0
 10
241.0483110648085
 20
146.75953943819391
 30
0.0
  0
VERTEX
  5
1BF5
  8
0
 10
241.0503650966165
 20
146.7526558563568
 30
0.0
  0
VERTEX
  5
1BF6
  8
0
 10
241.05136573880051
 20
146.7491949330165
 30
0.0
  0
VERTEX
  5
1BF7
  8
0
 10
241.0523484698528
 20
146.74572101071459
 30
0.0
  0
VERTEX
  5
1BF8
  8
0
 10
241.0542591778958
 20
146.73873343786829
 30
0.0
  0
VERTEX
  5
1BF9
  8
0
 10
241.05609512021351
 20
146.73169168001371
 30
0.0
  0
VERTEX
  5
1BFA
  8
0
 10
241.05785410138199
 20
146.7245942870249
 30
0.0
  0
VERTEX
  5
1BFB
  8
0
 10
241.05953384151869
 20
146.71743976971831
 30
0.0
  0
VERTEX
  5
1BFC
  8
0
 10
241.06113197762571
 20
146.7102265786074
 30
0.0
  0
VERTEX
  5
1BFD
  8
0
 10
241.06189968177381
 20
146.70659748010181
 30
0.0
  0
VERTEX
  5
1BFE
  8
0
 10
241.06264605857399
 20
146.70295310577001
 30
0.0
  0
VERTEX
  5
1BFF
  8
0
 10
241.06407353995431
 20
146.69561768804999
 30
0.0
  0
VERTEX
  5
1C00
  8
0
 10
241.0654117789947
 20
146.68821861129331
 30
0.0
  0
VERTEX
  5
1C01
  8
0
 10
241.0660465786645
 20
146.6844946524306
 30
0.0
  0
VERTEX
  5
1C02
  8
0
 10
241.0666580296658
 20
146.68075411560059
 30
0.0
  0
VERTEX
  5
1C03
  8
0
 10
241.0678094381087
 20
146.67322240156051
 30
0.0
  0
VERTEX
  5
1C04
  8
0
 10
241.0688630385188
 20
146.6656216374065
 30
0.0
  0
VERTEX
  5
1C05
  8
0
 10
241.06935220240689
 20
146.6617947822163
 30
0.0
  0
VERTEX
  5
1C06
  8
0
 10
241.06981574962609
 20
146.65794996701999
 30
0.0
  0
VERTEX
  5
1C07
  8
0
 10
241.0706643719052
 20
146.65020551868139
 30
0.0
  0
VERTEX
  5
1C08
  8
0
 10
241.07140558564919
 20
146.6423864144482
 30
0.0
  0
VERTEX
  5
1C09
  8
0
 10
241.0720359500265
 20
146.6344907800233
 30
0.0
  0
VERTEX
  5
1C0A
  8
0
 10
241.07255190323249
 20
146.62651675495309
 30
0.0
  0
VERTEX
  5
1C0B
  8
0
 10
241.07294976382821
 20
146.6184625029853
 30
0.0
  0
VERTEX
  5
1C0C
  8
0
 10
241.07310322684711
 20
146.61440472724931
 30
0.0
  0
VERTEX
  5
1C0D
  8
0
 10
241.07322573333579
 20
146.61032622239901
 30
0.0
  0
VERTEX
  5
1C0E
  8
0
 10
241.07337590014239
 20
146.60210615611669
 30
0.0
  0
VERTEX
  5
1C0F
  8
0
 10
241.07339630125099
 20
146.59381089336219
 30
0.0
  0
VERTEX
  5
1C10
  8
0
 10
241.07328599929849
 20
146.58556446886249
 30
0.0
  0
VERTEX
  5
1C11
  8
0
 10
241.0730486581584
 20
146.57740236488451
 30
0.0
  0
VERTEX
  5
1C12
  8
0
 10
241.0726882235621
 20
146.56932284020559
 30
0.0
  0
VERTEX
  5
1C13
  8
0
 10
241.07246304885541
 20
146.5653134876554
 30
0.0
  0
VERTEX
  5
1C14
  8
0
 10
241.0722085295867
 20
146.5613241058968
 30
0.0
  0
VERTEX
  5
1C15
  8
0
 10
241.0716132943412
 20
146.5534043353255
 30
0.0
  0
VERTEX
  5
1C16
  8
0
 10
241.0709061169685
 20
146.54556167444031
 30
0.0
  0
VERTEX
  5
1C17
  8
0
 10
241.07009047592311
 20
146.5377942521383
 30
0.0
  0
VERTEX
  5
1C18
  8
0
 10
241.06916972846011
 20
146.53010019053431
 30
0.0
  0
VERTEX
  5
1C19
  8
0
 10
241.06814711124969
 20
146.52247761494701
 30
0.0
  0
VERTEX
  5
1C1A
  8
0
 10
241.06759858035909
 20
146.51869255180881
 30
0.0
  0
VERTEX
  5
1C1B
  8
0
 10
241.0670257420104
 20
146.51492466344641
 30
0.0
  0
VERTEX
  5
1C1C
  8
0
 10
241.06580862204501
 20
146.507439495813
 30
0.0
  0
VERTEX
  5
1C1D
  8
0
 10
241.06449863954751
 20
146.5000203017843
 30
0.0
  0
VERTEX
  5
1C1E
  8
0
 10
241.0630985735495
 20
146.49266530848371
 30
0.0
  0
VERTEX
  5
1C1F
  8
0
 10
241.06161109836489
 20
146.48537278694789
 30
0.0
  0
VERTEX
  5
1C20
  8
0
 10
241.0600387883994
 20
146.4781410576883
 30
0.0
  0
VERTEX
  5
1C21
  8
0
 10
241.0592215987941
 20
146.474547479992
 30
0.0
  0
VERTEX
  5
1C22
  8
0
 10
241.05838412318829
 20
146.4709684952455
 30
0.0
  0
VERTEX
  5
1C23
  8
0
 10
241.05664949253719
 20
146.46385353171311
 30
0.0
  0
VERTEX
  5
1C24
  8
0
 10
241.05483720164651
 20
146.45679465922359
 30
0.0
  0
VERTEX
  5
1C25
  8
0
 10
241.04791386170839
 20
146.43250929351029
 30
0.0
  0
VERTEX
  5
1C26
  8
0
 10
241.04130905282409
 20
146.41217854970009
 30
0.0
  0
VERTEX
  5
1C27
  8
0
 10
241.03413488997219
 20
146.39225474163479
 30
0.0
  0
VERTEX
  5
1C28
  8
0
 10
241.01823470442579
 20
146.35348144456151
 30
0.0
  0
VERTEX
  5
1C29
  8
0
 10
241.00048105667159
 20
146.31593075423461
 30
0.0
  0
VERTEX
  5
1C2A
  8
0
 10
240.9909829766226
 20
146.2975584427958
 30
0.0
  0
SEQEND
  5
1C2B
  8
0
  0
POLYLINE
  5
AC2
  8
0
 66
     1
 10
0.0
 20
0.0
 30
0.0
  0
VERTEX
  5
1C2C
  8
0
 10
240.9909829766226
 20
146.29755844279561
 30
0.0
  0
VERTEX
  5
1C2D
  8
0
 10
240.96936572833121
 20
146.2564303217973
 30
0.0
  0
VERTEX
  5
1C2E
  8
0
 10
240.9262042915382
 20
146.17174120073881
 30
0.0
  0
VERTEX
  5
1C2F
  8
0
 10
240.88314341403611
 20
146.0838144456221
 30
0.0
  0
VERTEX
  5
1C30
  8
0
 10
240.86165186279601
 20
146.03863934844719
 30
0.0
  0
VERTEX
  5
1C31
  8
0
 10
240.8401868635822
 20
145.99265774989661
 30
0.0
  0
VERTEX
  5
1C32
  8
0
 10
240.79733839880521
 20
145.89827908962579
 30
0.0
  0
VERTEX
  5
1C33
  8
0
 10
240.7546017688766
 20
145.80068672279029
 30
0.0
  0
VERTEX
  5
1C34
  8
0
 10
240.6059581588124
 20
145.43393131250201
 30
0.0
  0
VERTEX
  5
1C35
  8
0
 10
240.3548921648073
 20
144.71502165812279
 30
0.0
  0
VERTEX
  5
1C36
  8
0
 10
240.2313422722097
 20
144.31343484606509
 30
0.0
  0
SEQEND
  5
1C37
  8
0
  0
POLYLINE
  5
AC3
  8
0
 66
     1
 10
0.0
 20
0.0
 30
0.0
  0
VERTEX
  5
1C38
  8
0
 10
240.2313422722097
 20
144.31343484606521
 30
0.0
  0
VERTEX
  5
1C39
  8
0
 10
240.22205097381871
 20
144.2825644188473
 30
0.0
  0
VERTEX
  5
1C3A
  8
0
 10
240.20261251441889
 20
144.22117049669839
 30
0.0
  0
VERTEX
  5
1C3B
  8
0
 10
240.18208396261301
 20
144.1602174806805
 30
0.0
  0
VERTEX
  5
1C3C
  8
0
 10
240.17142930295421
 20
144.1298982349864
 30
0.0
  0
VERTEX
  5
1C3D
  8
0
 10
240.16052380839571
 20
144.0996795842799
 30
0.0
  0
VERTEX
  5
1C3E
  8
0
 10
240.1379874305355
 20
144.03953161920839
 30
0.0
  0
VERTEX
  5
1C3F
  8
0
 10
240.114527223191
 20
143.97974932327671
 30
0.0
  0
VERTEX
  5
1C40
  8
0
 10
240.09019276254611
 20
143.92030962127669
 30
0.0
  0
VERTEX
  5
1C41
  8
0
 10
240.06503099585919
 20
143.86119082049041
 30
0.0
  0
VERTEX
  5
1C42
  8
0
 10
240.03908643867391
 20
143.8023727446878
 30
0.0
  0
VERTEX
  5
1C43
  8
0
 10
240.02583390784889
 20
143.77307060844109
 30
0.0
  0
VERTEX
  5
1C44
  8
0
 10
240.01240136913631
 20
143.7438368118828
 30
0.0
  0
VERTEX
  5
1C45
  8
0
 10
239.9850162945875
 20
143.68556665612141
 30
0.0
  0
VERTEX
  5
1C46
  8
0
 10
239.95697584960911
 20
143.62755973086271
 30
0.0
  0
VERTEX
  5
1C47
  8
0
 10
239.85421869363651
 20
143.42646844162201
 30
0.0
  0
VERTEX
  5
1C48
  8
0
 10
239.7612238000074
 20
143.25623814135199
 30
0.0
  0
VERTEX
  5
1C49
  8
0
 10
239.66451035274801
 20
143.0877386489876
 30
0.0
  0
VERTEX
  5
1C4A
  8
0
 10
239.4625577825673
 20
142.75536326872259
 30
0.0
  0
VERTEX
  5
1C4B
  8
0
 10
239.2529211254037
 20
142.42868054290821
 30
0.0
  0
VERTEX
  5
1C4C
  8
0
 10
239.03994185016381
 20
142.1085386403976
 30
0.0
  0
VERTEX
  5
1C4D
  8
0
 10
238.82751083669831
 20
141.7962595721153
 30
0.0
  0
VERTEX
  5
1C4E
  8
0
 10
238.6189008452688
 20
141.49306389596691
 30
0.0
  0
VERTEX
  5
1C4F
  8
0
 10
238.51696546341699
 20
141.3452918213037
 30
0.0
  0
VERTEX
  5
1C50
  8
0
 10
238.41707728959531
 20
141.2003030156333
 30
0.0
  0
VERTEX
  5
1C51
  8
0
 10
238.22477397918121
 20
140.91939451665101
 30
0.0
  0
VERTEX
  5
1C52
  8
0
 10
238.04456707906499
 20
140.65180203193421
 30
0.0
  0
VERTEX
  5
1C53
  8
0
 10
237.9460152765088
 20
140.5024428708285
 30
0.0
  0
VERTEX
  5
1C54
  8
0
 10
237.9188344406827
 20
140.46073404114969
 30
0.0
  0
VERTEX
  5
1C55
  8
0
 10
237.89210790472401
 20
140.4194665470267
 30
0.0
  0
VERTEX
  5
1C56
  8
0
 10
237.87891841610681
 20
140.39900039415301
 30
0.0
  0
VERTEX
  5
1C57
  8
0
 10
237.86584238327771
 20
140.37864050868049
 30
0.0
  0
VERTEX
  5
1C58
  8
0
 10
237.83991888438331
 20
140.3380583519409
 30
0.0
  0
VERTEX
  5
1C59
  8
0
 10
237.8143032992954
 20
140.29765046422469
 30
0.0
  0
VERTEX
  5
1C5A
  8
0
 10
237.7890285124486
 20
140.25745101301661
 30
0.0
  0
VERTEX
  5
1C5B
  8
0
 10
237.76412705365749
 20
140.21749364880071
 30
0.0
  0
VERTEX
  5
1C5C
  8
0
 10
237.73963104658651
 20
140.1778114566647
 30
0.0
  0
VERTEX
  5
1C5D
  8
0
 10
237.7275450024519
 20
140.15808372258559
 30
0.0
  0
VERTEX
  5
1C5E
  8
0
 10
237.71557215766771
 20
140.1384369073657
 30
0.0
  0
VERTEX
  5
1C5F
  8
0
 10
237.69198154563341
 20
140.0994018078074
 30
0.0
  0
VERTEX
  5
1C60
  8
0
 10
237.66888981190229
 20
140.06073725093941
 30
0.0
  0
VERTEX
  5
1C61
  8
0
 10
237.64632695213129
 20
140.02247356515511
 30
0.0
  0
VERTEX
  5
1C62
  8
0
 10
237.62432230932831
 20
139.98464026333451
 30
0.0
  0
VERTEX
  5
1C63
  8
0
 10
237.6029045290062
 20
139.9472659917507
 30
0.0
  0
VERTEX
  5
1C64
  8
0
 10
237.5924244628203
 20
139.9287596947527
 30
0.0
  0
VERTEX
  5
1C65
  8
0
 10
237.5821015169409
 20
139.91037847912
 30
0.0
  0
VERTEX
  5
1C66
  8
0
 10
237.56194040864861
 20
139.87400450154871
 30
0.0
  0
VERTEX
  5
1C67
  8
0
 10
237.5424476496448
 20
139.83817004846799
 30
0.0
  0
VERTEX
  5
1C68
  8
0
 10
237.5329599963795
 20
139.82046309538771
 30
0.0
  0
VERTEX
  5
1C69
  8
0
 10
237.523649062423
 20
139.80290048362721
 30
0.0
  0
VERTEX
  5
1C6A
  8
0
 10
237.5055697915318
 20
139.768220494513
 30
0.0
  0
VERTEX
  5
1C6B
  8
0
 10
237.4882342399865
 20
139.73415402369531
 30
0.0
  0
VERTEX
  5
1C6C
  8
0
 10
237.47985276713879
 20
139.71735811947849
 30
0.0
  0
VERTEX
  5
1C6D
  8
0
 10
237.47166600855101
 20
139.70072420178869
 30
0.0
  0
VERTEX
  5
1C6E
  8
0
 10
237.4558878383977
 20
139.66795328224001
 30
0.0
  0
VERTEX
  5
1C6F
  8
0
 10
237.44092155775161
 20
139.63586257823269
 30
0.0
  0
VERTEX
  5
1C70
  8
0
 10
237.42678803322011
 20
139.60447240208339
 30
0.0
  0
VERTEX
  5
1C71
  8
0
 10
237.41350712660989
 20
139.57380200758661
 30
0.0
  0
VERTEX
  5
1C72
  8
0
 10
237.40109765813
 20
139.54386953585069
 30
0.0
  0
VERTEX
  5
1C73
  8
0
 10
237.3952253022843
 20
139.52918537345229
 30
0.0
  0
VERTEX
  5
1C74
  8
0
 10
237.3895773694862
 20
139.51469194577319
 30
0.0
  0
VERTEX
  5
1C75
  8
0
 10
237.3789609960634
 20
139.48627970268959
 30
0.0
  0
VERTEX
  5
1C76
  8
0
 10
237.36926347251131
 20
139.4586443908326
 30
0.0
  0
VERTEX
  5
1C77
  8
0
 10
237.360500538255
 20
139.4318012665475
 30
0.0
  0
VERTEX
  5
1C78
  8
0
 10
237.35268680481241
 20
139.4057645691274
 30
0.0
  0
VERTEX
  5
1C79
  8
0
 10
237.34583569765149
 20
139.38054744801741
 30
0.0
  0
VERTEX
  5
1C7A
  8
0
 10
237.34277498771741
 20
139.36825002333089
 30
0.0
  0
VERTEX
  5
1C7B
  8
0
 10
237.33995940676181
 20
139.3561618965754
 30
0.0
  0
VERTEX
  5
1C7C
  8
0
 10
237.33506884685909
 20
139.33261869292639
 30
0.0
  0
VERTEX
  5
1C7D
  8
0
 10
237.3311736281884
 20
139.309927348489
 30
0.0
  0
VERTEX
  5
1C7E
  8
0
 10
237.32960191374281
 20
139.29890373861929
 30
0.0
  0
SEQEND
  5
1C7F
  8
0
  0
POLYLINE
  5
AC4
  8
0
 66
     1
 10
0.0
 20
0.0
 30
0.0
  0
VERTEX
  5
1C80
  8
0
 10
237.32960191374281
 20
139.2989037386192
 30
0.0
  0
VERTEX
  5
1C81
  8
0
 10
237.32834089647051
 20
139.2885175879679
 30
0.0
  0
VERTEX
  5
1C82
  8
0
 10
237.32650649025061
 20
139.2677382625449
 30
0.0
  0
VERTEX
  5
1C83
  8
0
 10
237.3255891985676
 20
139.2469529158694
 30
0.0
  0
VERTEX
  5
1C84
  8
0
 10
237.32547453295521
 20
139.236559238925
 30
0.0
  0
SEQEND
  5
1C85
  8
0
  0
LINE
  5
AC5
  8
0
 10
237.32547453295521
 20
148.83254862266111
 30
0.0
 11
237.32547453295521
 21
139.236559238925
 31
0.0
  0
POLYLINE
  5
AC6
  8
0
 66
     1
 10
0.0
 20
0.0
 30
0.0
  0
VERTEX
  5
1C86
  8
0
 10
246.82134715216759
 20
139.29890373861929
 30
0.0
  0
VERTEX
  5
1C87
  8
0
 10
246.819775437722
 20
139.309927348489
 30
0.0
  0
VERTEX
  5
1C88
  8
0
 10
246.81588021905131
 20
139.3326186929263
 30
0.0
  0
VERTEX
  5
1C89
  8
0
 10
246.81098965914859
 20
139.35616189657529
 30
0.0
  0
VERTEX
  5
1C8A
  8
0
 10
246.80817407819299
 20
139.3682500233308
 30
0.0
  0
VERTEX
  5
1C8B
  8
0
 10
246.8051133682589
 20
139.3805474480173
 30
0.0
  0
VERTEX
  5
1C8C
  8
0
 10
246.79826226109799
 20
139.4057645691274
 30
0.0
  0
VERTEX
  5
1C8D
  8
0
 10
246.79044852765551
 20
139.4318012665475
 30
0.0
  0
VERTEX
  5
1C8E
  8
0
 10
246.78168559339909
 20
139.45864439083249
 30
0.0
  0
VERTEX
  5
1C8F
  8
0
 10
246.77198806984711
 20
139.48627970268939
 30
0.0
  0
VERTEX
  5
1C90
  8
0
 10
246.76137169642439
 20
139.514691945773
 30
0.0
  0
VERTEX
  5
1C91
  8
0
 10
246.75572376362621
 20
139.52918537345201
 30
0.0
  0
VERTEX
  5
1C92
  8
0
 10
246.74985140778051
 20
139.54386953585049
 30
0.0
  0
VERTEX
  5
1C93
  8
0
 10
246.7374419393006
 20
139.57380200758641
 30
0.0
  0
VERTEX
  5
1C94
  8
0
 10
246.72416103269049
 20
139.6044724020831
 30
0.0
  0
VERTEX
  5
1C95
  8
0
 10
246.7100275081589
 20
139.63586257823241
 30
0.0
  0
VERTEX
  5
1C96
  8
0
 10
246.69506122751289
 20
139.66795328223949
 30
0.0
  0
VERTEX
  5
1C97
  8
0
 10
246.67928305735961
 20
139.7007242017884
 30
0.0
  0
VERTEX
  5
1C98
  8
0
 10
246.6710962987718
 20
139.71735811947801
 30
0.0
  0
VERTEX
  5
1C99
  8
0
 10
246.6627148259241
 20
139.73415402369491
 30
0.0
  0
VERTEX
  5
1C9A
  8
0
 10
246.64537927437891
 20
139.7682204945126
 30
0.0
  0
VERTEX
  5
1C9B
  8
0
 10
246.6273000034877
 20
139.80290048362679
 30
0.0
  0
VERTEX
  5
1C9C
  8
0
 10
246.61798906953121
 20
139.82046309538731
 30
0.0
  0
VERTEX
  5
1C9D
  8
0
 10
246.60850141626591
 20
139.8381700484675
 30
0.0
  0
VERTEX
  5
1C9E
  8
0
 10
246.58900865726201
 20
139.8740045015482
 30
0.0
  0
VERTEX
  5
1C9F
  8
0
 10
246.5688475489699
 20
139.9103784791194
 30
0.0
  0
VERTEX
  5
1CA0
  8
0
 10
246.5585246030904
 20
139.9287596947521
 30
0.0
  0
VERTEX
  5
1CA1
  8
0
 10
246.54804453690451
 20
139.9472659917501
 30
0.0
  0
VERTEX
  5
1CA2
  8
0
 10
246.5266267565824
 20
139.98464026333389
 30
0.0
  0
VERTEX
  5
1CA3
  8
0
 10
246.5046221137795
 20
140.02247356515451
 30
0.0
  0
VERTEX
  5
1CA4
  8
0
 10
246.4820592540085
 20
140.0607372509387
 30
0.0
  0
VERTEX
  5
1CA5
  8
0
 10
246.4589675202775
 20
140.09940180780669
 30
0.0
  0
VERTEX
  5
1CA6
  8
0
 10
246.4353769082432
 20
140.13843690736491
 30
0.0
  0
VERTEX
  5
1CA7
  8
0
 10
246.42340406345909
 20
140.15808372258479
 30
0.0
  0
VERTEX
  5
1CA8
  8
0
 10
246.4113180193244
 20
140.1778114566639
 30
0.0
  0
VERTEX
  5
1CA9
  8
0
 10
246.3868220122535
 20
140.2174936487998
 30
0.0
  0
VERTEX
  5
1CAA
  8
0
 10
246.36192055346231
 20
140.25745101301561
 30
0.0
  0
VERTEX
  5
1CAB
  8
0
 10
246.33664576661559
 20
140.29765046422369
 30
0.0
  0
VERTEX
  5
1CAC
  8
0
 10
246.3110301815278
 20
140.33805835193999
 30
0.0
  0
VERTEX
  5
1CAD
  8
0
 10
246.28510668263331
 20
140.37864050867941
 30
0.0
  0
VERTEX
  5
1CAE
  8
0
 10
246.27203064980421
 20
140.3990003941519
 30
0.0
  0
VERTEX
  5
1CAF
  8
0
 10
246.25884116118709
 20
140.41946654702559
 30
0.0
  0
VERTEX
  5
1CB0
  8
0
 10
246.23211462522849
 20
140.4607340411485
 30
0.0
  0
VERTEX
  5
1CB1
  8
0
 10
246.20493378940239
 20
140.50244287082751
 30
0.0
  0
VERTEX
  5
1CB2
  8
0
 10
246.10638198684629
 20
140.65180203193279
 30
0.0
  0
VERTEX
  5
1CB3
  8
0
 10
245.9261750867303
 20
140.91939451664931
 30
0.0
  0
VERTEX
  5
1CB4
  8
0
 10
245.73387177631639
 20
141.2003030156315
 30
0.0
  0
VERTEX
  5
1CB5
  8
0
 10
245.63398360249479
 20
141.3452918213016
 30
0.0
  0
VERTEX
  5
1CB6
  8
0
 10
245.53204822064319
 20
141.49306389596461
 30
0.0
  0
VERTEX
  5
1CB7
  8
0
 10
245.32343822921391
 20
141.7962595721126
 30
0.0
  0
VERTEX
  5
1CB8
  8
0
 10
245.1110072157486
 20
142.10853864039481
 30
0.0
  0
VERTEX
  5
1CB9
  8
0
 10
244.8980279405088
 20
142.42868054290511
 30
0.0
  0
VERTEX
  5
1CBA
  8
0
 10
244.68839128334531
 20
142.75536326871921
 30
0.0
  0
VERTEX
  5
1CBB
  8
0
 10
244.48643871316469
 20
143.08773864898379
 30
0.0
  0
VERTEX
  5
1CBC
  8
0
 10
244.38972526590521
 20
143.25623814134801
 30
0.0
  0
VERTEX
  5
1CBD
  8
0
 10
244.2967303722761
 20
143.42646844161791
 30
0.0
  0
VERTEX
  5
1CBE
  8
0
 10
244.1939732163035
 20
143.62755973085831
 30
0.0
  0
VERTEX
  5
1CBF
  8
0
 10
244.165932771325
 20
143.685566656117
 30
0.0
  0
VERTEX
  5
1CC0
  8
0
 10
244.1385476967761
 20
143.7438368118784
 30
0.0
  0
VERTEX
  5
1CC1
  8
0
 10
244.12511515806341
 20
143.77307060843671
 30
0.0
  0
VERTEX
  5
1CC2
  8
0
 10
244.11186262723839
 20
143.80237274468359
 30
0.0
  0
VERTEX
  5
1CC3
  8
0
 10
244.0859180700528
 20
143.8611908204866
 30
0.0
  0
VERTEX
  5
1CC4
  8
0
 10
244.06075630336559
 20
143.9203096212735
 30
0.0
  0
VERTEX
  5
1CC5
  8
0
 10
244.03642184272039
 20
143.97974932327421
 30
0.0
  0
VERTEX
  5
1CC6
  8
0
 10
244.01296163537569
 20
144.03953161920651
 30
0.0
  0
VERTEX
  5
1CC7
  8
0
 10
243.9904252575152
 20
144.09967958427859
 30
0.0
  0
VERTEX
  5
1CC8
  8
0
 10
243.97951976295661
 20
144.1298982349854
 30
0.0
  0
VERTEX
  5
1CC9
  8
0
 10
243.96886510329759
 20
144.16021748067979
 30
0.0
  0
VERTEX
  5
1CCA
  8
0
 10
243.94833655149171
 20
144.22117049669819
 30
0.0
  0
VERTEX
  5
1CCB
  8
0
 10
243.92889809209171
 20
144.2825644188473
 30
0.0
  0
VERTEX
  5
1CCC
  8
0
 10
243.91960679370069
 20
144.31343484606521
 30
0.0
  0
SEQEND
  5
1CCD
  8
0
  0
POLYLINE
  5
AC7
  8
0
 66
     1
 10
0.0
 20
0.0
 30
0.0
  0
VERTEX
  5
1CCE
  8
0
 10
243.91960679370069
 20
144.31343484606521
 30
0.0
  0
VERTEX
  5
1CCF
  8
0
 10
243.7960569011031
 20
144.71502165812291
 30
0.0
  0
VERTEX
  5
1CD0
  8
0
 10
243.54499090709811
 20
145.4339313125021
 30
0.0
  0
VERTEX
  5
1CD1
  8
0
 10
243.3963472970338
 20
145.8006867227904
 30
0.0
  0
VERTEX
  5
1CD2
  8
0
 10
243.3536106671053
 20
145.8982790896259
 30
0.0
  0
VERTEX
  5
1CD3
  8
0
 10
243.31076220232811
 20
145.99265774989661
 30
0.0
  0
VERTEX
  5
1CD4
  8
0
 10
243.28929720311439
 20
146.0386393484473
 30
0.0
  0
VERTEX
  5
1CD5
  8
0
 10
243.26780565187431
 20
146.08381444562221
 30
0.0
  0
VERTEX
  5
1CD6
  8
0
 10
243.2247447743722
 20
146.17174120073881
 30
0.0
  0
VERTEX
  5
1CD7
  8
0
 10
243.1815833375793
 20
146.2564303217975
 30
0.0
  0
VERTEX
  5
1CD8
  8
0
 10
243.15996608928779
 20
146.29755844279569
 30
0.0
  0
SEQEND
  5
1CD9
  8
0
  0
POLYLINE
  5
AC8
  8
0
 66
     1
 10
0.0
 20
0.0
 30
0.0
  0
VERTEX
  5
1CDA
  8
0
 10
243.15996608928779
 20
146.2975584427958
 30
0.0
  0
VERTEX
  5
1CDB
  8
0
 10
243.15046800923881
 20
146.31593075423461
 30
0.0
  0
VERTEX
  5
1CDC
  8
0
 10
243.13271436148469
 20
146.35348144456151
 30
0.0
  0
VERTEX
  5
1CDD
  8
0
 10
243.1168141759382
 20
146.39225474163479
 30
0.0
  0
VERTEX
  5
1CDE
  8
0
 10
243.10964001308631
 20
146.41217854970009
 30
0.0
  0
VERTEX
  5
1CDF
  8
0
 10
243.10303520420189
 20
146.43250929351029
 30
0.0
  0
VERTEX
  5
1CE0
  8
0
 10
243.09611186426389
 20
146.45679465922359
 30
0.0
  0
VERTEX
  5
1CE1
  8
0
 10
243.09429957337329
 20
146.46385353171311
 30
0.0
  0
VERTEX
  5
1CE2
  8
0
 10
243.09256494272219
 20
146.4709684952455
 30
0.0
  0
VERTEX
  5
1CE3
  8
0
 10
243.09172746711641
 20
146.474547479992
 30
0.0
  0
VERTEX
  5
1CE4
  8
0
 10
243.090910277511
 20
146.47814105768819
 30
0.0
  0
VERTEX
  5
1CE5
  8
0
 10
243.0893379675455
 20
146.48537278694789
 30
0.0
  0
VERTEX
  5
1CE6
  8
0
 10
243.0878504923609
 20
146.49266530848371
 30
0.0
  0
VERTEX
  5
1CE7
  8
0
 10
243.08645042636289
 20
146.5000203017843
 30
0.0
  0
VERTEX
  5
1CE8
  8
0
 10
243.08514044386541
 20
146.507439495813
 30
0.0
  0
VERTEX
  5
1CE9
  8
0
 10
243.08392332389991
 20
146.51492466344641
 30
0.0
  0
VERTEX
  5
1CEA
  8
0
 10
243.08335048555139
 20
146.51869255180881
 30
0.0
  0
VERTEX
  5
1CEB
  8
0
 10
243.08280195466071
 20
146.52247761494701
 30
0.0
  0
VERTEX
  5
1CEC
  8
0
 10
243.0817793374504
 20
146.53010019053431
 30
0.0
  0
VERTEX
  5
1CED
  8
0
 10
243.08085858998729
 20
146.5377942521383
 30
0.0
  0
VERTEX
  5
1CEE
  8
0
 10
243.08004294894189
 20
146.54556167444031
 30
0.0
  0
VERTEX
  5
1CEF
  8
0
 10
243.0793357715693
 20
146.5534043353255
 30
0.0
  0
VERTEX
  5
1CF0
  8
0
 10
243.07874053632369
 20
146.5613241058968
 30
0.0
  0
VERTEX
  5
1CF1
  8
0
 10
243.07848601705501
 20
146.5653134876554
 30
0.0
  0
VERTEX
  5
1CF2
  8
0
 10
243.07826084234841
 20
146.56932284020559
 30
0.0
  0
VERTEX
  5
1CF3
  8
0
 10
243.077900407752
 20
146.57740236488451
 30
0.0
  0
VERTEX
  5
1CF4
  8
0
 10
243.07766306661199
 20
146.58556446886249
 30
0.0
  0
VERTEX
  5
1CF5
  8
0
 10
243.0775527646594
 20
146.59381089336219
 30
0.0
  0
VERTEX
  5
1CF6
  8
0
 10
243.077573165768
 20
146.60210615611669
 30
0.0
  0
VERTEX
  5
1CF7
  8
0
 10
243.07772333257461
 20
146.61032622239901
 30
0.0
  0
VERTEX
  5
1CF8
  8
0
 10
243.0778458390634
 20
146.61440472724931
 30
0.0
  0
VERTEX
  5
1CF9
  8
0
 10
243.07799930208211
 20
146.6184625029853
 30
0.0
  0
VERTEX
  5
1CFA
  8
0
 10
243.0783971626779
 20
146.62651675495309
 30
0.0
  0
VERTEX
  5
1CFB
  8
0
 10
243.07891311588401
 20
146.6344907800233
 30
0.0
  0
VERTEX
  5
1CFC
  8
0
 10
243.07954348026109
 20
146.6423864144482
 30
0.0
  0
VERTEX
  5
1CFD
  8
0
 10
243.0802846940052
 20
146.65020551868139
 30
0.0
  0
VERTEX
  5
1CFE
  8
0
 10
243.08113331628431
 20
146.6579499670201
 30
0.0
  0
VERTEX
  5
1CFF
  8
0
 10
243.08159686350351
 20
146.6617947822163
 30
0.0
  0
VERTEX
  5
1D00
  8
0
 10
243.0820860273916
 20
146.6656216374065
 30
0.0
  0
VERTEX
  5
1D01
  8
0
 10
243.0831396278017
 20
146.67322240156051
 30
0.0
  0
VERTEX
  5
1D02
  8
0
 10
243.08429103624459
 20
146.68075411560059
 30
0.0
  0
VERTEX
  5
1D03
  8
0
 10
243.0849024872459
 20
146.6844946524306
 30
0.0
  0
VERTEX
  5
1D04
  8
0
 10
243.0855372869157
 20
146.68821861129331
 30
0.0
  0
VERTEX
  5
1D05
  8
0
 10
243.08687552595609
 20
146.69561768804999
 30
0.0
  0
VERTEX
  5
1D06
  8
0
 10
243.08830300733641
 20
146.70295310577001
 30
0.0
  0
VERTEX
  5
1D07
  8
0
 10
243.08904938413659
 20
146.70659748010181
 30
0.0
  0
VERTEX
  5
1D08
  8
0
 10
243.0898170882846
 20
146.7102265786074
 30
0.0
  0
VERTEX
  5
1D09
  8
0
 10
243.0914152243918
 20
146.7174397697184
 30
0.0
  0
VERTEX
  5
1D0A
  8
0
 10
243.0930949645284
 20
146.7245942870249
 30
0.0
  0
VERTEX
  5
1D0B
  8
0
 10
243.094853945697
 20
146.7316916800138
 30
0.0
  0
VERTEX
  5
1D0C
  8
0
 10
243.09668988801459
 20
146.73873343786829
 30
0.0
  0
VERTEX
  5
1D0D
  8
0
 10
243.09860059605759
 20
146.74572101071459
 30
0.0
  0
VERTEX
  5
1D0E
  8
0
 10
243.09958332711
 20
146.7491949330165
 30
0.0
  0
VERTEX
  5
1D0F
  8
0
 10
243.10058396929389
 20
146.7526558563568
 30
0.0
  0
VERTEX
  5
1D10
  8
0
 10
243.10263800110201
 20
146.75953943819391
 30
0.0
  0
VERTEX
  5
1D11
  8
0
 10
243.104760776131
 20
146.76637321870271
 30
0.0
  0
VERTEX
  5
1D12
  8
0
 10
243.11270622732411
 20
146.78992017748851
 30
0.0
  0
VERTEX
  5
1D13
  8
0
 10
243.12803897286449
 20
146.82908172281529
 30
0.0
  0
VERTEX
  5
1D14
  8
0
 10
243.14529551409021
 20
146.8669564444624
 30
0.0
  0
VERTEX
  5
1D15
  8
0
 10
243.16423594715411
 20
146.9037380407874
 30
0.0
  0
VERTEX
  5
1D16
  8
0
 10
243.17427642818069
 20
146.9217723533601
 30
0.0
  0
VERTEX
  5
1D17
  8
0
 10
243.184671785539
 20
146.93959813686129
 30
0.0
  0
VERTEX
  5
1D18
  8
0
 10
243.20646676631731
 20
146.97470523802511
 30
0.0
  0
VERTEX
  5
1D19
  8
0
 10
243.2295201469268
 20
147.00920928755681
 30
0.0
  0
VERTEX
  5
1D1A
  8
0
 10
243.24149436198039
 20
147.02627644933921
 30
0.0
  0
VERTEX
  5
1D1B
  8
0
 10
243.25375634030851
 20
147.04323986990249
 30
0.0
  0
VERTEX
  5
1D1C
  8
0
 10
243.27911611600939
 20
147.07690556911999
 30
0.0
  0
VERTEX
  5
1D1D
  8
0
 10
243.3054924986188
 20
147.11022387019531
 30
0.0
  0
VERTEX
  5
1D1E
  8
0
 10
243.3190304103704
 20
147.12675697049821
 30
0.0
  0
VERTEX
  5
1D1F
  8
0
 10
243.332791185649
 20
147.14321454376579
 30
0.0
  0
VERTEX
  5
1D20
  8
0
 10
243.36095423641839
 20
147.1759267524221
 30
0.0
  0
VERTEX
  5
1D21
  8
0
 10
243.38993268995691
 20
147.2084046330065
 30
0.0
  0
VERTEX
  5
1D22
  8
0
 10
243.4196846907447
 20
147.2406873577753
 30
0.0
  0
VERTEX
  5
1D23
  8
0
 10
243.4501739660999
 20
147.27280933598931
 30
0.0
  0
VERTEX
  5
1D24
  8
0
 10
243.48136861202599
 20
147.3048005030908
 30
0.0
  0
VERTEX
  5
1D25
  8
0
 10
243.49722143473221
 20
147.32075524692911
 30
0.0
  0
VERTEX
  5
1D26
  8
0
 10
243.51324014192849
 20
147.33668666010371
 30
0.0
  0
VERTEX
  5
1D27
  8
0
 10
243.54576275483461
 20
147.36848983737281
 30
0.0
  0
VERTEX
  5
1D28
  8
0
 10
243.57891278418489
 20
147.40022866509901
 30
0.0
  0
VERTEX
  5
1D29
  8
0
 10
243.69945072859869
 20
147.5108992313175
 30
0.0
  0
VERTEX
  5
1D2A
  8
0
 10
243.9171417891028
 20
147.69707699450629
 30
0.0
  0
VERTEX
  5
1D2B
  8
0
 10
244.14218986654629
 20
147.87676186373821
 30
0.0
  0
VERTEX
  5
1D2C
  8
0
 10
244.36823153111101
 20
148.04744344999111
 30
0.0
  0
VERTEX
  5
1D2D
  8
0
 10
244.4798174713724
 20
148.12854074680001
 30
0.0
  0
VERTEX
  5
1D2E
  8
0
 10
244.58979970013249
 20
148.2065209539698
 30
0.0
  0
VERTEX
  5
1D2F
  8
0
 10
244.81181825233591
 20
148.35801049818781
 30
0.0
  0
VERTEX
  5
1D30
  8
0
 10
244.9421785202988
 20
148.44310642848581
 30
0.0
  0
VERTEX
  5
1D31
  8
0
 10
244.979387085643
 20
148.4668402716328
 30
0.0
  0
VERTEX
  5
1D32
  8
0
 10
245.01654499491971
 20
148.49028548635579
 30
0.0
  0
VERTEX
  5
1D33
  8
0
 10
245.0350992778055
 20
148.50189460943551
 30
0.0
  0
VERTEX
  5
1D34
  8
0
 10
245.05363412594889
 20
148.51342529628349
 30
0.0
  0
VERTEX
  5
1D35
  8
0
 10
245.0906366520932
 20
148.53624306303681
 30
0.0
  0
VERTEX
  5
1D36
  8
0
 10
245.12753494564399
 20
148.55872222857579
 30
0.0
  0
VERTEX
  5
1D37
  8
0
 10
245.16431155484511
 20
148.5808463063365
 30
0.0
  0
VERTEX
  5
1D38
  8
0
 10
245.2009492230338
 20
148.60259889889369
 30
0.0
  0
VERTEX
  5
1D39
  8
0
 10
245.2374309087171
 20
148.62396371592411
 30
0.0
  0
VERTEX
  5
1D3A
  8
0
 10
245.25560799651379
 20
148.6344956515704
 30
0.0
  0
VERTEX
  5
1D3B
  8
0
 10
245.27373980602979
 20
148.6449245920486
 30
0.0
  0
VERTEX
  5
1D3C
  8
0
 10
245.3098593656394
 20
148.66546550450391
 30
0.0
  0
VERTEX
  5
1D3D
  8
0
 10
245.34577331614571
 20
148.68557059057071
 30
0.0
  0
VERTEX
  5
1D3E
  8
0
 10
245.3814656860157
 20
148.70522416466491
 30
0.0
  0
VERTEX
  5
1D3F
  8
0
 10
245.41692082607551
 20
148.72441073497069
 30
0.0
  0
VERTEX
  5
1D40
  8
0
 10
245.45212343256489
 20
148.74311501946659
 30
0.0
  0
VERTEX
  5
1D41
  8
0
 10
245.46962535354371
 20
148.75228159004021
 30
0.0
  0
VERTEX
  5
1D42
  8
0
 10
245.48705857074609
 20
148.7613219611674
 30
0.0
  0
VERTEX
  5
1D43
  8
0
 10
245.5217124891112
 20
148.77901714153131
 30
0.0
  0
VERTEX
  5
1D44
  8
0
 10
245.5560749645802
 20
148.79618789605249
 30
0.0
  0
VERTEX
  5
1D45
  8
0
 10
245.59013234937299
 20
148.8128197754431
 30
0.0
  0
VERTEX
  5
1D46
  8
0
 10
245.6238706279743
 20
148.82889819620331
 30
0.0
  0
VERTEX
  5
1D47
  8
0
 10
245.65727603301821
 20
148.8444087692842
 30
0.0
  0
VERTEX
  5
1D48
  8
0
 10
245.6738496804746
 20
148.85194667563829
 30
0.0
  0
VERTEX
  5
1D49
  8
0
 10
245.69033507361959
 20
148.85933732481459
 30
0.0
  0
VERTEX
  5
1D4A
  8
0
 10
245.7230345639604
 20
148.8736699360189
 30
0.0
  0
VERTEX
  5
1D4B
  8
0
 10
245.75536165212159
 20
148.88739294214079
 30
0.0
  0
VERTEX
  5
1D4C
  8
0
 10
245.77138162760531
 20
148.8940216524214
 30
0.0
  0
VERTEX
  5
1D4D
  8
0
 10
245.7873038491299
 20
148.900492970155
 30
0.0
  0
VERTEX
  5
1D4E
  8
0
 10
245.8188490581631
 20
148.91295695500011
 30
0.0
  0
VERTEX
  5
1D4F
  8
0
 10
245.84998560383309
 20
148.9247721580287
 30
0.0
  0
VERTEX
  5
1D50
  8
0
 10
245.86539710178471
 20
148.93043257885341
 30
0.0
  0
VERTEX
  5
1D51
  8
0
 10
245.88070226143429
 20
148.93592618332289
 30
0.0
  0
VERTEX
  5
1D52
  8
0
 10
245.91098828601511
 20
148.94640699147891
 30
0.0
  0
VERTEX
  5
1D53
  8
0
 10
245.9408334412179
 20
148.95620291045549
 30
0.0
  0
VERTEX
  5
1D54
  8
0
 10
245.97022798283371
 20
148.96530262952979
 30
0.0
  0
VERTEX
  5
1D55
  8
0
 10
245.99916249542429
 20
148.97369515368899
 30
0.0
  0
VERTEX
  5
1D56
  8
0
 10
246.0276278475105
 20
148.9813698090145
 30
0.0
  0
VERTEX
  5
1D57
  8
0
 10
246.0416818215383
 20
148.9849346961947
 30
0.0
  0
VERTEX
  5
1D58
  8
0
 10
246.0556152287507
 20
148.98831627560219
 30
0.0
  0
VERTEX
  5
1D59
  8
0
 10
246.08311618818331
 20
148.99452461881441
 30
0.0
  0
VERTEX
  5
1D5A
  8
0
 10
246.11012267177171
 20
148.99998531793651
 30
0.0
  0
VERTEX
  5
1D5B
  8
0
 10
246.13662705906719
 20
149.00468929179479
 30
0.0
  0
VERTEX
  5
1D5C
  8
0
 10
246.16262219878689
 20
149.00862792087301
 30
0.0
  0
VERTEX
  5
1D5D
  8
0
 10
246.18810144307321
 20
149.0117930654047
 30
0.0
  0
VERTEX
  5
1D5E
  8
0
 10
246.20064567270819
 20
149.0130831719014
 30
0.0
  0
VERTEX
  5
1D5F
  8
0
 10
246.2130586801751
 20
149.0141770788978
 30
0.0
  0
VERTEX
  5
1D60
  8
0
 10
246.2374883652667
 20
149.01577281651041
 30
0.0
  0
VERTEX
  5
1D61
  8
0
 10
246.26138554909031
 20
149.01657363767109
 30
0.0
  0
VERTEX
  5
1D62
  8
0
 10
246.27313307572339
 20
149.01667401650781
 30
0.0
  0
SEQEND
  5
1D63
  8
0
  0
POLYLINE
  5
AC9
  8
0
 66
     1
 10
0.0
 20
0.0
 30
0.0
  0
VERTEX
  5
1D64
  8
0
 10
246.27313307572339
 20
149.01667401650781
 30
0.0
  0
VERTEX
  5
1D65
  8
0
 10
246.29011256052951
 20
149.01645763495941
 30
0.0
  0
VERTEX
  5
1D66
  8
0
 10
246.32355471878
 20
149.014691527179
 30
0.0
  0
VERTEX
  5
1D67
  8
0
 10
246.35622719929
 20
149.01107381342391
 30
0.0
  0
VERTEX
  5
1D68
  8
0
 10
246.3722464284856
 20
149.00854482314389
 30
0.0
  0
SEQEND
  5
1D69
  8
0
  0
LINE
  5
ACA
  8
0
 10
246.82547453295521
 20
148.83254862266111
 30
0.0
 11
246.82547453295521
 21
139.23655923892491
 31
0.0
  0
POLYLINE
  5
ACB
  8
0
 66
     1
 10
0.0
 20
0.0
 30
0.0
  0
VERTEX
  5
1D6A
  8
0
 10
246.82547453295521
 20
139.23655923892491
 30
0.0
  0
VERTEX
  5
1D6B
  8
0
 10
246.8253598673428
 20
139.2469529158694
 30
0.0
  0
VERTEX
  5
1D6C
  8
0
 10
246.82444257565979
 20
139.2677382625449
 30
0.0
  0
VERTEX
  5
1D6D
  8
0
 10
246.82260816944
 20
139.2885175879679
 30
0.0
  0
VERTEX
  5
1D6E
  8
0
 10
246.82134715216759
 20
139.2989037386192
 30
0.0
  0
SEQEND
  5
1D6F
  8
0
  0
LINE
  5
ACC
  8
0
 10
251.32547453295521
 20
113.2316397909709
 30
0.0
 11
232.82547453295521
 21
113.2316397909709
 31
0.0
  0
POLYLINE
  5
ACD
  8
0
 66
     1
 10
0.0
 20
0.0
 30
0.0
  0
VERTEX
  5
1D70
  8
0
 10
236.24466956922339
 20
143.95580829442119
 30
0.0
  0
VERTEX
  5
1D71
  8
0
 10
236.4229186363811
 20
145.05970791588771
 30
0.0
  0
VERTEX
  5
1D72
  8
0
 10
236.78197483414121
 20
146.9196096796685
 30
0.0
  0
VERTEX
  5
1D73
  8
0
 10
237.1437847428694
 20
148.31235472150041
 30
0.0
  0
VERTEX
  5
1D74
  8
0
 10
237.32547453295521
 20
148.83254862266111
 30
0.0
  0
SEQEND
  5
1D75
  8
0
  0
POLYLINE
  5
ACE
  8
0
 66
     1
 10
0.0
 20
0.0
 30
0.0
  0
VERTEX
  5
1D76
  8
0
 10
236.2394491163675
 20
143.8873538943898
 30
0.0
  0
VERTEX
  5
1D77
  8
0
 10
236.23959257052459
 20
143.89873233558609
 30
0.0
  0
VERTEX
  5
1D78
  8
0
 10
236.24074594212291
 20
143.9215289288546
 30
0.0
  0
VERTEX
  5
1D79
  8
0
 10
236.24306687553849
 20
143.94437188540769
 30
0.0
  0
VERTEX
  5
1D7A
  8
0
 10
236.24466956922339
 20
143.95580829442119
 30
0.0
  0
SEQEND
  5
1D7B
  8
0
  0
POLYLINE
  5
ACF
  8
0
 66
     1
 10
0.0
 20
0.0
 30
0.0
  0
VERTEX
  5
1D7C
  8
0
 10
235.48660431012721
 20
136.97378994093941
 30
0.0
  0
VERTEX
  5
1D7D
  8
0
 10
235.6269975409308
 20
137.12906824652941
 30
0.0
  0
VERTEX
  5
1D7E
  8
0
 10
235.89141146577549
 20
137.43651259435481
 30
0.0
  0
VERTEX
  5
1D7F
  8
0
 10
236.1340526856294
 20
137.73941272945279
 30
0.0
  0
VERTEX
  5
1D80
  8
0
 10
236.2472493092074
 20
137.88901493935549
 30
0.0
  0
SEQEND
  5
1D81
  8
0
  0
POLYLINE
  5
AD0
  8
0
 66
     1
 10
0.0
 20
0.0
 30
0.0
  0
VERTEX
  5
1D82
  8
0
 10
232.57547453295521
 20
134.3777736526111
 30
0.0
  0
VERTEX
  5
1D83
  8
0
 10
232.57773730943461
 20
134.4603458328416
 30
0.0
  0
VERTEX
  5
1D84
  8
0
 10
232.59560732950121
 20
134.6232250568226
 30
0.0
  0
VERTEX
  5
1D85
  8
0
 10
232.6306601760181
 20
134.78258134035241
 30
0.0
  0
VERTEX
  5
1D86
  8
0
 10
232.65436313498441
 20
134.8607672114864
 30
0.0
  0
VERTEX
  5
1D87
  8
0
 10
232.68236087984269
 20
134.9387486794225
 30
0.0
  0
VERTEX
  5
1D88
  8
0
 10
232.75205752896599
 20
135.09537226404959
 30
0.0
  0
VERTEX
  5
1D89
  8
0
 10
232.84049777181119
 20
135.25223861401051
 30
0.0
  0
VERTEX
  5
1D8A
  8
0
 10
232.94808287879411
 20
135.40860286549241
 30
0.0
  0
VERTEX
  5
1D8B
  8
0
 10
233.07502985659809
 20
135.5637561499934
 30
0.0
  0
VERTEX
  5
1D8C
  8
0
 10
233.2213806829086
 20
135.71702992898781
 30
0.0
  0
VERTEX
  5
1D8D
  8
0
 10
233.3017952389967
 20
135.7927602298499
 30
0.0
  0
VERTEX
  5
1D8E
  8
0
 10
233.3869925860196
 20
135.86778185015839
 30
0.0
  0
VERTEX
  5
1D8F
  8
0
 10
233.57153875325019
 20
136.01539998389421
 30
0.0
  0
VERTEX
  5
1D90
  8
0
 10
233.77453387970149
 20
136.1593227495633
 30
0.0
  0
VERTEX
  5
1D91
  8
0
 10
233.99543399470571
 20
136.2990924309598
 30
0.0
  0
VERTEX
  5
1D92
  8
0
 10
234.23346108563661
 20
136.43422809098359
 30
0.0
  0
VERTEX
  5
1D93
  8
0
 10
234.48763641457001
 20
136.56426892054631
 30
0.0
  0
VERTEX
  5
1D94
  8
0
 10
234.62042934649369
 20
136.62724768156301
 30
0.0
  0
VERTEX
  5
1D95
  8
0
 10
234.75682170116681
 20
136.68880263595111
 30
0.0
  0
VERTEX
  5
1D96
  8
0
 10
235.03973599003689
 20
136.80747139858909
 30
0.0
  0
VERTEX
  5
1D97
  8
0
 10
235.334917101614
 20
136.919955004629
 30
0.0
  0
VERTEX
  5
1D98
  8
0
 10
235.48660431012721
 20
136.97378994093941
 30
0.0
  0
SEQEND
  5
1D99
  8
0
  0
POLYLINE
  5
AD1
  8
0
 66
     1
 10
0.0
 20
0.0
 30
0.0
  0
VERTEX
  5
1D9A
  8
0
 10
248.66434475578319
 20
136.97378994093941
 30
0.0
  0
VERTEX
  5
1D9B
  8
0
 10
248.8160319642964
 20
136.91995500462909
 30
0.0
  0
VERTEX
  5
1D9C
  8
0
 10
249.11121307587359
 20
136.80747139858909
 30
0.0
  0
VERTEX
  5
1D9D
  8
0
 10
249.39412736474361
 20
136.68880263595111
 30
0.0
  0
VERTEX
  5
1D9E
  8
0
 10
249.5305197194167
 20
136.62724768156301
 30
0.0
  0
VERTEX
  5
1D9F
  8
0
 10
249.66331265134039
 20
136.56426892054631
 30
0.0
  0
VERTEX
  5
1DA0
  8
0
 10
249.9174879802739
 20
136.43422809098359
 30
0.0
  0
VERTEX
  5
1DA1
  8
0
 10
250.1555150712046
 20
136.2990924309598
 30
0.0
  0
VERTEX
  5
1DA2
  8
0
 10
250.3764151862089
 20
136.1593227495633
 30
0.0
  0
VERTEX
  5
1DA3
  8
0
 10
250.5794103126602
 20
136.01539998389421
 30
0.0
  0
VERTEX
  5
1DA4
  8
0
 10
250.76395647989079
 20
135.86778185015839
 30
0.0
  0
VERTEX
  5
1DA5
  8
0
 10
250.84915382691369
 20
135.79276022984999
 30
0.0
  0
VERTEX
  5
1DA6
  8
0
 10
250.92956838300171
 20
135.71702992898781
 30
0.0
  0
VERTEX
  5
1DA7
  8
0
 10
251.0759192093123
 20
135.5637561499934
 30
0.0
  0
VERTEX
  5
1DA8
  8
0
 10
251.2028661871164
 20
135.40860286549241
 30
0.0
  0
VERTEX
  5
1DA9
  8
0
 10
251.31045129409929
 20
135.25223861401051
 30
0.0
  0
VERTEX
  5
1DAA
  8
0
 10
251.39889153694449
 20
135.0953722640497
 30
0.0
  0
VERTEX
  5
1DAB
  8
0
 10
251.46858818606771
 20
134.9387486794225
 30
0.0
  0
VERTEX
  5
1DAC
  8
0
 10
251.49658593092599
 20
134.8607672114864
 30
0.0
  0
VERTEX
  5
1DAD
  8
0
 10
251.5202888898923
 20
134.78258134035241
 30
0.0
  0
VERTEX
  5
1DAE
  8
0
 10
251.55534173640919
 20
134.6232250568226
 30
0.0
  0
VERTEX
  5
1DAF
  8
0
 10
251.5732117564759
 20
134.4603458328416
 30
0.0
  0
VERTEX
  5
1DB0
  8
0
 10
251.5754745329553
 20
134.3777736526111
 30
0.0
  0
SEQEND
  5
1DB1
  8
0
  0
POLYLINE
  5
AD2
  8
0
 66
     1
 10
0.0
 20
0.0
 30
0.0
  0
VERTEX
  5
1DB2
  8
0
 10
247.90369975670299
 20
137.88901493935549
 30
0.0
  0
VERTEX
  5
1DB3
  8
0
 10
248.016896380281
 20
137.73941272945279
 30
0.0
  0
VERTEX
  5
1DB4
  8
0
 10
248.25953760013491
 20
137.43651259435481
 30
0.0
  0
VERTEX
  5
1DB5
  8
0
 10
248.52395152497959
 20
137.12906824652941
 30
0.0
  0
VERTEX
  5
1DB6
  8
0
 10
248.66434475578319
 20
136.97378994093941
 30
0.0
  0
SEQEND
  5
1DB7
  8
0
  0
POLYLINE
  5
AD3
  8
0
 66
     1
 10
0.0
 20
0.0
 30
0.0
  0
VERTEX
  5
1DB8
  8
0
 10
247.90627949668701
 20
143.95580829442119
 30
0.0
  0
VERTEX
  5
1DB9
  8
0
 10
247.90788219037159
 20
143.94437188541059
 30
0.0
  0
VERTEX
  5
1DBA
  8
0
 10
247.91020312378691
 20
143.92152892886321
 30
0.0
  0
VERTEX
  5
1DBB
  8
0
 10
247.91135649538549
 20
143.89873233560041
 30
0.0
  0
VERTEX
  5
1DBC
  8
0
 10
247.9114999495429
 20
143.887353894407
 30
0.0
  0
SEQEND
  5
1DBD
  8
0
  0
POLYLINE
  5
AD4
  8
0
 66
     1
 10
0.0
 20
0.0
 30
0.0
  0
VERTEX
  5
1DBE
  8
0
 10
246.82547453295521
 20
148.83254862266111
 30
0.0
  0
VERTEX
  5
1DBF
  8
0
 10
247.007164323041
 20
148.31235472150041
 30
0.0
  0
VERTEX
  5
1DC0
  8
0
 10
247.36897423176919
 20
146.9196096796685
 30
0.0
  0
VERTEX
  5
1DC1
  8
0
 10
247.7280304295293
 20
145.05970791588771
 30
0.0
  0
VERTEX
  5
1DC2
  8
0
 10
247.90627949668701
 20
143.95580829442119
 30
0.0
  0
SEQEND
  5
1DC3
  8
0
  0
POLYLINE
  5
AD5
  8
0
 66
     1
 10
0.0
 20
0.0
 30
0.0
  0
VERTEX
  5
1DC4
  8
0
 10
246.3722464284856
 20
149.00854482314389
 30
0.0
  0
VERTEX
  5
1DC5
  8
0
 10
246.39710694022341
 20
149.0041323734429
 30
0.0
  0
VERTEX
  5
1DC6
  8
0
 10
246.44482660975791
 20
148.9951900600195
 30
0.0
  0
VERTEX
  5
1DC7
  8
0
 10
246.48983829100229
 20
148.98609699951271
 30
0.0
  0
VERTEX
  5
1DC8
  8
0
 10
246.5113188692043
 20
148.98149539277699
 30
0.0
  0
VERTEX
  5
1DC9
  8
0
 10
246.53210920273131
 20
148.976858293291
 30
0.0
  0
VERTEX
  5
1DCA
  8
0
 10
246.57159936364141
 20
148.96748184710319
 30
0.0
  0
VERTEX
  5
1DCB
  8
0
 10
246.6082730741621
 20
148.9579764717364
 30
0.0
  0
VERTEX
  5
1DCC
  8
0
 10
246.64210110091901
 20
148.94835149907331
 30
0.0
  0
VERTEX
  5
1DCD
  8
0
 10
246.67306105322439
 20
148.93861672553561
 30
0.0
  0
VERTEX
  5
1DCE
  8
0
 10
246.70113766374729
 20
148.92878235002561
 30
0.0
  0
VERTEX
  5
1DCF
  8
0
 10
246.714091940326
 20
148.92383109214171
 30
0.0
  0
VERTEX
  5
1DD0
  8
0
 10
246.72632297461911
 20
148.91885890595131
 30
0.0
  0
VERTEX
  5
1DD1
  8
0
 10
246.74861642616571
 20
148.9088571882582
 30
0.0
  0
VERTEX
  5
1DD2
  8
0
 10
246.76802466892821
 20
148.89878827669651
 30
0.0
  0
VERTEX
  5
1DD3
  8
0
 10
246.7845611392203
 20
148.88866376692749
 30
0.0
  0
VERTEX
  5
1DD4
  8
0
 10
246.7982463013667
 20
148.8784957992394
 30
0.0
  0
VERTEX
  5
1DD5
  8
0
 10
246.8091080377169
 20
148.86829698625891
 30
0.0
  0
VERTEX
  5
1DD6
  8
0
 10
246.81349093423901
 20
148.86319006440269
 30
0.0
  0
VERTEX
  5
1DD7
  8
0
 10
246.81718192978121
 20
148.85808033547809
 30
0.0
  0
VERTEX
  5
1DD8
  8
0
 10
246.82251143097841
 20
148.84785916765969
 30
0.0
  0
VERTEX
  5
1DD9
  8
0
 10
246.8251479332034
 20
148.83764703082241
 30
0.0
  0
VERTEX
  5
1DDA
  8
0
 10
246.82547453295521
 20
148.83254862266111
 30
0.0
  0
SEQEND
  5
1DDB
  8
0
  0
POLYLINE
  5
AD6
  8
0
 66
     1
 10
0.0
 20
0.0
 30
0.0
  0
VERTEX
  5
1DDC
  8
0
 10
237.32547453295521
 20
148.83254862266111
 30
0.0
  0
VERTEX
  5
1DDD
  8
0
 10
237.32580116415861
 20
148.8376472759463
 30
0.0
  0
VERTEX
  5
1DDE
  8
0
 10
237.3284378837638
 20
148.84785980753989
 30
0.0
  0
VERTEX
  5
1DDF
  8
0
 10
237.3337677383528
 20
148.85808125503209
 30
0.0
  0
VERTEX
  5
1DE0
  8
0
 10
237.33745893813949
 20
148.86319108516901
 30
0.0
  0
VERTEX
  5
1DE1
  8
0
 10
237.34184204625149
 20
148.86829808486141
 30
0.0
  0
VERTEX
  5
1DE2
  8
0
 10
237.35270419921119
 20
148.8784969903418
 30
0.0
  0
VERTEX
  5
1DE3
  8
0
 10
237.36638972885001
 20
148.8886649775518
 30
0.0
  0
VERTEX
  5
1DE4
  8
0
 10
237.38292647908011
 20
148.89878944680191
 30
0.0
  0
VERTEX
  5
1DE5
  8
0
 10
237.4023348867135
 20
148.90885826998451
 30
0.0
  0
VERTEX
  5
1DE6
  8
0
 10
237.4246283708631
 20
148.91885986279689
 30
0.0
  0
VERTEX
  5
1DE7
  8
0
 10
237.4368593700207
 20
148.92383197652251
 30
0.0
  0
VERTEX
  5
1DE8
  8
0
 10
237.44981357830591
 20
148.92878315739841
 30
0.0
  0
VERTEX
  5
1DE9
  8
0
 10
237.47788996106539
 20
148.93861737144431
 30
0.0
  0
VERTEX
  5
1DEA
  8
0
 10
237.50884958545669
 20
148.94835198333109
 30
0.0
  0
VERTEX
  5
1DEB
  8
0
 10
237.54267721990479
 20
148.95797680500559
 30
0.0
  0
VERTEX
  5
1DEC
  8
0
 10
237.5793505201043
 20
148.96748204985661
 30
0.0
  0
VERTEX
  5
1DED
  8
0
 10
237.618840308552
 20
148.97685839469179
 30
0.0
  0
VERTEX
  5
1DEE
  8
0
 10
237.6396304897722
 20
148.98149545682909
 30
0.0
  0
VERTEX
  5
1DEF
  8
0
 10
237.66111094969031
 20
148.98609703622091
 30
0.0
  0
VERTEX
  5
1DF0
  8
0
 10
237.70612243542439
 20
148.9951900559883
 30
0.0
  0
VERTEX
  5
1DF1
  8
0
 10
237.7538420324075
 20
149.00413235658769
 30
0.0
  0
VERTEX
  5
1DF2
  8
0
 10
237.7787026374248
 20
149.00854482314389
 30
0.0
  0
SEQEND
  5
1DF3
  8
0
  0
LINE
  5
AD7
  8
0
 10
238.07547453295521
 20
82.498639790970898
 30
0.0
 11
246.07547453295521
 21
82.498639790970898
 31
0.0
  0
LINE
  5
AD8
  8
0
 10
238.84247453295521
 20
81.731639790970902
 30
0.0
 11
245.3084745329551
 21
81.731639790970902
 31
0.0
  0
LINE
  5
AD9
  8
0
 10
235.32547453295521
 20
106.7316397909709
 30
0.0
 11
248.82547453295521
 21
106.7316397909709
 31
0.0
  0
LINE
  5
ADA
  8
3
 10
245.3084745329551
 20
81.731639790970902
 30
0.0
 11
245.3084745329551
 21
106.7316397909709
 31
0.0
  0
LINE
  5
ADB
  8
0
 10
246.07547453295521
 20
106.7316397909709
 30
0.0
 11
245.3084745329551
 21
106.7316397909709
 31
0.0
  0
LINE
  5
ADC
  8
3
 10
238.84247453295521
 20
81.731639790970902
 30
0.0
 11
238.84247453295521
 21
106.7316397909709
 31
0.0
  0
LINE
  5
ADD
  8
0
 10
238.07547453295521
 20
106.7316397909709
 30
0.0
 11
238.84247453295521
 21
106.7316397909709
 31
0.0
  0
LINE
  5
B1C
  8
1
 10
58.729012146019471
 20
151.00854482314389
 30
0.0
 11
58.729012146019471
 21
79.381639790970894
 31
0.0
  0
LINE
  5
B1D
  8
0
 10
62.926670688787659
 20
149.01667401650781
 30
0.0
 11
54.531353603251283
 21
149.01667401650781
 31
0.0
  0
LINE
  5
B1E
  8
0
 10
67.979012146019471
 20
113.2316397909709
 30
0.0
 11
68.229012146019471
 21
134.37777365261101
 31
0.0
  0
LINE
  5
B1F
  8
0
 10
64.565037562607145
 20
137.87925490157099
 30
0.0
 11
64.565037562607145
 21
143.8873538945958
 31
0.0
  0
LINE
  5
B20
  8
0
 10
52.892986729431811
 20
143.8873538945958
 30
0.0
 11
52.892986729431811
 21
137.8792549015709
 31
0.0
  0
LINE
  5
B21
  8
0
 10
49.229012146019457
 20
134.37777365261101
 30
0.0
 11
49.479012146019471
 21
113.2316397909709
 31
0.0
  0
ARC
  5
B24
  8
0
 10
58.729012146019471
 20
130.73163979097089
 30
0.0
 40
8.0000000000000089
 50
55.150095420953647
 51
124.8499045790464
  0
ARC
  5
B25
  8
0
 10
54.729012146019471
 20
136.4762024375089
 30
0.0
 40
0.9999999999999975
 50
124.84990457904701
 51
180.0
  0
ARC
  5
B26
  8
0
 10
62.729012146019471
 20
136.4762024375089
 30
0.0
 40
0.9999999999999982
 50
0.0
 51
55.150095420953022
  0
LINE
  5
B27
  8
0
 10
62.729012146019471
 20
82.498639790970898
 30
0.0
 11
62.729012146019471
 21
106.7316397909709
 31
0.0
  0
LINE
  5
B28
  8
0
 10
54.729012146019471
 20
106.7316397909709
 30
0.0
 11
54.729012146019471
 21
82.498639790970898
 31
0.0
  0
LINE
  5
B29
  8
0
 10
61.962012146019482
 20
81.731639790970902
 30
0.0
 11
62.729012146019471
 21
82.498639790970898
 31
0.0
  0
LINE
  5
B2A
  8
0
 10
54.729012146019471
 20
82.498639790970898
 30
0.0
 11
55.496012146019453
 21
81.731639790970902
 31
0.0
  0
LINE
  5
B2B
  8
0
 10
63.729012146019471
 20
134.0906503851412
 30
0.0
 11
63.729012146019471
 21
136.4762024375089
 31
0.0
  0
LINE
  5
B2C
  8
0
 10
53.729012146019471
 20
136.4762024375089
 30
0.0
 11
53.729012146019471
 21
134.09064820267429
 31
0.0
  0
LINE
  5
B2D
  8
0
 10
65.479012146019471
 20
106.7316397909709
 30
0.0
 11
65.479012146019471
 21
113.2316397909709
 31
0.0
  0
LINE
  5
B2E
  8
0
 10
51.979012146019471
 20
113.2316397909709
 30
0.0
 11
51.979012146019471
 21
106.7316397909709
 31
0.0
  0
LINE
  5
B2F
  8
0
 10
60.850898099599391
 20
127.93546470919
 30
0.0
 11
56.60712619243953
 21
127.93546470919
 31
0.0
  0
POLYLINE
  5
B32
  8
0
 66
     1
 10
0.0
 20
0.0
 30
0.0
  0
VERTEX
  5
1DF4
  8
0
 10
60.850898099599391
 20
127.93546470919
 30
0.0
  0
VERTEX
  5
1DF5
  8
0
 10
60.851334327906372
 20
127.9632093101478
 30
0.0
  0
VERTEX
  5
1DF6
  8
0
 10
60.854809640536821
 20
128.0185760139467
 30
0.0
  0
VERTEX
  5
1DF7
  8
0
 10
60.861703224598259
 20
128.07370258526879
 30
0.0
  0
VERTEX
  5
1DF8
  8
0
 10
60.866403313979319
 20
128.1011457923874
 30
0.0
  0
VERTEX
  5
1DF9
  8
0
 10
60.871919188584123
 20
128.1284933011467
 30
0.0
  0
VERTEX
  5
1DFA
  8
0
 10
60.88532738702672
 20
128.18285821803869
 30
0.0
  0
VERTEX
  5
1DFB
  8
0
 10
60.901770782327809
 20
128.23672098613551
 30
0.0
  0
VERTEX
  5
1DFC
  8
0
 10
60.921072232937739
 20
128.29001740783059
 30
0.0
  0
VERTEX
  5
1DFD
  8
0
 10
60.943036815741777
 20
128.34268515599589
 30
0.0
  0
VERTEX
  5
1DFE
  8
0
 10
60.96745624718649
 20
128.3946647468604
 30
0.0
  0
VERTEX
  5
1DFF
  8
0
 10
60.980518979043893
 20
128.42037903594701
 30
0.0
  0
VERTEX
  5
1E00
  8
0
 10
60.99411365576924
 20
128.4459008795053
 30
0.0
  0
VERTEX
  5
1E01
  8
0
 10
61.022788147690463
 20
128.49634327650301
 30
0.0
  0
VERTEX
  5
1E02
  8
0
 10
61.053268299942062
 20
128.54596186001331
 30
0.0
  0
VERTEX
  5
1E03
  8
0
 10
61.085340548772358
 20
128.59472000465681
 30
0.0
  0
VERTEX
  5
1E04
  8
0
 10
61.118790287266101
 20
128.64257584964059
 30
0.0
  0
VERTEX
  5
1E05
  8
0
 10
61.153405780241222
 20
128.6894870685922
 30
0.0
  0
VERTEX
  5
1E06
  8
0
 10
61.171085395772991
 20
128.7125748755318
 30
0.0
  0
VERTEX
  5
1E07
  8
0
 10
61.18897852011068
 20
128.73541002094481
 30
0.0
  0
VERTEX
  5
1E08
  8
0
 10
61.225303336034607
 20
128.78029912616739
 30
0.0
  0
VERTEX
  5
1E09
  8
0
 10
61.26217835681593
 20
128.8241064409269
 30
0.0
  0
VERTEX
  5
1E0A
  8
0
 10
61.280759984813251
 20
128.84558873391319
 30
0.0
  0
VERTEX
  5
1E0B
  8
0
 10
61.299404899693251
 20
128.8667814088835
 30
0.0
  0
VERTEX
  5
1E0C
  8
0
 10
61.336787335528527
 20
128.90827075175861
 30
0.0
  0
VERTEX
  5
1E0D
  8
0
 10
61.374135526101568
 20
128.9485211955415
 30
0.0
  0
VERTEX
  5
1E0E
  8
0
 10
61.392900062180487
 20
128.96833424774169
 30
0.0
  0
VERTEX
  5
1E0F
  8
0
 10
61.411854620171617
 20
128.9880902850621
 30
0.0
  0
VERTEX
  5
1E10
  8
0
 10
61.450312702536259
 20
129.02743488301221
 30
0.0
  0
VERTEX
  5
1E11
  8
0
 10
61.489468702325908
 20
129.0665613186228
 30
0.0
  0
VERTEX
  5
1E12
  8
0
 10
61.631453874898732
 20
129.20184770704691
 30
0.0
  0
VERTEX
  5
1E13
  8
0
 10
61.889204974528838
 20
129.427877840653
 30
0.0
  0
VERTEX
  5
1E14
  8
0
 10
62.159115494615222
 20
129.6459973114969
 30
0.0
  0
VERTEX
  5
1E15
  8
0
 10
62.434945854798698
 20
129.8550022137963
 30
0.0
  0
VERTEX
  5
1E16
  8
0
 10
62.710963969501059
 20
130.05324531336191
 30
0.0
  0
VERTEX
  5
1E17
  8
0
 10
62.84735560211228
 20
130.14775796664239
 30
0.0
  0
VERTEX
  5
1E18
  8
0
 10
62.981806026843998
 20
130.2388839333918
 30
0.0
  0
VERTEX
  5
1E19
  8
0
 10
63.242477290868351
 20
130.41011011254011
 30
0.0
  0
VERTEX
  5
1E1A
  8
0
 10
63.500665853702387
 20
130.5729160246307
 30
0.0
  0
VERTEX
  5
1E1B
  8
0
 10
63.76271071972738
 20
130.73135423483041
 30
0.0
  0
VERTEX
  5
1E1C
  8
0
 10
64.026761435406115
 20
130.88394548128321
 30
0.0
  0
VERTEX
  5
1E1D
  8
0
 10
64.291049558812531
 20
131.02922262586111
 30
0.0
  0
VERTEX
  5
1E1E
  8
0
 10
64.422754449665604
 20
131.09866547718519
 30
0.0
  0
VERTEX
  5
1E1F
  8
0
 10
64.553894015655317
 20
131.16573837556481
 30
0.0
  0
VERTEX
  5
1E20
  8
0
 10
64.813688910535092
 20
131.2920660334201
 30
0.0
  0
VERTEX
  5
1E21
  8
0
 10
65.068923255628633
 20
131.4068186286413
 30
0.0
  0
VERTEX
  5
1E22
  8
0
 10
65.194412418768167
 20
131.45944556163599
 30
0.0
  0
SEQEND
  5
1E23
  8
0
  0
POLYLINE
  5
B35
  8
0
 66
     1
 10
0.0
 20
0.0
 30
0.0
  0
VERTEX
  5
1E24
  8
0
 10
52.263611873270762
 20
131.45944556163599
 30
0.0
  0
VERTEX
  5
1E25
  8
0
 10
52.389101036410288
 20
131.4068186286413
 30
0.0
  0
VERTEX
  5
1E26
  8
0
 10
52.644335381503822
 20
131.2920660334201
 30
0.0
  0
VERTEX
  5
1E27
  8
0
 10
52.904130276383597
 20
131.16573837556481
 30
0.0
  0
VERTEX
  5
1E28
  8
0
 10
53.035269842373332
 20
131.09866547718519
 30
0.0
  0
VERTEX
  5
1E29
  8
0
 10
53.166974733226382
 20
131.02922262586111
 30
0.0
  0
VERTEX
  5
1E2A
  8
0
 10
53.431262856632813
 20
130.88394548128321
 30
0.0
  0
VERTEX
  5
1E2B
  8
0
 10
53.695313572311527
 20
130.73135423483041
 30
0.0
  0
VERTEX
  5
1E2C
  8
0
 10
53.95735843833652
 20
130.5729160246307
 30
0.0
  0
VERTEX
  5
1E2D
  8
0
 10
54.215547001170563
 20
130.41011011254011
 30
0.0
  0
VERTEX
  5
1E2E
  8
0
 10
54.476218265194902
 20
130.2388839333918
 30
0.0
  0
VERTEX
  5
1E2F
  8
0
 10
54.610668689926641
 20
130.14775796664239
 30
0.0
  0
VERTEX
  5
1E30
  8
0
 10
54.747060322537862
 20
130.05324531336191
 30
0.0
  0
VERTEX
  5
1E31
  8
0
 10
55.023078437240223
 20
129.8550022137963
 30
0.0
  0
VERTEX
  5
1E32
  8
0
 10
55.298908797423671
 20
129.6459973114969
 30
0.0
  0
VERTEX
  5
1E33
  8
0
 10
55.568819317510069
 20
129.427877840653
 30
0.0
  0
VERTEX
  5
1E34
  8
0
 10
55.826570417140182
 20
129.20184770704699
 30
0.0
  0
VERTEX
  5
1E35
  8
0
 10
55.96855558971302
 20
129.0665613186228
 30
0.0
  0
VERTEX
  5
1E36
  8
0
 10
56.007711589502648
 20
129.02743488301221
 30
0.0
  0
VERTEX
  5
1E37
  8
0
 10
56.046169671867283
 20
128.9880902850621
 30
0.0
  0
VERTEX
  5
1E38
  8
0
 10
56.065124229858441
 20
128.96833424774169
 30
0.0
  0
VERTEX
  5
1E39
  8
0
 10
56.083888765937353
 20
128.9485211955415
 30
0.0
  0
VERTEX
  5
1E3A
  8
0
 10
56.121236956510387
 20
128.90827075175861
 30
0.0
  0
VERTEX
  5
1E3B
  8
0
 10
56.158619392345678
 20
128.8667814088835
 30
0.0
  0
VERTEX
  5
1E3C
  8
0
 10
56.177264307225677
 20
128.84558873391319
 30
0.0
  0
VERTEX
  5
1E3D
  8
0
 10
56.195845935222991
 20
128.8241064409269
 30
0.0
  0
VERTEX
  5
1E3E
  8
0
 10
56.232720956004293
 20
128.78029912616739
 30
0.0
  0
VERTEX
  5
1E3F
  8
0
 10
56.269045771928241
 20
128.73541002094481
 30
0.0
  0
VERTEX
  5
1E40
  8
0
 10
56.28693889626593
 20
128.7125748755318
 30
0.0
  0
VERTEX
  5
1E41
  8
0
 10
56.304618511797671
 20
128.6894870685922
 30
0.0
  0
VERTEX
  5
1E42
  8
0
 10
56.339234004772798
 20
128.64257584964059
 30
0.0
  0
VERTEX
  5
1E43
  8
0
 10
56.372683743266563
 20
128.59472000465681
 30
0.0
  0
VERTEX
  5
1E44
  8
0
 10
56.40475599209686
 20
128.54596186001331
 30
0.0
  0
VERTEX
  5
1E45
  8
0
 10
56.435236144348437
 20
128.49634327650301
 30
0.0
  0
VERTEX
  5
1E46
  8
0
 10
56.463910636269681
 20
128.4459008795053
 30
0.0
  0
VERTEX
  5
1E47
  8
0
 10
56.477505312995042
 20
128.42037903594701
 30
0.0
  0
VERTEX
  5
1E48
  8
0
 10
56.490568044852409
 20
128.3946647468604
 30
0.0
  0
VERTEX
  5
1E49
  8
0
 10
56.514987476297122
 20
128.34268515599589
 30
0.0
  0
VERTEX
  5
1E4A
  8
0
 10
56.536952059101182
 20
128.29001740783059
 30
0.0
  0
VERTEX
  5
1E4B
  8
0
 10
56.556253509711141
 20
128.23672098613551
 30
0.0
  0
VERTEX
  5
1E4C
  8
0
 10
56.572696905012201
 20
128.18285821803869
 30
0.0
  0
VERTEX
  5
1E4D
  8
0
 10
56.586105103454813
 20
128.1284933011467
 30
0.0
  0
VERTEX
  5
1E4E
  8
0
 10
56.591620978059602
 20
128.1011457923874
 30
0.0
  0
VERTEX
  5
1E4F
  8
0
 10
56.596321067440662
 20
128.07370258526879
 30
0.0
  0
VERTEX
  5
1E50
  8
0
 10
56.603214651502107
 20
128.0185760139467
 30
0.0
  0
VERTEX
  5
1E51
  8
0
 10
56.606689964132528
 20
127.9632093101478
 30
0.0
  0
VERTEX
  5
1E52
  8
0
 10
56.60712619243953
 20
127.93546470919
 30
0.0
  0
SEQEND
  5
1E53
  8
0
  0
POLYLINE
  5
B37
  8
0
 66
     1
 10
0.0
 20
0.0
 30
0.0
  0
VERTEX
  5
1E54
  8
0
 10
63.025784041549848
 20
149.00854482314389
 30
0.0
  0
VERTEX
  5
1E55
  8
0
 10
63.00976481235427
 20
149.01107381342391
 30
0.0
  0
VERTEX
  5
1E56
  8
0
 10
62.977092331844311
 20
149.014691527179
 30
0.0
  0
VERTEX
  5
1E57
  8
0
 10
62.943650173593817
 20
149.01645763495921
 30
0.0
  0
VERTEX
  5
1E58
  8
0
 10
62.926670688787659
 20
149.01667401650781
 30
0.0
  0
SEQEND
  5
1E59
  8
0
  0
POLYLINE
  5
B38
  8
0
 66
     1
 10
0.0
 20
0.0
 30
0.0
  0
VERTEX
  5
1E5A
  8
0
 10
54.531353603251283
 20
149.01667401650781
 30
0.0
  0
VERTEX
  5
1E5B
  8
0
 10
54.514374118445119
 20
149.01645763495921
 30
0.0
  0
VERTEX
  5
1E5C
  8
0
 10
54.480931960194631
 20
149.014691527179
 30
0.0
  0
VERTEX
  5
1E5D
  8
0
 10
54.448259479684651
 20
149.01107381342391
 30
0.0
  0
VERTEX
  5
1E5E
  8
0
 10
54.432240250489087
 20
149.00854482314389
 30
0.0
  0
SEQEND
  5
1E5F
  8
0
  0
LINE
  5
B39
  8
0
 10
67.979012146019471
 20
113.2316397909709
 30
0.0
 11
49.479012146019471
 21
113.2316397909709
 31
0.0
  0
POLYLINE
  5
B3B
  8
0
 66
     1
 10
0.0
 20
0.0
 30
0.0
  0
VERTEX
  5
1E60
  8
0
 10
53.859597929095173
 20
133.92123662438581
 30
0.0
  0
VERTEX
  5
1E61
  8
0
 10
53.848391596454817
 20
133.93396762828601
 30
0.0
  0
VERTEX
  5
1E62
  8
0
 10
53.826617738112532
 20
133.95945751539469
 30
0.0
  0
VERTEX
  5
1E63
  8
0
 10
53.805696700801278
 20
133.98497733626419
 30
0.0
  0
VERTEX
  5
1E64
  8
0
 10
53.795556247370847
 20
133.99774576094151
 30
0.0
  0
VERTEX
  5
1E65
  8
0
 10
53.785629229223183
 20
134.0105184191259
 30
0.0
  0
VERTEX
  5
1E66
  8
0
 10
53.766415443336832
 20
134.03607211340139
 30
0.0
  0
VERTEX
  5
1E67
  8
0
 10
53.748054890834368
 20
134.06162972501849
 30
0.0
  0
VERTEX
  5
1E68
  8
0
 10
53.690492731216821
 20
134.15098450701879
 30
0.0
  0
VERTEX
  5
1E69
  8
0
 10
53.61575596804596
 20
134.30291347405119
 30
0.0
  0
VERTEX
  5
1E6A
  8
0
 10
53.589434769123507
 20
134.3777736526111
 30
0.0
  0
SEQEND
  5
1E6B
  8
0
  0
POLYLINE
  5
B3C
  8
0
 66
     1
 10
0.0
 20
0.0
 30
0.0
  0
VERTEX
  5
1E6C
  8
0
 10
53.589434769123507
 20
134.3777736526111
 30
0.0
  0
VERTEX
  5
1E6D
  8
0
 10
53.58326889649026
 20
134.3988275262243
 30
0.0
  0
VERTEX
  5
1E6E
  8
0
 10
53.572506739967558
 20
134.44117261690101
 30
0.0
  0
VERTEX
  5
1E6F
  8
0
 10
53.563880839512052
 20
134.48380463656741
 30
0.0
  0
VERTEX
  5
1E70
  8
0
 10
53.560384309897593
 20
134.50521708727439
 30
0.0
  0
VERTEX
  5
1E71
  8
0
 10
53.557439707064887
 20
134.52668785014501
 30
0.0
  0
VERTEX
  5
1E72
  8
0
 10
53.553227629556787
 20
134.56978632046949
 30
0.0
  0
VERTEX
  5
1E73
  8
0
 10
53.551284647019131
 20
134.61306406271319
 30
0.0
  0
VERTEX
  5
1E74
  8
0
 10
53.55164656674706
 20
134.6564851969014
 30
0.0
  0
VERTEX
  5
1E75
  8
0
 10
53.554345013622211
 20
134.70001409919399
 30
0.0
  0
VERTEX
  5
1E76
  8
0
 10
53.559407517210531
 20
134.74361555244661
 30
0.0
  0
VERTEX
  5
1E77
  8
0
 10
53.562832803397562
 20
134.76543262849901
 30
0.0
  0
VERTEX
  5
1E78
  8
0
 10
53.5668576367054
 20
134.78725489641329
 30
0.0
  0
VERTEX
  5
1E79
  8
0
 10
53.576715118628528
 20
134.8308981519059
 30
0.0
  0
VERTEX
  5
1E7A
  8
0
 10
53.588995958387493
 20
134.87451172952601
 30
0.0
  0
VERTEX
  5
1E7B
  8
0
 10
53.603712297328101
 20
134.91806198099499
 30
0.0
  0
VERTEX
  5
1E7C
  8
0
 10
53.620872373701971
 20
134.96151526664519
 30
0.0
  0
VERTEX
  5
1E7D
  8
0
 10
53.64048051815027
 20
135.00483809839909
 30
0.0
  0
VERTEX
  5
1E7E
  8
0
 10
53.651202907071919
 20
135.02644020482961
 30
0.0
  0
VERTEX
  5
1E7F
  8
0
 10
53.662537182200531
 20
135.04799727902741
 30
0.0
  0
VERTEX
  5
1E80
  8
0
 10
53.687039000125068
 20
135.0909600381973
 30
0.0
  0
VERTEX
  5
1E81
  8
0
 10
53.713978884908073
 20
135.1336941657496
 30
0.0
  0
VERTEX
  5
1E82
  8
0
 10
53.728359901680747
 20
135.15496561241389
 30
0.0
  0
SEQEND
  5
1E83
  8
0
  0
POLYLINE
  5
B3D
  8
0
 66
     1
 10
0.0
 20
0.0
 30
0.0
  0
VERTEX
  5
1E84
  8
0
 10
63.729687197469282
 20
135.154932624949
 30
0.0
  0
VERTEX
  5
1E85
  8
0
 10
63.74406666544445
 20
135.13366199344421
 30
0.0
  0
VERTEX
  5
1E86
  8
0
 10
63.771003603208001
 20
135.09092953024791
 30
0.0
  0
VERTEX
  5
1E87
  8
0
 10
63.795502678128351
 20
135.04796847785579
 30
0.0
  0
VERTEX
  5
1E88
  8
0
 10
63.80683565935815
 20
135.02641227179541
 30
0.0
  0
VERTEX
  5
1E89
  8
0
 10
63.817556806633
 20
135.00481104269181
 30
0.0
  0
VERTEX
  5
1E8A
  8
0
 10
63.837162625871748
 20
134.96148999116801
 30
0.0
  0
VERTEX
  5
1E8B
  8
0
 10
63.854320589640643
 20
134.91803851643539
 30
0.0
  0
VERTEX
  5
1E8C
  8
0
 10
63.86903503020654
 20
134.87449010236301
 30
0.0
  0
VERTEX
  5
1E8D
  8
0
 10
63.881314186779392
 20
134.83087838430771
 30
0.0
  0
VERTEX
  5
1E8E
  8
0
 10
63.891170200979843
 20
134.78723700616439
 30
0.0
  0
VERTEX
  5
1E8F
  8
0
 10
63.895194381118998
 20
134.7654156822299
 30
0.0
  0
VERTEX
  5
1E90
  8
0
 10
63.898619067785951
 20
134.74359955300631
 30
0.0
  0
VERTEX
  5
1E91
  8
0
 10
63.903680532615702
 20
134.69999999987741
 30
0.0
  0
VERTEX
  5
1E92
  8
0
 10
63.906378152955661
 20
134.6564730027572
 30
0.0
  0
VERTEX
  5
1E93
  8
0
 10
63.90673945602699
 20
134.6130537743789
 30
0.0
  0
VERTEX
  5
1E94
  8
0
 10
63.904796063690057
 20
134.56977793405929
 30
0.0
  0
VERTEX
  5
1E95
  8
0
 10
63.900583779513681
 20
134.52668135716959
 30
0.0
  0
VERTEX
  5
1E96
  8
0
 10
63.89763914815903
 20
134.5052115363805
 30
0.0
  0
VERTEX
  5
1E97
  8
0
 10
63.894142639079412
 20
134.4838000238866
 30
0.0
  0
VERTEX
  5
1E98
  8
0
 10
63.885516924134897
 20
134.44116986670861
 30
0.0
  0
VERTEX
  5
1E99
  8
0
 10
63.874755140705567
 20
134.39882661606649
 30
0.0
  0
VERTEX
  5
1E9A
  8
0
 10
63.868589522915428
 20
134.3777736526111
 30
0.0
  0
SEQEND
  5
1E9B
  8
0
  0
POLYLINE
  5
B3E
  8
0
 66
     1
 10
0.0
 20
0.0
 30
0.0
  0
VERTEX
  5
1E9C
  8
0
 10
63.868589522915428
 20
134.3777736526111
 30
0.0
  0
VERTEX
  5
1E9D
  8
0
 10
63.842246626694099
 20
134.302858906707
 30
0.0
  0
VERTEX
  5
1E9E
  8
0
 10
63.802269344179848
 20
134.21447823610151
 30
0.0
  0
VERTEX
  5
1E9F
  8
0
 10
63.78898356392574
 20
134.1890827413263
 30
0.0
  0
VERTEX
  5
1EA0
  8
0
 10
63.77486048392722
 20
134.16363964638779
 30
0.0
  0
VERTEX
  5
1EA1
  8
0
 10
63.767483718326737
 20
134.15090302965621
 30
0.0
  0
VERTEX
  5
1EA2
  8
0
 10
63.759896218642098
 20
134.1381578463683
 30
0.0
  0
VERTEX
  5
1EA3
  8
0
 10
63.744087492118389
 20
134.11264620465471
 30
0.0
  0
VERTEX
  5
1EA4
  8
0
 10
63.72743162406875
 20
134.08711353992001
 30
0.0
  0
VERTEX
  5
1EA5
  8
0
 10
63.709926513830482
 20
134.0615686130532
 30
0.0
  0
VERTEX
  5
1EA6
  8
0
 10
63.691570622150977
 20
134.03602011402279
 30
0.0
  0
VERTEX
  5
1EA7
  8
0
 10
63.67236295073085
 20
134.0104766486711
 30
0.0
  0
VERTEX
  5
1EA8
  8
0
 10
63.662439528013543
 20
133.99770946668431
 30
0.0
  0
VERTEX
  5
1EA9
  8
0
 10
63.652303020461247
 20
133.98494672669401
 30
0.0
  0
VERTEX
  5
1EAA
  8
0
 10
63.631390883426732
 20
133.95943879244729
 30
0.0
  0
VERTEX
  5
1EAB
  8
0
 10
63.609627183101999
 20
133.93396130331971
 30
0.0
  0
VERTEX
  5
1EAC
  8
0
 10
63.598426362857502
 20
133.92123662428881
 30
0.0
  0
SEQEND
  5
1EAD
  8
0
  0
POLYLINE
  5
B3F
  8
0
 66
     1
 10
0.0
 20
0.0
 30
0.0
  0
VERTEX
  5
1EAE
  8
0
 10
64.559817109751293
 20
143.95580829442119
 30
0.0
  0
VERTEX
  5
1EAF
  8
0
 10
64.381568042593528
 20
145.05970791588771
 30
0.0
  0
VERTEX
  5
1EB0
  8
0
 10
64.022511844833474
 20
146.9196096796685
 30
0.0
  0
VERTEX
  5
1EB1
  8
0
 10
63.660701936105248
 20
148.31235472150041
 30
0.0
  0
VERTEX
  5
1EB2
  8
0
 10
63.479012146019471
 20
148.83254862266111
 30
0.0
  0
SEQEND
  5
1EB3
  8
0
  0
POLYLINE
  5
B40
  8
0
 66
     1
 10
0.0
 20
0.0
 30
0.0
  0
VERTEX
  5
1EB4
  8
0
 10
64.355180650339733
 20
143.4464426860284
 30
0.0
  0
VERTEX
  5
1EB5
  8
0
 10
64.366871035765996
 20
143.45896786731859
 30
0.0
  0
VERTEX
  5
1EB6
  8
0
 10
64.38923168450961
 20
143.48400296625039
 30
0.0
  0
VERTEX
  5
1EB7
  8
0
 10
64.410232316700899
 20
143.5090110717054
 30
0.0
  0
VERTEX
  5
1EB8
  8
0
 10
64.420222896709092
 20
143.5215025228714
 30
0.0
  0
VERTEX
  5
1EB9
  8
0
 10
64.429873937712941
 20
143.5339842919517
 30
0.0
  0
VERTEX
  5
1EBA
  8
0
 10
64.448158548540974
 20
143.55891490925291
 30
0.0
  0
VERTEX
  5
1EBB
  8
0
 10
64.465088947835824
 20
143.5837951302326
 30
0.0
  0
VERTEX
  5
1EBC
  8
0
 10
64.480668783759427
 20
143.6086171179775
 30
0.0
  0
VERTEX
  5
1EBD
  8
0
 10
64.49490258835776
 20
143.6333730091678
 30
0.0
  0
VERTEX
  5
1EBE
  8
0
 10
64.507795806175594
 20
143.6580549286335
 30
0.0
  0
VERTEX
  5
1EBF
  8
0
 10
64.513741652170523
 20
143.67036568827911
 30
0.0
  0
VERTEX
  5
1EC0
  8
0
 10
64.519354819130953
 20
143.6826550037249
 30
0.0
  0
VERTEX
  5
1EC1
  8
0
 10
64.529586967715034
 20
143.70716537849711
 30
0.0
  0
VERTEX
  5
1EC2
  8
0
 10
64.538500568573966
 20
143.73157822771941
 30
0.0
  0
VERTEX
  5
1EC3
  8
0
 10
64.546104928516542
 20
143.75588577071559
 30
0.0
  0
VERTEX
  5
1EC4
  8
0
 10
64.552410354979202
 20
143.78008028505531
 30
0.0
  0
VERTEX
  5
1EC5
  8
0
 10
64.557428162966133
 20
143.80415412011229
 30
0.0
  0
VERTEX
  5
1EC6
  8
0
 10
64.559458022390274
 20
143.81614341503499
 30
0.0
  0
VERTEX
  5
1EC7
  8
0
 10
64.561170678466937
 20
143.8280997105152
 30
0.0
  0
VERTEX
  5
1EC8
  8
0
 10
64.563651238338423
 20
143.85190958951691
 30
0.0
  0
VERTEX
  5
1EC9
  8
0
 10
64.564884186619992
 20
143.87557640231279
 30
0.0
  0
VERTEX
  5
1ECA
  8
0
 10
64.565037562607145
 20
143.8873538943898
 30
0.0
  0
SEQEND
  5
1ECB
  8
0
  0
POLYLINE
  5
B41
  8
0
 66
     1
 10
0.0
 20
0.0
 30
0.0
  0
VERTEX
  5
1ECC
  8
0
 10
64.565037562607145
 20
143.8873538943898
 30
0.0
  0
VERTEX
  5
1ECD
  8
0
 10
64.564894108450147
 20
143.89873233558609
 30
0.0
  0
VERTEX
  5
1ECE
  8
0
 10
64.563740736851827
 20
143.9215289288546
 30
0.0
  0
VERTEX
  5
1ECF
  8
0
 10
64.561419803436181
 20
143.94437188540769
 30
0.0
  0
VERTEX
  5
1ED0
  8
0
 10
64.559817109751293
 20
143.95580829442119
 30
0.0
  0
SEQEND
  5
1ED1
  8
0
  0
POLYLINE
  5
B42
  8
0
 66
     1
 10
0.0
 20
0.0
 30
0.0
  0
VERTEX
  5
1ED2
  8
0
 10
65.317882368847492
 20
136.97378994093941
 30
0.0
  0
VERTEX
  5
1ED3
  8
0
 10
65.20875228372708
 20
137.09404899188931
 30
0.0
  0
VERTEX
  5
1ED4
  8
0
 10
65.000300781434134
 20
137.3327355387211
 30
0.0
  0
VERTEX
  5
1ED5
  8
0
 10
64.804908972070933
 20
137.56879541783749
 30
0.0
  0
VERTEX
  5
1ED6
  8
0
 10
64.712096589961504
 20
137.6857726328623
 30
0.0
  0
VERTEX
  5
1ED7
  8
0
 10
64.622528802792203
 20
137.80201271873949
 30
0.0
  0
VERTEX
  5
1ED8
  8
0
 10
64.45308302544889
 20
138.03217747094601
 30
0.0
  0
VERTEX
  5
1ED9
  8
0
 10
64.29646527641053
 20
138.25908524747209
 30
0.0
  0
VERTEX
  5
1EDA
  8
0
 10
64.152539204496961
 20
138.48253805023859
 30
0.0
  0
VERTEX
  5
1EDB
  8
0
 10
64.019831914493281
 20
138.70461915500161
 30
0.0
  0
VERTEX
  5
1EDC
  8
0
 10
63.8973229827605
 20
138.9273190935138
 30
0.0
  0
VERTEX
  5
1EDD
  8
0
 10
63.840041223661643
 20
139.03881111201099
 30
0.0
  0
VERTEX
  5
1EDE
  8
0
 10
63.785483167440482
 20
139.15035031908511
 30
0.0
  0
VERTEX
  5
1EDF
  8
0
 10
63.684751931729181
 20
139.37342961203791
 30
0.0
  0
VERTEX
  5
1EE0
  8
0
 10
63.59553651718543
 20
139.5962792565528
 30
0.0
  0
VERTEX
  5
1EE1
  8
0
 10
63.518211245681321
 20
139.818628187066
 30
0.0
  0
VERTEX
  5
1EE2
  8
0
 10
63.453117058608143
 20
140.04021310747359
 30
0.0
  0
VERTEX
  5
1EE3
  8
0
 10
63.400561307010861
 20
140.260779585162
 30
0.0
  0
VERTEX
  5
1EE4
  8
0
 10
63.379072174622671
 20
140.37060431138039
 30
0.0
  0
VERTEX
  5
1EE5
  8
0
 10
63.36081770679948
 20
140.4800838065951
 30
0.0
  0
VERTEX
  5
1EE6
  8
0
 10
63.334127331295718
 20
140.69788890982579
 30
0.0
  0
VERTEX
  5
1EE7
  8
0
 10
63.320698139360459
 20
140.91396350776191
 30
0.0
  0
VERTEX
  5
1EE8
  8
0
 10
63.31901214601946
 20
141.0212819303259
 30
0.0
  0
SEQEND
  5
1EE9
  8
0
  0
POLYLINE
  5
B43
  8
0
 66
     1
 10
0.0
 20
0.0
 30
0.0
  0
VERTEX
  5
1EEA
  8
0
 10
63.31901214601946
 20
141.0212819303259
 30
0.0
  0
VERTEX
  5
1EEB
  8
0
 10
63.319803826548473
 20
141.09441862189459
 30
0.0
  0
VERTEX
  5
1EEC
  8
0
 10
63.326152622983102
 20
141.23993440881921
 30
0.0
  0
VERTEX
  5
1EED
  8
0
 10
63.33888553129146
 20
141.38438523331811
 30
0.0
  0
VERTEX
  5
1EEE
  8
0
 10
63.347655578793713
 20
141.45619116220161
 30
0.0
  0
VERTEX
  5
1EEF
  8
0
 10
63.358032164496088
 20
141.5277069428638
 30
0.0
  0
VERTEX
  5
1EF0
  8
0
 10
63.383614510159802
 20
141.66983734151771
 30
0.0
  0
VERTEX
  5
1EF1
  8
0
 10
63.415646896112086
 20
141.81071632704061
 30
0.0
  0
VERTEX
  5
1EF2
  8
0
 10
63.454135985622578
 20
141.95028602090699
 30
0.0
  0
VERTEX
  5
1EF3
  8
0
 10
63.499082933207418
 20
142.08849697200569
 30
0.0
  0
VERTEX
  5
1EF4
  8
0
 10
63.550486707575821
 20
142.22531254169721
 30
0.0
  0
VERTEX
  5
1EF5
  8
0
 10
63.578606234197508
 20
142.29318106680421
 30
0.0
  0
VERTEX
  5
1EF6
  8
0
 10
63.608334519379987
 20
142.36068160672389
 30
0.0
  0
VERTEX
  5
1EF7
  8
0
 10
63.672605414797509
 20
142.49455410253589
 30
0.0
  0
VERTEX
  5
1EF8
  8
0
 10
63.743270587254997
 20
142.6268821753599
 30
0.0
  0
VERTEX
  5
1EF9
  8
0
 10
63.820293410125821
 20
142.7576202912374
 30
0.0
  0
VERTEX
  5
1EFA
  8
0
 10
63.903629506863261
 20
142.88672534399481
 30
0.0
  0
VERTEX
  5
1EFB
  8
0
 10
63.993226669099379
 20
143.01415649830901
 30
0.0
  0
VERTEX
  5
1EFC
  8
0
 10
64.040354635441645
 20
143.07723214976079
 30
0.0
  0
VERTEX
  5
1EFD
  8
0
 10
64.089024648162223
 20
143.1398749338139
 30
0.0
  0
VERTEX
  5
1EFE
  8
0
 10
64.190955184688136
 20
143.26384397041241
 30
0.0
  0
VERTEX
  5
1EFF
  8
0
 10
64.298942060172678
 20
143.38602916318709
 30
0.0
  0
VERTEX
  5
1F00
  8
0
 10
64.355180650339719
 20
143.44644268602829
 30
0.0
  0
SEQEND
  5
1F01
  8
0
  0
POLYLINE
  5
B44
  8
0
 66
     1
 10
0.0
 20
0.0
 30
0.0
  0
VERTEX
  5
1F02
  8
0
 10
65.19441241876811
 20
131.4594455616363
 30
0.0
  0
VERTEX
  5
1F03
  8
0
 10
65.35666421373368
 20
131.5272689543101
 30
0.0
  0
VERTEX
  5
1F04
  8
0
 10
65.667478360588575
 20
131.66621023411179
 30
0.0
  0
VERTEX
  5
1F05
  8
0
 10
65.959309149154564
 20
131.80876228860919
 30
0.0
  0
VERTEX
  5
1F06
  8
0
 10
66.097870201743476
 20
131.8810842928645
 30
0.0
  0
VERTEX
  5
1F07
  8
0
 10
66.231425197445105
 20
131.95393213228431
 30
0.0
  0
VERTEX
  5
1F08
  8
0
 10
66.483285947391465
 20
132.1006751347802
 30
0.0
  0
VERTEX
  5
1F09
  8
0
 10
66.717663557522059
 20
132.2499738948666
 30
0.0
  0
VERTEX
  5
1F0A
  8
0
 10
66.939214075276482
 20
132.4048000003443
 30
0.0
  0
VERTEX
  5
1F0B
  8
0
 10
67.146532279493982
 20
132.5646289495721
 30
0.0
  0
VERTEX
  5
1F0C
  8
0
 10
67.33826178079056
 20
132.72882483074901
 30
0.0
  0
VERTEX
  5
1F0D
  8
0
 10
67.427908323562548
 20
132.81235695620259
 30
0.0
  0
VERTEX
  5
1F0E
  8
0
 10
67.513234064784228
 20
132.89673563012019
 30
0.0
  0
VERTEX
  5
1F0F
  8
0
 10
67.670457525530352
 20
133.06769413546431
 30
0.0
  0
VERTEX
  5
1F10
  8
0
 10
67.809103098091796
 20
133.2410083532597
 30
0.0
  0
VERTEX
  5
1F11
  8
0
 10
67.928514422421188
 20
133.41597327868041
 30
0.0
  0
VERTEX
  5
1F12
  8
0
 10
68.028229423228765
 20
133.5919135018442
 30
0.0
  0
VERTEX
  5
1F13
  8
0
 10
68.107965853699852
 20
133.7681986534003
 30
0.0
  0
VERTEX
  5
1F14
  8
0
 10
68.140284915228179
 20
133.85625089285
 30
0.0
  0
VERTEX
  5
1F15
  8
0
 10
68.167562485007394
 20
133.94412467954001
 30
0.0
  0
VERTEX
  5
1F16
  8
0
 10
68.207036272531354
 20
134.1189854487863
 30
0.0
  0
VERTEX
  5
1F17
  8
0
 10
68.226590482962081
 20
134.29209040204651
 30
0.0
  0
VERTEX
  5
1F18
  8
0
 10
68.229012146019471
 20
134.3777736526111
 30
0.0
  0
SEQEND
  5
1F19
  8
0
  0
POLYLINE
  5
B45
  8
0
 66
     1
 10
0.0
 20
0.0
 30
0.0
  0
VERTEX
  5
1F1A
  8
0
 10
68.229012146019471
 20
134.3777736526111
 30
0.0
  0
VERTEX
  5
1F1B
  8
0
 10
68.22674936954013
 20
134.4603458328416
 30
0.0
  0
VERTEX
  5
1F1C
  8
0
 10
68.208879349473492
 20
134.6232250568226
 30
0.0
  0
VERTEX
  5
1F1D
  8
0
 10
68.17382650295653
 20
134.78258134035241
 30
0.0
  0
VERTEX
  5
1F1E
  8
0
 10
68.150123543990262
 20
134.8607672114864
 30
0.0
  0
VERTEX
  5
1F1F
  8
0
 10
68.122125799132021
 20
134.9387486794225
 30
0.0
  0
VERTEX
  5
1F20
  8
0
 10
68.052429150008663
 20
135.09537226404959
 30
0.0
  0
VERTEX
  5
1F21
  8
0
 10
67.963988907163497
 20
135.25223861401051
 30
0.0
  0
VERTEX
  5
1F22
  8
0
 10
67.856403800180615
 20
135.40860286549241
 30
0.0
  0
VERTEX
  5
1F23
  8
0
 10
67.729456822376562
 20
135.5637561499934
 30
0.0
  0
VERTEX
  5
1F24
  8
0
 10
67.583105996065981
 20
135.71702992898781
 30
0.0
  0
VERTEX
  5
1F25
  8
0
 10
67.502691439977966
 20
135.7927602298499
 30
0.0
  0
VERTEX
  5
1F26
  8
0
 10
67.417494092955039
 20
135.86778185015839
 30
0.0
  0
VERTEX
  5
1F27
  8
0
 10
67.232947925724446
 20
136.01539998389421
 30
0.0
  0
VERTEX
  5
1F28
  8
0
 10
67.029952799273204
 20
136.1593227495633
 30
0.0
  0
VERTEX
  5
1F29
  8
0
 10
66.809052684268849
 20
136.2990924309598
 30
0.0
  0
VERTEX
  5
1F2A
  8
0
 10
66.571025593338121
 20
136.43422809098359
 30
0.0
  0
VERTEX
  5
1F2B
  8
0
 10
66.316850264404636
 20
136.56426892054631
 30
0.0
  0
VERTEX
  5
1F2C
  8
0
 10
66.184057332480961
 20
136.62724768156301
 30
0.0
  0
VERTEX
  5
1F2D
  8
0
 10
66.047664977807855
 20
136.68880263595111
 30
0.0
  0
VERTEX
  5
1F2E
  8
0
 10
65.764750688937823
 20
136.80747139858909
 30
0.0
  0
VERTEX
  5
1F2F
  8
0
 10
65.469569577360673
 20
136.919955004629
 30
0.0
  0
VERTEX
  5
1F30
  8
0
 10
65.317882368847464
 20
136.97378994093941
 30
0.0
  0
SEQEND
  5
1F31
  8
0
  0
POLYLINE
  5
B47
  8
0
 66
     1
 10
0.0
 20
0.0
 30
0.0
  0
VERTEX
  5
1F32
  8
0
 10
52.140141923191457
 20
136.97378994093941
 30
0.0
  0
VERTEX
  5
1F33
  8
0
 10
51.988454714678262
 20
136.91995500462909
 30
0.0
  0
VERTEX
  5
1F34
  8
0
 10
51.69327360310114
 20
136.80747139858909
 30
0.0
  0
VERTEX
  5
1F35
  8
0
 10
51.410359314231073
 20
136.68880263595111
 30
0.0
  0
VERTEX
  5
1F36
  8
0
 10
51.273966959557967
 20
136.62724768156301
 30
0.0
  0
VERTEX
  5
1F37
  8
0
 10
51.141174027634293
 20
136.56426892054631
 30
0.0
  0
VERTEX
  5
1F38
  8
0
 10
50.886998698700801
 20
136.43422809098359
 30
0.0
  0
VERTEX
  5
1F39
  8
0
 10
50.648971607770036
 20
136.2990924309598
 30
0.0
  0
VERTEX
  5
1F3A
  8
0
 10
50.428071492765731
 20
136.1593227495633
 30
0.0
  0
VERTEX
  5
1F3B
  8
0
 10
50.225076366314482
 20
136.01539998389421
 30
0.0
  0
VERTEX
  5
1F3C
  8
0
 10
50.040530199083889
 20
135.86778185015839
 30
0.0
  0
VERTEX
  5
1F3D
  8
0
 10
49.955332852060963
 20
135.79276022984999
 30
0.0
  0
VERTEX
  5
1F3E
  8
0
 10
49.874918295972961
 20
135.71702992898781
 30
0.0
  0
VERTEX
  5
1F3F
  8
0
 10
49.728567469662359
 20
135.5637561499934
 30
0.0
  0
VERTEX
  5
1F40
  8
0
 10
49.601620491858313
 20
135.40860286549241
 30
0.0
  0
VERTEX
  5
1F41
  8
0
 10
49.494035384875431
 20
135.25223861401051
 30
0.0
  0
VERTEX
  5
1F42
  8
0
 10
49.405595142030251
 20
135.0953722640497
 30
0.0
  0
VERTEX
  5
1F43
  8
0
 10
49.335898492906892
 20
134.9387486794225
 30
0.0
  0
VERTEX
  5
1F44
  8
0
 10
49.307900748048638
 20
134.8607672114864
 30
0.0
  0
VERTEX
  5
1F45
  8
0
 10
49.284197789082391
 20
134.78258134035241
 30
0.0
  0
VERTEX
  5
1F46
  8
0
 10
49.249144942565437
 20
134.6232250568226
 30
0.0
  0
VERTEX
  5
1F47
  8
0
 10
49.231274922498791
 20
134.4603458328416
 30
0.0
  0
VERTEX
  5
1F48
  8
0
 10
49.229012146019457
 20
134.3777736526111
 30
0.0
  0
SEQEND
  5
1F49
  8
0
  0
POLYLINE
  5
B48
  8
0
 66
     1
 10
0.0
 20
0.0
 30
0.0
  0
VERTEX
  5
1F4A
  8
0
 10
49.229012146019457
 20
134.3777736526111
 30
0.0
  0
VERTEX
  5
1F4B
  8
0
 10
49.231433809076819
 20
134.29209040204651
 30
0.0
  0
VERTEX
  5
1F4C
  8
0
 10
49.250988019507588
 20
134.1189854487863
 30
0.0
  0
VERTEX
  5
1F4D
  8
0
 10
49.290461807031527
 20
133.94412467954001
 30
0.0
  0
VERTEX
  5
1F4E
  8
0
 10
49.317739376810721
 20
133.85625089285
 30
0.0
  0
VERTEX
  5
1F4F
  8
0
 10
49.350058438339062
 20
133.7681986534003
 30
0.0
  0
VERTEX
  5
1F50
  8
0
 10
49.429794868810149
 20
133.5919135018442
 30
0.0
  0
VERTEX
  5
1F51
  8
0
 10
49.529509869617733
 20
133.4159732786803
 30
0.0
  0
VERTEX
  5
1F52
  8
0
 10
49.648921193947132
 20
133.2410083532597
 30
0.0
  0
VERTEX
  5
1F53
  8
0
 10
49.787566766508561
 20
133.06769413546431
 30
0.0
  0
VERTEX
  5
1F54
  8
0
 10
49.944790227254671
 20
132.89673563012019
 30
0.0
  0
VERTEX
  5
1F55
  8
0
 10
50.030115968476359
 20
132.81235695620259
 30
0.0
  0
VERTEX
  5
1F56
  8
0
 10
50.119762511248339
 20
132.72882483074901
 30
0.0
  0
VERTEX
  5
1F57
  8
0
 10
50.311492012544939
 20
132.5646289495721
 30
0.0
  0
VERTEX
  5
1F58
  8
0
 10
50.518810216762418
 20
132.4048000003443
 30
0.0
  0
VERTEX
  5
1F59
  8
0
 10
50.740360734516862
 20
132.2499738948666
 30
0.0
  0
VERTEX
  5
1F5A
  8
0
 10
50.974738344647463
 20
132.1006751347802
 30
0.0
  0
VERTEX
  5
1F5B
  8
0
 10
51.226599094593809
 20
131.95393213228431
 30
0.0
  0
VERTEX
  5
1F5C
  8
0
 10
51.36015409029546
 20
131.8810842928645
 30
0.0
  0
VERTEX
  5
1F5D
  8
0
 10
51.498715142884379
 20
131.80876228860919
 30
0.0
  0
VERTEX
  5
1F5E
  8
0
 10
51.790545931450353
 20
131.66621023411179
 30
0.0
  0
VERTEX
  5
1F5F
  8
0
 10
52.101360078305241
 20
131.5272689543101
 30
0.0
  0
VERTEX
  5
1F60
  8
0
 10
52.263611873270818
 20
131.4594455616363
 30
0.0
  0
SEQEND
  5
1F61
  8
0
  0
POLYLINE
  5
B49
  8
0
 66
     1
 10
0.0
 20
0.0
 30
0.0
  0
VERTEX
  5
1F62
  8
0
 10
53.102843695949829
 20
143.44644262872751
 30
0.0
  0
VERTEX
  5
1F63
  8
0
 10
53.15908228323292
 20
143.386029107056
 30
0.0
  0
VERTEX
  5
1F64
  8
0
 10
53.26706915315718
 20
143.26384391670319
 30
0.0
  0
VERTEX
  5
1F65
  8
0
 10
53.368999684408152
 20
143.13987488263541
 30
0.0
  0
VERTEX
  5
1F66
  8
0
 10
53.417669694601237
 20
143.07723209988791
 30
0.0
  0
VERTEX
  5
1F67
  8
0
 10
53.464797658490809
 20
143.01415644976839
 30
0.0
  0
VERTEX
  5
1F68
  8
0
 10
53.554394816050021
 20
142.88672529819709
 30
0.0
  0
VERTEX
  5
1F69
  8
0
 10
53.637730908421617
 20
142.75762024828521
 30
0.0
  0
VERTEX
  5
1F6A
  8
0
 10
53.714753727244549
 20
142.62688213535381
 30
0.0
  0
VERTEX
  5
1F6B
  8
0
 10
53.78541889597804
 20
142.49455406557331
 30
0.0
  0
VERTEX
  5
1F6C
  8
0
 10
53.84968978800066
 20
142.36068157289941
 30
0.0
  0
VERTEX
  5
1F6D
  8
0
 10
53.879418071610502
 20
142.2931810345834
 30
0.0
  0
VERTEX
  5
1F6E
  8
0
 10
53.907537596743381
 20
142.2253125111024
 30
0.0
  0
VERTEX
  5
1F6F
  8
0
 10
53.958941368387343
 20
142.0884969447284
 30
0.0
  0
VERTEX
  5
1F70
  8
0
 10
54.003888313587758
 20
141.95028599703031
 30
0.0
  0
VERTEX
  5
1F71
  8
0
 10
54.042377401055688
 20
141.81071630664269
 30
0.0
  0
VERTEX
  5
1F72
  8
0
 10
54.074409785307289
 20
141.66983732467611
 30
0.0
  0
VERTEX
  5
1F73
  8
0
 10
54.099992129612701
 20
141.52770692965171
 30
0.0
  0
VERTEX
  5
1F74
  8
0
 10
54.110368714764277
 20
141.45619115083031
 30
0.0
  0
VERTEX
  5
1F75
  8
0
 10
54.119138761801082
 20
141.3843852238042
 30
0.0
  0
VERTEX
  5
1F76
  8
0
 10
54.13187166943414
 20
141.23993440306731
 30
0.0
  0
VERTEX
  5
1F77
  8
0
 10
54.138220465532399
 20
141.09441861996359
 30
0.0
  0
VERTEX
  5
1F78
  8
0
 10
54.139012146019489
 20
141.0212819303259
 30
0.0
  0
SEQEND
  5
1F79
  8
0
  0
POLYLINE
  5
B4A
  8
0
 66
     1
 10
0.0
 20
0.0
 30
0.0
  0
VERTEX
  5
1F7A
  8
0
 10
54.139012146019489
 20
141.0212819303259
 30
0.0
  0
VERTEX
  5
1F7B
  8
0
 10
54.137326152678497
 20
140.91396350776191
 30
0.0
  0
VERTEX
  5
1F7C
  8
0
 10
54.123896960743238
 20
140.69788890982571
 30
0.0
  0
VERTEX
  5
1F7D
  8
0
 10
54.097206585239498
 20
140.4800838065951
 30
0.0
  0
VERTEX
  5
1F7E
  8
0
 10
54.078952117416279
 20
140.37060431138039
 30
0.0
  0
VERTEX
  5
1F7F
  8
0
 10
54.057462985028089
 20
140.260779585162
 30
0.0
  0
VERTEX
  5
1F80
  8
0
 10
54.004907233430821
 20
140.04021310747351
 30
0.0
  0
VERTEX
  5
1F81
  8
0
 10
53.939813046357642
 20
139.818628187066
 30
0.0
  0
VERTEX
  5
1F82
  8
0
 10
53.862487774853527
 20
139.5962792565528
 30
0.0
  0
VERTEX
  5
1F83
  8
0
 10
53.773272360309782
 20
139.3734296120378
 30
0.0
  0
VERTEX
  5
1F84
  8
0
 10
53.672541124598503
 20
139.15035031908511
 30
0.0
  0
VERTEX
  5
1F85
  8
0
 10
53.617983068377342
 20
139.0388111120109
 30
0.0
  0
VERTEX
  5
1F86
  8
0
 10
53.560701309278478
 20
138.9273190935138
 30
0.0
  0
VERTEX
  5
1F87
  8
0
 10
53.438192377545718
 20
138.70461915500161
 30
0.0
  0
VERTEX
  5
1F88
  8
0
 10
53.30548508754201
 20
138.48253805023859
 30
0.0
  0
VERTEX
  5
1F89
  8
0
 10
53.161559015628477
 20
138.25908524747209
 30
0.0
  0
VERTEX
  5
1F8A
  8
0
 10
53.004941266590087
 20
138.03217747094601
 30
0.0
  0
VERTEX
  5
1F8B
  8
0
 10
52.835495489246782
 20
137.80201271873949
 30
0.0
  0
VERTEX
  5
1F8C
  8
0
 10
52.745927702077473
 20
137.6857726328623
 30
0.0
  0
VERTEX
  5
1F8D
  8
0
 10
52.65311531996808
 20
137.56879541783749
 30
0.0
  0
VERTEX
  5
1F8E
  8
0
 10
52.457723510604872
 20
137.3327355387211
 30
0.0
  0
VERTEX
  5
1F8F
  8
0
 10
52.249272008311941
 20
137.09404899188931
 30
0.0
  0
VERTEX
  5
1F90
  8
0
 10
52.140141923191521
 20
136.97378994093941
 30
0.0
  0
SEQEND
  5
1F91
  8
0
  0
POLYLINE
  5
B4B
  8
0
 66
     1
 10
0.0
 20
0.0
 30
0.0
  0
VERTEX
  5
1F92
  8
0
 10
52.898207182287649
 20
143.95580829442119
 30
0.0
  0
VERTEX
  5
1F93
  8
0
 10
52.896604488603153
 20
143.94437188541059
 30
0.0
  0
VERTEX
  5
1F94
  8
0
 10
52.894283555187791
 20
143.92152892886321
 30
0.0
  0
VERTEX
  5
1F95
  8
0
 10
52.893130183589172
 20
143.89873233560041
 30
0.0
  0
VERTEX
  5
1F96
  8
0
 10
52.892986729431811
 20
143.887353894407
 30
0.0
  0
SEQEND
  5
1F97
  8
0
  0
POLYLINE
  5
B4C
  8
0
 66
     1
 10
0.0
 20
0.0
 30
0.0
  0
VERTEX
  5
1F98
  8
0
 10
52.892986729431811
 20
143.887353894407
 30
0.0
  0
VERTEX
  5
1F99
  8
0
 10
52.893139981395521
 20
143.8755811675056
 30
0.0
  0
VERTEX
  5
1F9A
  8
0
 10
52.89437202539979
 20
143.85192275685259
 30
0.0
  0
VERTEX
  5
1F9B
  8
0
 10
52.896850993313429
 20
143.8281198375617
 30
0.0
  0
VERTEX
  5
1F9C
  8
0
 10
52.898562662113392
 20
143.8161665044278
 30
0.0
  0
VERTEX
  5
1F9D
  8
0
 10
52.90059144027812
 20
143.80417983942269
 30
0.0
  0
VERTEX
  5
1F9E
  8
0
 10
52.905606898528688
 20
143.78011030487329
 30
0.0
  0
VERTEX
  5
1F9F
  8
0
 10
52.91190987362782
 20
143.75591887548421
 30
0.0
  0
VERTEX
  5
1FA0
  8
0
 10
52.919511844330671
 20
143.73161327838841
 30
0.0
  0
VERTEX
  5
1FA1
  8
0
 10
52.928423266049528
 20
143.70720131262411
 30
0.0
  0
VERTEX
  5
1FA2
  8
0
 10
52.938653577906642
 20
143.6826908353616
 30
0.0
  0
VERTEX
  5
1FA3
  8
0
 10
52.944265992016739
 20
143.6704011227595
 30
0.0
  0
VERTEX
  5
1FA4
  8
0
 10
52.950211213379603
 20
143.6580897479918
 30
0.0
  0
VERTEX
  5
1FA5
  8
0
 10
52.963103614559259
 20
143.63340598205309
 30
0.0
  0
VERTEX
  5
1FA6
  8
0
 10
52.97733725005461
 20
143.60864748498369
 30
0.0
  0
VERTEX
  5
1FA7
  8
0
 10
52.99291763659194
 20
143.5838222056845
 30
0.0
  0
VERTEX
  5
1FA8
  8
0
 10
53.009849364368087
 20
143.5589380798877
 30
0.0
  0
VERTEX
  5
1FA9
  8
0
 10
53.028136126227743
 20
143.53400301532599
 30
0.0
  0
VERTEX
  5
1FAA
  8
0
 10
53.0377885616426
 20
143.52151884082511
 30
0.0
  0
VERTEX
  5
1FAB
  8
0
 10
53.04778075563614
 20
143.50902487069061
 30
0.0
  0
VERTEX
  5
1FAC
  8
0
 10
53.068785265295411
 20
143.48401144048529
 30
0.0
  0
VERTEX
  5
1FAD
  8
0
 10
53.091150638202933
 20
143.45897071324299
 30
0.0
  0
VERTEX
  5
1FAE
  8
0
 10
53.102843695949829
 20
143.44644262872751
 30
0.0
  0
SEQEND
  5
1FAF
  8
0
  0
POLYLINE
  5
B4D
  8
0
 66
     1
 10
0.0
 20
0.0
 30
0.0
  0
VERTEX
  5
1FB0
  8
0
 10
53.979012146019471
 20
148.83254862266111
 30
0.0
  0
VERTEX
  5
1FB1
  8
0
 10
53.797322355933687
 20
148.31235472150041
 30
0.0
  0
VERTEX
  5
1FB2
  8
0
 10
53.435512447205461
 20
146.9196096796685
 30
0.0
  0
VERTEX
  5
1FB3
  8
0
 10
53.076456249445407
 20
145.05970791588771
 30
0.0
  0
VERTEX
  5
1FB4
  8
0
 10
52.898207182287642
 20
143.95580829442119
 30
0.0
  0
SEQEND
  5
1FB5
  8
0
  0
POLYLINE
  5
B4E
  8
0
 66
     1
 10
0.0
 20
0.0
 30
0.0
  0
VERTEX
  5
1FB6
  8
0
 10
54.432240250489087
 20
149.00854482314389
 30
0.0
  0
VERTEX
  5
1FB7
  8
0
 10
54.407379738751231
 20
149.0041323734429
 30
0.0
  0
VERTEX
  5
1FB8
  8
0
 10
54.359660069216737
 20
148.9951900600195
 30
0.0
  0
VERTEX
  5
1FB9
  8
0
 10
54.314648387972348
 20
148.98609699951271
 30
0.0
  0
VERTEX
  5
1FBA
  8
0
 10
54.293167809770353
 20
148.98149539277699
 30
0.0
  0
VERTEX
  5
1FBB
  8
0
 10
54.272377476243399
 20
148.976858293291
 30
0.0
  0
VERTEX
  5
1FBC
  8
0
 10
54.232887315333237
 20
148.96748184710319
 30
0.0
  0
VERTEX
  5
1FBD
  8
0
 10
54.196213604812613
 20
148.9579764717364
 30
0.0
  0
VERTEX
  5
1FBE
  8
0
 10
54.162385578055698
 20
148.94835149907331
 30
0.0
  0
VERTEX
  5
1FBF
  8
0
 10
54.131425625750254
 20
148.93861672553561
 30
0.0
  0
VERTEX
  5
1FC0
  8
0
 10
54.10334901522738
 20
148.92878235002561
 30
0.0
  0
VERTEX
  5
1FC1
  8
0
 10
54.090394738648712
 20
148.92383109214171
 30
0.0
  0
VERTEX
  5
1FC2
  8
0
 10
54.078163704355582
 20
148.91885890595131
 30
0.0
  0
VERTEX
  5
1FC3
  8
0
 10
54.055870252809051
 20
148.9088571882582
 30
0.0
  0
VERTEX
  5
1FC4
  8
0
 10
54.036462010046449
 20
148.89878827669651
 30
0.0
  0
VERTEX
  5
1FC5
  8
0
 10
54.019925539754382
 20
148.88866376692749
 30
0.0
  0
VERTEX
  5
1FC6
  8
0
 10
54.006240377607973
 20
148.8784957992394
 30
0.0
  0
VERTEX
  5
1FC7
  8
0
 10
53.995378641257822
 20
148.86829698625891
 30
0.0
  0
VERTEX
  5
1FC8
  8
0
 10
53.990995744735699
 20
148.86319006440269
 30
0.0
  0
VERTEX
  5
1FC9
  8
0
 10
53.987304749193463
 20
148.85808033547809
 30
0.0
  0
VERTEX
  5
1FCA
  8
0
 10
53.981975247996253
 20
148.84785916765969
 30
0.0
  0
VERTEX
  5
1FCB
  8
0
 10
53.97933874577123
 20
148.83764703082241
 30
0.0
  0
VERTEX
  5
1FCC
  8
0
 10
53.979012146019471
 20
148.83254862266111
 30
0.0
  0
SEQEND
  5
1FCD
  8
0
  0
LINE
  5
B4F
  8
0
 10
63.025784041549848
 20
149.00854482314389
 30
0.0
 11
54.432240250489087
 21
149.00854482314389
 31
0.0
  0
POLYLINE
  5
B50
  8
0
 66
     1
 10
0.0
 20
0.0
 30
0.0
  0
VERTEX
  5
1FCE
  8
0
 10
63.479012146019471
 20
148.83254862266111
 30
0.0
  0
VERTEX
  5
1FCF
  8
0
 10
63.4786855148161
 20
148.8376472759463
 30
0.0
  0
VERTEX
  5
1FD0
  8
0
 10
63.476048795210851
 20
148.84785980753989
 30
0.0
  0
VERTEX
  5
1FD1
  8
0
 10
63.470718940621893
 20
148.85808125503209
 30
0.0
  0
VERTEX
  5
1FD2
  8
0
 10
63.467027740835171
 20
148.86319108516901
 30
0.0
  0
VERTEX
  5
1FD3
  8
0
 10
63.462644632723162
 20
148.86829808486141
 30
0.0
  0
VERTEX
  5
1FD4
  8
0
 10
63.451782479763509
 20
148.8784969903418
 30
0.0
  0
VERTEX
  5
1FD5
  8
0
 10
63.438096950124681
 20
148.8886649775518
 30
0.0
  0
VERTEX
  5
1FD6
  8
0
 10
63.4215601998946
 20
148.89878944680191
 30
0.0
  0
VERTEX
  5
1FD7
  8
0
 10
63.402151792261179
 20
148.90885826998451
 30
0.0
  0
VERTEX
  5
1FD8
  8
0
 10
63.379858308111537
 20
148.91885986279689
 30
0.0
  0
VERTEX
  5
1FD9
  8
0
 10
63.367627308954013
 20
148.92383197652251
 30
0.0
  0
VERTEX
  5
1FDA
  8
0
 10
63.354673100668784
 20
148.92878315739841
 30
0.0
  0
VERTEX
  5
1FDB
  8
0
 10
63.326596717909233
 20
148.93861737144431
 30
0.0
  0
VERTEX
  5
1FDC
  8
0
 10
63.295637093517968
 20
148.94835198333109
 30
0.0
  0
VERTEX
  5
1FDD
  8
0
 10
63.261809459069823
 20
148.95797680500559
 30
0.0
  0
VERTEX
  5
1FDE
  8
0
 10
63.225136158870342
 20
148.96748204985661
 30
0.0
  0
VERTEX
  5
1FDF
  8
0
 10
63.185646370422681
 20
148.97685839469179
 30
0.0
  0
VERTEX
  5
1FE0
  8
0
 10
63.164856189202439
 20
148.98149545682909
 30
0.0
  0
VERTEX
  5
1FE1
  8
0
 10
63.143375729284422
 20
148.98609703622091
 30
0.0
  0
VERTEX
  5
1FE2
  8
0
 10
63.098364243550222
 20
148.9951900559883
 30
0.0
  0
VERTEX
  5
1FE3
  8
0
 10
63.050644646567108
 20
149.00413235658769
 30
0.0
  0
VERTEX
  5
1FE4
  8
0
 10
63.025784041549848
 20
149.00854482314389
 30
0.0
  0
SEQEND
  5
1FE5
  8
0
  0
LINE
  5
B52
  8
0
 10
54.729012146019471
 20
82.498639790970898
 30
0.0
 11
62.729012146019471
 21
82.498639790970898
 31
0.0
  0
LINE
  5
B53
  8
0
 10
55.496012146019453
 20
81.731639790970902
 30
0.0
 11
61.962012146019482
 21
81.731639790970902
 31
0.0
  0
POLYLINE
  5
B54
  8
0
 66
     1
 10
0.0
 20
0.0
 30
0.0
  0
VERTEX
  5
1FE6
  8
0
 10
63.598426362743858
 20
133.92123662429799
 30
0.0
  0
VERTEX
  5
1FE7
  8
0
 10
63.584334750728161
 20
133.89737403881901
 30
0.0
  0
VERTEX
  5
1FE8
  8
0
 10
63.553947684682853
 20
133.84969471486801
 30
0.0
  0
VERTEX
  5
1FE9
  8
0
 10
63.520626614483447
 20
133.80211837562311
 30
0.0
  0
VERTEX
  5
1FEA
  8
0
 10
63.502868994530608
 20
133.77838454663399
 30
0.0
  0
VERTEX
  5
1FEB
  8
0
 10
63.4843824614018
 20
133.75469531942821
 30
0.0
  0
VERTEX
  5
1FEC
  8
0
 10
63.445232397602901
 20
133.70747568415271
 30
0.0
  0
VERTEX
  5
1FED
  8
0
 10
63.403199645955681
 20
133.66050918143659
 30
0.0
  0
VERTEX
  5
1FEE
  8
0
 10
63.358313211368639
 20
133.61384483414301
 30
0.0
  0
VERTEX
  5
1FEF
  8
0
 10
63.310604543947271
 20
133.56752790125151
 30
0.0
  0
VERTEX
  5
1FF0
  8
0
 10
63.26009965679593
 20
133.5215939096006
 30
0.0
  0
VERTEX
  5
1FF1
  8
0
 10
63.233811241889917
 20
133.4987847443418
 30
0.0
  0
VERTEX
  5
1FF2
  8
0
 10
63.206839944850998
 20
133.4760886310861
 30
0.0
  0
VERTEX
  5
1FF3
  8
0
 10
63.150874322290498
 20
133.43105893239101
 30
0.0
  0
VERTEX
  5
1FF4
  8
0
 10
63.09225781003888
 20
133.3865512087711
 30
0.0
  0
VERTEX
  5
1FF5
  8
0
 10
63.031051327657593
 20
133.34261110140099
 30
0.0
  0
VERTEX
  5
1FF6
  8
0
 10
62.96732141577553
 20
133.2992832208885
 30
0.0
  0
VERTEX
  5
1FF7
  8
0
 10
62.90113988541524
 20
133.2566108764546
 30
0.0
  0
VERTEX
  5
1FF8
  8
0
 10
62.867153541600629
 20
133.23553364312349
 30
0.0
  0
VERTEX
  5
1FF9
  8
0
 10
62.832583389706279
 20
133.2146358106701
 30
0.0
  0
VERTEX
  5
1FFA
  8
0
 10
62.761733207613538
 20
133.17339810747211
 30
0.0
  0
VERTEX
  5
1FFB
  8
0
 10
62.688676455758632
 20
133.13293687825629
 30
0.0
  0
VERTEX
  5
1FFC
  8
0
 10
62.651349643588212
 20
133.11300946965099
 30
0.0
  0
VERTEX
  5
1FFD
  8
0
 10
62.613506832187959
 20
133.09329049328389
 30
0.0
  0
VERTEX
  5
1FFE
  8
0
 10
62.536324439727871
 20
133.05449626043151
 30
0.0
  0
VERTEX
  5
1FFF
  8
0
 10
62.457235494210593
 20
133.0165900941214
 30
0.0
  0
VERTEX
  5
2000
  8
0
 10
62.41701083814992
 20
132.99798079977819
 30
0.0
  0
VERTEX
  5
2001
  8
0
 10
62.376351952292389
 20
132.97960619798999
 30
0.0
  0
VERTEX
  5
2002
  8
0
 10
62.293791054566562
 20
132.9435767613499
 30
0.0
  0
VERTEX
  5
2003
  8
0
 10
62.20967477806299
 20
132.9085316695917
 30
0.0
  0
VERTEX
  5
2004
  8
0
 10
62.123385457520648
 20
132.8742091408495
 30
0.0
  0
VERTEX
  5
2005
  8
0
 10
62.034250663112253
 20
132.8403755990422
 30
0.0
  0
VERTEX
  5
2006
  8
0
 10
61.942332505700648
 20
132.8071051079643
 30
0.0
  0
VERTEX
  5
2007
  8
0
 10
61.895351346250969
 20
132.7907035870472
 30
0.0
  0
VERTEX
  5
2008
  8
0
 10
61.847701325172139
 20
132.77446962862649
 30
0.0
  0
VERTEX
  5
2009
  8
0
 10
61.750434909360649
 20
132.74253863866579
 30
0.0
  0
VERTEX
  5
200A
  8
0
 10
61.650617595467679
 20
132.7113787847714
 30
0.0
  0
VERTEX
  5
200B
  8
0
 10
61.548339235682832
 20
132.68105356722211
 30
0.0
  0
VERTEX
  5
200C
  8
0
 10
61.443694020977937
 20
132.65162306129881
 30
0.0
  0
VERTEX
  5
200D
  8
0
 10
61.3367801265168
 20
132.62314393219981
 30
0.0
  0
VERTEX
  5
200E
  8
0
 10
61.2825048936324
 20
132.60927811200889
 30
0.0
  0
VERTEX
  5
200F
  8
0
 10
61.22770241956519
 20
132.59567020231319
 30
0.0
  0
VERTEX
  5
2010
  8
0
 10
61.116573248873962
 20
132.5692533212048
 30
0.0
  0
VERTEX
  5
2011
  8
0
 10
61.003511551762138
 20
132.54394179339079
 30
0.0
  0
VERTEX
  5
2012
  8
0
 10
60.8886418214271
 20
132.51978084086019
 30
0.0
  0
VERTEX
  5
2013
  8
0
 10
60.772092967621589
 20
132.49681211408529
 30
0.0
  0
VERTEX
  5
2014
  8
0
 10
60.653997063212167
 20
132.4750734545492
 30
0.0
  0
VERTEX
  5
2015
  8
0
 10
60.594409029812752
 20
132.46467583998751
 30
0.0
  0
VERTEX
  5
2016
  8
0
 10
60.534472224542561
 20
132.45459611437789
 30
0.0
  0
VERTEX
  5
2017
  8
0
 10
60.413615809234919
 20
132.43540480403311
 30
0.0
  0
VERTEX
  5
2018
  8
0
 10
60.291567889155957
 20
132.4175280324429
 30
0.0
  0
VERTEX
  5
2019
  8
0
 10
60.168476203076011
 20
132.4009911372556
 30
0.0
  0
VERTEX
  5
201A
  8
0
 10
60.04449317094501
 20
132.3858156404236
 30
0.0
  0
VERTEX
  5
201B
  8
0
 10
59.919774601821658
 20
132.37201898501621
 30
0.0
  0
VERTEX
  5
201C
  8
0
 10
59.857188771746372
 20
132.36564200914819
 30
0.0
  0
VERTEX
  5
201D
  8
0
 10
59.794478320866901
 20
132.35961434062611
 30
0.0
  0
VERTEX
  5
201E
  8
0
 10
59.668762712484721
 20
132.34861048016469
 30
0.0
  0
VERTEX
  5
201F
  8
0
 10
59.542785724596513
 20
132.339011770128
 30
0.0
  0
VERTEX
  5
2020
  8
0
 10
59.416707953255461
 20
132.33081845080429
 30
0.0
  0
VERTEX
  5
2021
  8
0
 10
59.2906949566704
 20
132.32402665563731
 30
0.0
  0
VERTEX
  5
2022
  8
0
 10
59.164916037721078
 20
132.31862813381341
 30
0.0
  0
VERTEX
  5
2023
  8
0
 10
59.10216791917928
 20
132.31644751864411
 30
0.0
  0
VERTEX
  5
2024
  8
0
 10
59.039542741570003
 20
132.31461003575501
 30
0.0
  0
VERTEX
  5
2025
  8
0
 10
58.914747330837358
 20
132.3119547849092
 30
0.0
  0
VERTEX
  5
2026
  8
0
 10
58.790701238349847
 20
132.3106400352944
 30
0.0
  0
VERTEX
  5
2027
  8
0
 10
58.729012145891268
 20
132.3104770700663
 30
0.0
  0
VERTEX
  5
2028
  8
0
 10
58.667323053431673
 20
132.31064003529579
 30
0.0
  0
VERTEX
  5
2029
  8
0
 10
58.543276960942443
 20
132.3119547849133
 30
0.0
  0
VERTEX
  5
202A
  8
0
 10
58.418481550208398
 20
132.3146100357618
 30
0.0
  0
VERTEX
  5
202B
  8
0
 10
58.355856372598602
 20
132.3164475186525
 30
0.0
  0
VERTEX
  5
202C
  8
0
 10
58.293108254056321
 20
132.31862813382321
 30
0.0
  0
VERTEX
  5
202D
  8
0
 10
58.167329335106317
 20
132.3240266556501
 30
0.0
  0
VERTEX
  5
202E
  8
0
 10
58.041316338520957
 20
132.33081845081981
 30
0.0
  0
VERTEX
  5
202F
  8
0
 10
57.915238567179941
 20
132.33901177014661
 30
0.0
  0
VERTEX
  5
2030
  8
0
 10
57.789261579292123
 20
132.34861048018621
 30
0.0
  0
VERTEX
  5
2031
  8
0
 10
57.663545970910633
 20
132.3596143406505
 30
0.0
  0
VERTEX
  5
2032
  8
0
 10
57.600835520031652
 20
132.36564200917411
 30
0.0
  0
VERTEX
  5
2033
  8
0
 10
57.538249689956942
 20
132.3720189850435
 30
0.0
  0
VERTEX
  5
2034
  8
0
 10
57.413531120834939
 20
132.3858156404537
 30
0.0
  0
VERTEX
  5
2035
  8
0
 10
57.289548088705651
 20
132.40099113728871
 30
0.0
  0
VERTEX
  5
2036
  8
0
 10
57.166456402627723
 20
132.4175280324788
 30
0.0
  0
VERTEX
  5
2037
  8
0
 10
57.044408482551063
 20
132.43540480407171
 30
0.0
  0
VERTEX
  5
2038
  8
0
 10
56.923552067246057
 20
132.45459611441919
 30
0.0
  0
VERTEX
  5
2039
  8
0
 10
56.86361526197728
 20
132.46467584003011
 30
0.0
  0
VERTEX
  5
203A
  8
0
 10
56.804027228579329
 20
132.47507345459331
 30
0.0
  0
VERTEX
  5
203B
  8
0
 10
56.685931324173012
 20
132.4968121141319
 30
0.0
  0
VERTEX
  5
203C
  8
0
 10
56.569382470370847
 20
132.51978084090919
 30
0.0
  0
VERTEX
  5
203D
  8
0
 10
56.454512740039462
 20
132.54394179344229
 30
0.0
  0
VERTEX
  5
203E
  8
0
 10
56.34145104293151
 20
132.5692533212586
 30
0.0
  0
VERTEX
  5
203F
  8
0
 10
56.230321872244453
 20
132.59567020236929
 30
0.0
  0
VERTEX
  5
2040
  8
0
 10
56.175519398179368
 20
132.60927811206619
 30
0.0
  0
VERTEX
  5
2041
  8
0
 10
56.12124416529722
 20
132.62314393225819
 30
0.0
  0
VERTEX
  5
2042
  8
0
 10
56.014330270840681
 20
132.6516230613592
 30
0.0
  0
VERTEX
  5
2043
  8
0
 10
55.909685056140638
 20
132.68105356728429
 30
0.0
  0
VERTEX
  5
2044
  8
0
 10
55.807406696360822
 20
132.7113787848354
 30
0.0
  0
VERTEX
  5
2045
  8
0
 10
55.70758938247306
 20
132.7425386387315
 30
0.0
  0
VERTEX
  5
2046
  8
0
 10
55.610322966666992
 20
132.77446962869371
 30
0.0
  0
VERTEX
  5
2047
  8
0
 10
55.562672945590897
 20
132.7907035871151
 30
0.0
  0
VERTEX
  5
2048
  8
0
 10
55.515691786144032
 20
132.80710510803291
 30
0.0
  0
VERTEX
  5
2049
  8
0
 10
55.423773628738147
 20
132.84037559911201
 30
0.0
  0
VERTEX
  5
204A
  8
0
 10
55.334638834335621
 20
132.8742091409205
 30
0.0
  0
VERTEX
  5
204B
  8
0
 10
55.248349513799269
 20
132.9085316696636
 30
0.0
  0
VERTEX
  5
204C
  8
0
 10
55.164233237298781
 20
132.9435767614238
 30
0.0
  0
VERTEX
  5
204D
  8
0
 10
55.08167233957635
 20
132.97960619806611
 30
0.0
  0
VERTEX
  5
204E
  8
0
 10
55.041013453720602
 20
132.9979807998553
 30
0.0
  0
VERTEX
  5
204F
  8
0
 10
55.000788797661748
 20
133.0165900941993
 30
0.0
  0
VERTEX
  5
2050
  8
0
 10
54.921699852148322
 20
133.05449626051151
 30
0.0
  0
VERTEX
  5
2051
  8
0
 10
54.844517459692327
 20
133.0932904933656
 30
0.0
  0
VERTEX
  5
2052
  8
0
 10
54.806674648294191
 20
133.1130094697335
 30
0.0
  0
VERTEX
  5
2053
  8
0
 10
54.769347836125952
 20
133.13293687833971
 30
0.0
  0
VERTEX
  5
2054
  8
0
 10
54.696291084275558
 20
133.17339810755709
 30
0.0
  0
VERTEX
  5
2055
  8
0
 10
54.625440902187499
 20
133.21463581075679
 30
0.0
  0
VERTEX
  5
2056
  8
0
 10
54.590870750295537
 20
133.23553364321091
 30
0.0
  0
VERTEX
  5
2057
  8
0
 10
54.556884406483412
 20
133.25661087654271
 30
0.0
  0
VERTEX
  5
2058
  8
0
 10
54.49070287612814
 20
133.29928322097811
 30
0.0
  0
VERTEX
  5
2059
  8
0
 10
54.42697296425122
 20
133.34261110149191
 30
0.0
  0
VERTEX
  5
205A
  8
0
 10
54.365766481875291
 20
133.38655120886321
 30
0.0
  0
VERTEX
  5
205B
  8
0
 10
54.307149969629123
 20
133.43105893248421
 30
0.0
  0
VERTEX
  5
205C
  8
0
 10
54.251184347074201
 20
133.47608863118029
 30
0.0
  0
VERTEX
  5
205D
  8
0
 10
54.224213050038102
 20
133.49878474443659
 30
0.0
  0
VERTEX
  5
205E
  8
0
 10
54.197924635134967
 20
133.52159390969581
 30
0.0
  0
VERTEX
  5
205F
  8
0
 10
54.147419747989389
 20
133.56752790134749
 30
0.0
  0
VERTEX
  5
2060
  8
0
 10
54.099711080573883
 20
133.61384483423981
 30
0.0
  0
VERTEX
  5
2061
  8
0
 10
54.054824645992682
 20
133.66050918153411
 30
0.0
  0
VERTEX
  5
2062
  8
0
 10
54.012791894351359
 20
133.70747568425091
 30
0.0
  0
VERTEX
  5
2063
  8
0
 10
53.973641830558478
 20
133.75469531952689
 30
0.0
  0
VERTEX
  5
2064
  8
0
 10
53.955155297432697
 20
133.77838454673301
 30
0.0
  0
VERTEX
  5
2065
  8
0
 10
53.937397677482892
 20
133.80211837572219
 30
0.0
  0
VERTEX
  5
2066
  8
0
 10
53.904076607289639
 20
133.8496947149674
 30
0.0
  0
VERTEX
  5
2067
  8
0
 10
53.873689541250542
 20
133.89737403891851
 30
0.0
  0
VERTEX
  5
2068
  8
0
 10
53.859597929237928
 20
133.92123662439741
 30
0.0
  0
SEQEND
  5
2069
  8
0
  0
LINE
  5
B56
  8
0
 10
51.979012146019471
 20
106.7316397909709
 30
0.0
 11
65.479012146019471
 21
106.7316397909709
 31
0.0
  0
LINE
  5
B57
  8
3
 10
55.496012146019453
 20
81.731639790970902
 30
0.0
 11
55.496012146019453
 21
106.7316397909709
 31
0.0
  0
LINE
  5
B58
  8
0
 10
54.729012146019471
 20
106.7316397909709
 30
0.0
 11
55.496012146019453
 21
106.7316397909709
 31
0.0
  0
LINE
  5
B59
  8
3
 10
61.962012146019482
 20
81.731639790970902
 30
0.0
 11
61.962012146019482
 21
106.7316397909709
 31
0.0
  0
LINE
  5
B5A
  8
0
 10
62.729012146019471
 20
106.7316397909709
 30
0.0
 11
61.962012146019482
 21
106.7316397909709
 31
0.0
  0
LINE
  5
B6A
  8
1
 10
125.6166307063249
 20
185.1215055802233
 30
0.0
 11
125.6166307063249
 21
208.1211039843748
 31
0.0
  0
LINE
  5
B6B
  8
1
 10
114.35663070632491
 20
196.62130478229909
 30
0.0
 11
192.50972826566081
 21
196.62130478229909
 31
0.0
  0
LINE
  5
B6D
  8
0
 10
190.50972826566081
 20
195.61923439829951
 30
0.0
 11
190.50972826566081
 21
197.6233751662987
 31
0.0
  0
LINE
  5
B6E
  8
0
 10
116.35663070632491
 20
194.49941882871909
 30
0.0
 11
116.35663070632491
 21
198.74319073587901
 31
0.0
  0
POLYLINE
  5
B6F
  8
0
 66
     1
 10
0.0
 20
0.0
 30
0.0
  0
VERTEX
  5
206A
  8
0
 10
116.35663070632491
 20
194.49941882871909
 30
0.0
  0
VERTEX
  5
206B
  8
0
 10
116.35673067682831
 20
194.49898260041209
 30
0.0
  0
VERTEX
  5
206C
  8
0
 10
116.3575278873524
 20
194.49550728778161
 30
0.0
  0
VERTEX
  5
206D
  8
0
 10
116.35911328731081
 20
194.48861370372029
 30
0.0
  0
VERTEX
  5
206E
  8
0
 10
116.3601973221792
 20
194.48391361433929
 30
0.0
  0
VERTEX
  5
206F
  8
0
 10
116.3614727170237
 20
194.4783977397345
 30
0.0
  0
VERTEX
  5
2070
  8
0
 10
116.3645874411105
 20
194.46498954129191
 30
0.0
  0
VERTEX
  5
2071
  8
0
 10
116.3684352116163
 20
194.4485461459908
 30
0.0
  0
VERTEX
  5
2072
  8
0
 10
116.3729911322535
 20
194.42924469538079
 30
0.0
  0
VERTEX
  5
2073
  8
0
 10
116.3782274480848
 20
194.40728011257681
 30
0.0
  0
VERTEX
  5
2074
  8
0
 10
116.3841138227253
 20
194.38286068113209
 30
0.0
  0
VERTEX
  5
2075
  8
0
 10
116.3872906984563
 20
194.36979794927461
 30
0.0
  0
VERTEX
  5
2076
  8
0
 10
116.3906177456506
 20
194.35620327254929
 30
0.0
  0
VERTEX
  5
2077
  8
0
 10
116.397704974215
 20
194.32752878062811
 30
0.0
  0
VERTEX
  5
2078
  8
0
 10
116.4053423419888
 20
194.2970486283765
 30
0.0
  0
VERTEX
  5
2079
  8
0
 10
116.41349447684421
 20
194.2649763795462
 30
0.0
  0
VERTEX
  5
207A
  8
0
 10
116.4221236267899
 20
194.2315266410524
 30
0.0
  0
VERTEX
  5
207B
  8
0
 10
116.4311902973763
 20
194.19691114807739
 30
0.0
  0
VERTEX
  5
207C
  8
0
 10
116.43587484186369
 20
194.17923153254549
 30
0.0
  0
VERTEX
  5
207D
  8
0
 10
116.44065307784631
 20
194.16133840820791
 30
0.0
  0
VERTEX
  5
207E
  8
0
 10
116.4504684617073
 20
194.12501359228401
 30
0.0
  0
VERTEX
  5
207F
  8
0
 10
116.4605906808292
 20
194.08813857150261
 30
0.0
  0
VERTEX
  5
2080
  8
0
 10
116.46575189786
 20
194.06955694350529
 30
0.0
  0
VERTEX
  5
2081
  8
0
 10
116.4709715670468
 20
194.05091202862531
 30
0.0
  0
VERTEX
  5
2082
  8
0
 10
116.4815604514784
 20
194.01352959279001
 30
0.0
  0
VERTEX
  5
2083
  8
0
 10
116.4923048515484
 20
193.97618140221689
 30
0.0
  0
VERTEX
  5
2084
  8
0
 10
116.4977655812048
 20
193.95741686613809
 30
0.0
  0
VERTEX
  5
2085
  8
0
 10
116.5033241571691
 20
193.938462308147
 30
0.0
  0
VERTEX
  5
2086
  8
0
 10
116.5147340204082
 20
193.90000422578231
 30
0.0
  0
VERTEX
  5
2087
  8
0
 10
116.52653281902219
 20
193.8608482259927
 30
0.0
  0
VERTEX
  5
2088
  8
0
 10
116.57086749858721
 20
193.7188630534198
 30
0.0
  0
VERTEX
  5
2089
  8
0
 10
116.6576585952712
 20
193.46111195378981
 30
0.0
  0
VERTEX
  5
208A
  8
0
 10
116.7574890425997
 20
193.19120143370341
 30
0.0
  0
VERTEX
  5
208B
  8
0
 10
116.86928508916
 20
192.91537107351991
 30
0.0
  0
VERTEX
  5
208C
  8
0
 10
116.99143159700159
 20
192.63935295881751
 30
0.0
  0
VERTEX
  5
208D
  8
0
 10
117.0557167844555
 20
192.5029613262063
 30
0.0
  0
VERTEX
  5
208E
  8
0
 10
117.1217060917552
 20
192.36851090147459
 30
0.0
  0
VERTEX
  5
208F
  8
0
 10
117.25728668982239
 20
192.10783963745021
 30
0.0
  0
VERTEX
  5
2090
  8
0
 10
117.4019291965952
 20
191.84965107461611
 30
0.0
  0
VERTEX
  5
2091
  8
0
 10
117.55983986449139
 20
191.58760620859121
 30
0.0
  0
VERTEX
  5
2092
  8
0
 10
117.73095683107471
 20
191.3235554929125
 30
0.0
  0
VERTEX
  5
2093
  8
0
 10
117.9150893139353
 20
191.05926736950599
 30
0.0
  0
VERTEX
  5
2094
  8
0
 10
118.01194145694259
 20
190.9275624786529
 30
0.0
  0
VERTEX
  5
2095
  8
0
 10
118.1119154415872
 20
190.79642291266319
 30
0.0
  0
VERTEX
  5
2096
  8
0
 10
118.3209670167512
 20
190.5366280177835
 30
0.0
  0
VERTEX
  5
2097
  8
0
 10
118.5416376234835
 20
190.2813936726898
 30
0.0
  0
VERTEX
  5
2098
  8
0
 10
118.6561279002669
 20
190.1559045095504
 30
0.0
  0
SEQEND
  5
2099
  8
0
  0
POLYLINE
  5
B70
  8
0
 66
     1
 10
0.0
 20
0.0
 30
0.0
  0
VERTEX
  5
209A
  8
0
 10
118.6561279002669
 20
203.0867050550479
 30
0.0
  0
VERTEX
  5
209B
  8
0
 10
118.5416376234835
 20
202.9612158919083
 30
0.0
  0
VERTEX
  5
209C
  8
0
 10
118.3209670167513
 20
202.7059815468148
 30
0.0
  0
VERTEX
  5
209D
  8
0
 10
118.1119154415872
 20
202.44618665193499
 30
0.0
  0
VERTEX
  5
209E
  8
0
 10
118.01194145694259
 20
202.31504708594531
 30
0.0
  0
VERTEX
  5
209F
  8
0
 10
117.9150893139353
 20
202.18334219509219
 30
0.0
  0
VERTEX
  5
20A0
  8
0
 10
117.73095683107471
 20
201.91905407168571
 30
0.0
  0
VERTEX
  5
20A1
  8
0
 10
117.55983986449139
 20
201.65500335600709
 30
0.0
  0
VERTEX
  5
20A2
  8
0
 10
117.4019291965952
 20
201.39295848998211
 30
0.0
  0
VERTEX
  5
20A3
  8
0
 10
117.25728668982239
 20
201.134769927148
 30
0.0
  0
VERTEX
  5
20A4
  8
0
 10
117.1217060917552
 20
200.8740986631237
 30
0.0
  0
VERTEX
  5
20A5
  8
0
 10
117.0557167844555
 20
200.73964823839199
 30
0.0
  0
VERTEX
  5
20A6
  8
0
 10
116.99143159700159
 20
200.6032566057807
 30
0.0
  0
VERTEX
  5
20A7
  8
0
 10
116.86928508916
 20
200.32723849107839
 30
0.0
  0
VERTEX
  5
20A8
  8
0
 10
116.7574890425997
 20
200.05140813089491
 30
0.0
  0
VERTEX
  5
20A9
  8
0
 10
116.6576585952712
 20
199.78149761080849
 30
0.0
  0
VERTEX
  5
20AA
  8
0
 10
116.57086749858721
 20
199.52374651117839
 30
0.0
  0
VERTEX
  5
20AB
  8
0
 10
116.52653281902219
 20
199.38176133860549
 30
0.0
  0
VERTEX
  5
20AC
  8
0
 10
116.5147340204082
 20
199.3426053388159
 30
0.0
  0
VERTEX
  5
20AD
  8
0
 10
116.5033241571691
 20
199.3041472564513
 30
0.0
  0
VERTEX
  5
20AE
  8
0
 10
116.4977655812048
 20
199.28519269846021
 30
0.0
  0
VERTEX
  5
20AF
  8
0
 10
116.4923048515484
 20
199.26642816238109
 30
0.0
  0
VERTEX
  5
20B0
  8
0
 10
116.4815604514784
 20
199.2290799718082
 30
0.0
  0
VERTEX
  5
20B1
  8
0
 10
116.4709715670468
 20
199.19169753597279
 30
0.0
  0
VERTEX
  5
20B2
  8
0
 10
116.46575189786
 20
199.17305262109281
 30
0.0
  0
VERTEX
  5
20B3
  8
0
 10
116.4605906808292
 20
199.1544709930956
 30
0.0
  0
VERTEX
  5
20B4
  8
0
 10
116.4504684617073
 20
199.11759597231421
 30
0.0
  0
VERTEX
  5
20B5
  8
0
 10
116.44065307784631
 20
199.08127115639039
 30
0.0
  0
VERTEX
  5
20B6
  8
0
 10
116.43587484186369
 20
199.0633780320527
 30
0.0
  0
VERTEX
  5
20B7
  8
0
 10
116.4311902973763
 20
199.04569841652091
 30
0.0
  0
VERTEX
  5
20B8
  8
0
 10
116.4221236267899
 20
199.01108292354581
 30
0.0
  0
VERTEX
  5
20B9
  8
0
 10
116.41349447684421
 20
198.9776331850521
 30
0.0
  0
VERTEX
  5
20BA
  8
0
 10
116.4053423419888
 20
198.94556093622171
 30
0.0
  0
VERTEX
  5
20BB
  8
0
 10
116.397704974215
 20
198.9150807839701
 30
0.0
  0
VERTEX
  5
20BC
  8
0
 10
116.3906177456506
 20
198.8864062920488
 30
0.0
  0
VERTEX
  5
20BD
  8
0
 10
116.3872906984563
 20
198.8728116153236
 30
0.0
  0
VERTEX
  5
20BE
  8
0
 10
116.3841138227253
 20
198.85974888346621
 30
0.0
  0
VERTEX
  5
20BF
  8
0
 10
116.3782274480848
 20
198.83532945202151
 30
0.0
  0
VERTEX
  5
20C0
  8
0
 10
116.3729911322535
 20
198.81336486921731
 30
0.0
  0
VERTEX
  5
20C1
  8
0
 10
116.3684352116163
 20
198.79406341860749
 30
0.0
  0
VERTEX
  5
20C2
  8
0
 10
116.3645874411105
 20
198.77762002330641
 30
0.0
  0
VERTEX
  5
20C3
  8
0
 10
116.3614727170237
 20
198.76421182486371
 30
0.0
  0
VERTEX
  5
20C4
  8
0
 10
116.3601973221792
 20
198.75869595025901
 30
0.0
  0
VERTEX
  5
20C5
  8
0
 10
116.35911328731081
 20
198.75399586087781
 30
0.0
  0
VERTEX
  5
20C6
  8
0
 10
116.3575278873524
 20
198.74710227681649
 30
0.0
  0
VERTEX
  5
20C7
  8
0
 10
116.35673067682831
 20
198.74362696418601
 30
0.0
  0
VERTEX
  5
20C8
  8
0
 10
116.35663070632491
 20
198.74319073587901
 30
0.0
  0
SEQEND
  5
20C9
  8
0
  0
POLYLINE
  5
B71
  8
0
 66
     1
 10
0.0
 20
0.0
 30
0.0
  0
VERTEX
  5
20CA
  8
0
 10
187.891538427131
 20
192.32453288676871
 30
0.0
  0
VERTEX
  5
20CB
  8
0
 10
187.9140131935487
 20
192.33519641327609
 30
0.0
  0
VERTEX
  5
20CC
  8
0
 10
187.9586638362519
 20
192.35681215324141
 30
0.0
  0
VERTEX
  5
20CD
  8
0
 10
188.00288387147589
 20
192.3787910917635
 30
0.0
  0
VERTEX
  5
20CE
  8
0
 10
188.02482051169221
 20
192.3899082322215
 30
0.0
  0
VERTEX
  5
20CF
  8
0
 10
188.04663530918921
 20
192.40110574297759
 30
0.0
  0
VERTEX
  5
20D0
  8
0
 10
188.08988092725679
 20
192.42372709330681
 30
0.0
  0
VERTEX
  5
20D1
  8
0
 10
188.13281121183451
 20
192.44674780982311
 30
0.0
  0
VERTEX
  5
20D2
  8
0
 10
188.17562686893871
 20
192.47027638911331
 30
0.0
  0
VERTEX
  5
20D3
  8
0
 10
188.218311414016
 20
192.494308556341
 30
0.0
  0
VERTEX
  5
20D4
  8
0
 10
188.260848427485
 20
192.51883948644559
 30
0.0
  0
VERTEX
  5
20D5
  8
0
 10
188.28205651187409
 20
192.53129033515009
 30
0.0
  0
VERTEX
  5
20D6
  8
0
 10
188.30322161682719
 20
192.54386382811509
 30
0.0
  0
VERTEX
  5
20D7
  8
0
 10
188.34541487469551
 20
192.56937572978171
 30
0.0
  0
VERTEX
  5
20D8
  8
0
 10
188.3874123328988
 20
192.59536886736871
 30
0.0
  0
VERTEX
  5
20D9
  8
0
 10
188.42919841220589
 20
192.62183647353899
 30
0.0
  0
VERTEX
  5
20DA
  8
0
 10
188.47075786796239
 20
192.64877136821411
 30
0.0
  0
VERTEX
  5
20DB
  8
0
 10
188.51207583157341
 20
192.67616599015261
 30
0.0
  0
VERTEX
  5
20DC
  8
0
 10
188.53263971951159
 20
192.6900332397054
 30
0.0
  0
VERTEX
  5
20DD
  8
0
 10
188.5531378479422
 20
192.70401242940551
 30
0.0
  0
VERTEX
  5
20DE
  8
0
 10
188.59392990899241
 20
192.73230246047811
 30
0.0
  0
VERTEX
  5
20DF
  8
0
 10
188.634438483427
 20
192.7610275760594
 30
0.0
  0
VERTEX
  5
20E0
  8
0
 10
188.65458237147581
 20
192.77555056332159
 30
0.0
  0
VERTEX
  5
20E1
  8
0
 10
188.67465053734529
 20
192.79017901712291
 30
0.0
  0
VERTEX
  5
20E2
  8
0
 10
188.7145534201978
 20
192.81974770449449
 30
0.0
  0
VERTEX
  5
20E3
  8
0
 10
188.75413467585281
 20
192.84972410227121
 30
0.0
  0
VERTEX
  5
20E4
  8
0
 10
188.77380085606009
 20
192.86486208734311
 30
0.0
  0
VERTEX
  5
20E5
  8
0
 10
188.7933820539794
 20
192.88009821903611
 30
0.0
  0
VERTEX
  5
20E6
  8
0
 10
188.8322835511517
 20
192.91085963326771
 30
0.0
  0
VERTEX
  5
20E7
  8
0
 10
188.87082744780389
 20
192.9419975189019
 30
0.0
  0
VERTEX
  5
20E8
  8
0
 10
188.9090023413917
 20
192.9735006710369
 30
0.0
  0
VERTEX
  5
20E9
  8
0
 10
188.9467971759511
 20
193.0053575316619
 30
0.0
  0
VERTEX
  5
20EA
  8
0
 10
188.9842012682623
 20
193.03755621531769
 30
0.0
  0
VERTEX
  5
20EB
  8
0
 10
189.00275355521001
 20
193.05377994332451
 30
0.0
  0
VERTEX
  5
20EC
  8
0
 10
189.02120433083991
 20
193.07008453462171
 30
0.0
  0
VERTEX
  5
20ED
  8
0
 10
189.05779649197291
 20
193.10293002560971
 30
0.0
  0
VERTEX
  5
20EE
  8
0
 10
189.09396831304261
 20
193.1360799728692
 30
0.0
  0
VERTEX
  5
20EF
  8
0
 10
189.1297108033389
 20
193.16952143445241
 30
0.0
  0
VERTEX
  5
20F0
  8
0
 10
189.16501564810309
 20
193.20324147453991
 30
0.0
  0
VERTEX
  5
20F1
  8
0
 10
189.1998785634226
 20
193.23723050368841
 30
0.0
  0
VERTEX
  5
20F2
  8
0
 10
189.21714237212331
 20
193.25432221962541
 30
0.0
  0
VERTEX
  5
20F3
  8
0
 10
189.2342931399734
 20
193.27147646834149
 30
0.0
  0
VERTEX
  5
20F4
  8
0
 10
189.26825183441369
 20
193.30596562906911
 30
0.0
  0
VERTEX
  5
20F5
  8
0
 10
189.30174739764411
 20
193.34068390858951
 30
0.0
  0
VERTEX
  5
20F6
  8
0
 10
189.3347728967027
 20
193.37561691262931
 30
0.0
  0
VERTEX
  5
20F7
  8
0
 10
189.3673217339412
 20
193.41074995031661
 30
0.0
  0
VERTEX
  5
20F8
  8
0
 10
189.3993876636942
 20
193.44606805409151
 30
0.0
  0
VERTEX
  5
20F9
  8
0
 10
189.41523768631541
 20
193.46379175753401
 30
0.0
  0
VERTEX
  5
20FA
  8
0
 10
189.43096480663479
 20
193.4815559991369
 30
0.0
  0
VERTEX
  5
20FB
  8
0
 10
189.4620476620141
 20
193.51719832234281
 30
0.0
  0
VERTEX
  5
20FC
  8
0
 10
189.4926311179704
 20
193.5529793408333
 30
0.0
  0
VERTEX
  5
20FD
  8
0
 10
189.59567604229881
 20
193.67907418592301
 30
0.0
  0
VERTEX
  5
20FE
  8
0
 10
189.75752276446079
 20
193.89670224395809
 30
0.0
  0
VERTEX
  5
20FF
  8
0
 10
189.8313090040015
 20
194.005234065378
 30
0.0
  0
VERTEX
  5
2100
  8
0
 10
189.9003040063005
 20
194.11292289170439
 30
0.0
  0
VERTEX
  5
2101
  8
0
 10
190.02683375576601
 20
194.32888017341421
 30
0.0
  0
VERTEX
  5
2102
  8
0
 10
190.1408112407172
 20
194.54913665219431
 30
0.0
  0
VERTEX
  5
2103
  8
0
 10
190.24040991419079
 20
194.7685890888265
 30
0.0
  0
VERTEX
  5
2104
  8
0
 10
190.32456058620221
 20
194.98137759303231
 30
0.0
  0
VERTEX
  5
2105
  8
0
 10
190.3663211914583
 20
195.09969854611319
 30
0.0
  0
VERTEX
  5
2106
  8
0
 10
190.37722445266229
 20
195.13233062016539
 30
0.0
  0
VERTEX
  5
2107
  8
0
 10
190.38767781801531
 20
195.1643789043369
 30
0.0
  0
VERTEX
  5
2108
  8
0
 10
190.39273859024399
 20
195.18017764594879
 30
0.0
  0
VERTEX
  5
2109
  8
0
 10
190.39769020353069
 20
195.19582246645609
 30
0.0
  0
VERTEX
  5
210A
  8
0
 10
190.40727013983221
 20
195.22663868072601
 30
0.0
  0
VERTEX
  5
210B
  8
0
 10
190.4164256916284
 20
195.2568028249145
 30
0.0
  0
VERTEX
  5
210C
  8
0
 10
190.42084668992129
 20
195.27163194240239
 30
0.0
  0
VERTEX
  5
210D
  8
0
 10
190.42516434844961
 20
195.2862875413557
 30
0.0
  0
VERTEX
  5
210E
  8
0
 10
190.4334928827549
 20
195.3150621319875
 30
0.0
  0
VERTEX
  5
210F
  8
0
 10
190.4414171710103
 20
195.3430916535404
 30
0.0
  0
VERTEX
  5
2110
  8
0
 10
190.44522926089249
 20
195.35681465734311
 30
0.0
  0
VERTEX
  5
2111
  8
0
 10
190.44894197300721
 20
195.3703357757945
 30
0.0
  0
VERTEX
  5
2112
  8
0
 10
190.45607066468691
 20
195.3967473648664
 30
0.0
  0
VERTEX
  5
2113
  8
0
 10
190.46280491812371
 20
195.42227074825561
 30
0.0
  0
VERTEX
  5
2114
  8
0
 10
190.46913561116199
 20
195.4468054843212
 30
0.0
  0
VERTEX
  5
2115
  8
0
 10
190.47505850265549
 20
195.47026471088211
 30
0.0
  0
VERTEX
  5
2116
  8
0
 10
190.4805779513876
 20
195.49259276421051
 30
0.0
  0
VERTEX
  5
2117
  8
0
 10
190.48318674052931
 20
195.50331087218601
 30
0.0
  0
VERTEX
  5
2118
  8
0
 10
190.48569450631919
 20
195.51371748931399
 30
0.0
  0
VERTEX
  5
2119
  8
0
 10
190.4904034945481
 20
195.5335432262184
 30
0.0
  0
VERTEX
  5
211A
  8
0
 10
190.4946931703316
 20
195.5519415001298
 30
0.0
  0
VERTEX
  5
211B
  8
0
 10
190.49854158717611
 20
195.5687357385539
 30
0.0
  0
VERTEX
  5
211C
  8
0
 10
190.50191747791411
 20
195.58370344019841
 30
0.0
  0
VERTEX
  5
211D
  8
0
 10
190.50478135911371
 20
195.59658115027241
 30
0.0
  0
VERTEX
  5
211E
  8
0
 10
190.50600419317871
 20
195.60213175995281
 30
0.0
  0
VERTEX
  5
211F
  8
0
 10
190.506193564988
 20
195.60299418110051
 30
0.0
  0
VERTEX
  5
2120
  8
0
 10
190.50655952535649
 20
195.6046629799323
 30
0.0
  0
VERTEX
  5
2121
  8
0
 10
190.50690811713099
 20
195.6062552511126
 30
0.0
  0
VERTEX
  5
2122
  8
0
 10
190.5070757740354
 20
195.60702199453161
 30
0.0
  0
VERTEX
  5
2123
  8
0
 10
190.5072389355511
 20
195.60776876279209
 30
0.0
  0
VERTEX
  5
2124
  8
0
 10
190.50755155685849
 20
195.60920120109711
 30
0.0
  0
VERTEX
  5
2125
  8
0
 10
190.50784553704199
 20
195.61055016562341
 30
0.0
  0
VERTEX
  5
2126
  8
0
 10
190.50812041057739
 20
195.61181316503951
 30
0.0
  0
VERTEX
  5
2127
  8
0
 10
190.5083756891855
 20
195.61298761290831
 30
0.0
  0
VERTEX
  5
2128
  8
0
 10
190.50861086062591
 20
195.6140708238388
 30
0.0
  0
VERTEX
  5
2129
  8
0
 10
190.50872073924711
 20
195.61457734836111
 30
0.0
  0
VERTEX
  5
212A
  8
0
 10
190.508825387549
 20
195.61506001008181
 30
0.0
  0
VERTEX
  5
212B
  8
0
 10
190.50901870642531
 20
195.6159522786852
 30
0.0
  0
VERTEX
  5
212C
  8
0
 10
190.50919022657311
 20
195.61674462932069
 30
0.0
  0
VERTEX
  5
212D
  8
0
 10
190.5093393293013
 20
195.617433952889
 30
0.0
  0
VERTEX
  5
212E
  8
0
 10
190.50946536718629
 20
195.61801703100161
 30
0.0
  0
VERTEX
  5
212F
  8
0
 10
190.50956766349711
 20
195.61849053642669
 30
0.0
  0
VERTEX
  5
2130
  8
0
 10
190.5096096889641
 20
195.61868513020249
 30
0.0
  0
VERTEX
  5
2131
  8
0
 10
190.5096455117791
 20
195.61885103457209
 30
0.0
  0
VERTEX
  5
2132
  8
0
 10
190.50969817560829
 20
195.6190949860576
 30
0.0
  0
VERTEX
  5
2133
  8
0
 10
190.50972488851659
 20
195.61921875041489
 30
0.0
  0
VERTEX
  5
2134
  8
0
 10
190.50972826566081
 20
195.61923439829951
 30
0.0
  0
SEQEND
  5
2135
  8
0
  0
POLYLINE
  5
B72
  8
0
 66
     1
 10
0.0
 20
0.0
 30
0.0
  0
VERTEX
  5
2136
  8
0
 10
190.50972826566081
 20
197.6233751662987
 30
0.0
  0
VERTEX
  5
2137
  8
0
 10
190.50972488851659
 20
197.62339081418341
 30
0.0
  0
VERTEX
  5
2138
  8
0
 10
190.50969817560829
 20
197.62351457854061
 30
0.0
  0
VERTEX
  5
2139
  8
0
 10
190.5096455117791
 20
197.62375853002621
 30
0.0
  0
VERTEX
  5
213A
  8
0
 10
190.5096096889641
 20
197.62392443439569
 30
0.0
  0
VERTEX
  5
213B
  8
0
 10
190.50956766349711
 20
197.62411902817141
 30
0.0
  0
VERTEX
  5
213C
  8
0
 10
190.50946536718629
 20
197.6245925335966
 30
0.0
  0
VERTEX
  5
213D
  8
0
 10
190.5093393293013
 20
197.62517561170921
 30
0.0
  0
VERTEX
  5
213E
  8
0
 10
190.50919022657311
 20
197.62586493527749
 30
0.0
  0
VERTEX
  5
213F
  8
0
 10
190.50901870642531
 20
197.6266572859131
 30
0.0
  0
VERTEX
  5
2140
  8
0
 10
190.508825387549
 20
197.62754955451641
 30
0.0
  0
VERTEX
  5
2141
  8
0
 10
190.50872073924711
 20
197.62803221623719
 30
0.0
  0
VERTEX
  5
2142
  8
0
 10
190.50861086062591
 20
197.62853874075941
 30
0.0
  0
VERTEX
  5
2143
  8
0
 10
190.5083756891855
 20
197.6296219516899
 30
0.0
  0
VERTEX
  5
2144
  8
0
 10
190.50812041057739
 20
197.63079639955859
 30
0.0
  0
VERTEX
  5
2145
  8
0
 10
190.50784553704199
 20
197.6320593989748
 30
0.0
  0
VERTEX
  5
2146
  8
0
 10
190.50755155685849
 20
197.6334083635011
 30
0.0
  0
VERTEX
  5
2147
  8
0
 10
190.5072389355511
 20
197.63484080180609
 30
0.0
  0
VERTEX
  5
2148
  8
0
 10
190.5070757740354
 20
197.63558757006669
 30
0.0
  0
VERTEX
  5
2149
  8
0
 10
190.50690811713099
 20
197.63635431348561
 30
0.0
  0
VERTEX
  5
214A
  8
0
 10
190.50655952535649
 20
197.637946584666
 30
0.0
  0
VERTEX
  5
214B
  8
0
 10
190.506193564988
 20
197.6396153834977
 30
0.0
  0
VERTEX
  5
214C
  8
0
 10
190.50600419317871
 20
197.6404778046454
 30
0.0
  0
VERTEX
  5
214D
  8
0
 10
190.50478135911371
 20
197.6460284143258
 30
0.0
  0
VERTEX
  5
214E
  8
0
 10
190.50191747791411
 20
197.65890612439981
 30
0.0
  0
VERTEX
  5
214F
  8
0
 10
190.49854158717611
 20
197.67387382604429
 30
0.0
  0
VERTEX
  5
2150
  8
0
 10
190.4946931703316
 20
197.69066806446841
 30
0.0
  0
VERTEX
  5
2151
  8
0
 10
190.4904034945481
 20
197.7090663383797
 30
0.0
  0
VERTEX
  5
2152
  8
0
 10
190.48569450631919
 20
197.72889207528399
 30
0.0
  0
VERTEX
  5
2153
  8
0
 10
190.48318674052931
 20
197.73929869241229
 30
0.0
  0
VERTEX
  5
2154
  8
0
 10
190.4805779513876
 20
197.75001680038781
 30
0.0
  0
VERTEX
  5
2155
  8
0
 10
190.47505850265549
 20
197.77234485371599
 30
0.0
  0
VERTEX
  5
2156
  8
0
 10
190.46913561116199
 20
197.79580408027709
 30
0.0
  0
VERTEX
  5
2157
  8
0
 10
190.46280491812371
 20
197.82033881634251
 30
0.0
  0
VERTEX
  5
2158
  8
0
 10
190.45607066468691
 20
197.84586219973181
 30
0.0
  0
VERTEX
  5
2159
  8
0
 10
190.44894197300721
 20
197.87227378880371
 30
0.0
  0
VERTEX
  5
215A
  8
0
 10
190.44522926089249
 20
197.8857949072551
 30
0.0
  0
VERTEX
  5
215B
  8
0
 10
190.4414171710103
 20
197.8995179110577
 30
0.0
  0
VERTEX
  5
215C
  8
0
 10
190.43349288275479
 20
197.92754743261071
 30
0.0
  0
VERTEX
  5
215D
  8
0
 10
190.42516434844961
 20
197.95632202324239
 30
0.0
  0
VERTEX
  5
215E
  8
0
 10
190.42084668992129
 20
197.9709776221957
 30
0.0
  0
VERTEX
  5
215F
  8
0
 10
190.4164256916284
 20
197.9858067396836
 30
0.0
  0
VERTEX
  5
2160
  8
0
 10
190.40727013983221
 20
198.01597088387209
 30
0.0
  0
VERTEX
  5
2161
  8
0
 10
190.39769020353069
 20
198.04678709814209
 30
0.0
  0
VERTEX
  5
2162
  8
0
 10
190.39273859024399
 20
198.06243191864931
 30
0.0
  0
VERTEX
  5
2163
  8
0
 10
190.38767781801531
 20
198.0782306602614
 30
0.0
  0
VERTEX
  5
2164
  8
0
 10
190.37722445266229
 20
198.11027894443271
 30
0.0
  0
VERTEX
  5
2165
  8
0
 10
190.3663211914583
 20
198.14291101848499
 30
0.0
  0
VERTEX
  5
2166
  8
0
 10
190.32456058620221
 20
198.26123197156599
 30
0.0
  0
VERTEX
  5
2167
  8
0
 10
190.24040991419079
 20
198.47402047577171
 30
0.0
  0
VERTEX
  5
2168
  8
0
 10
190.1408112407172
 20
198.69347291240391
 30
0.0
  0
VERTEX
  5
2169
  8
0
 10
190.02683375576601
 20
198.91372939118389
 30
0.0
  0
VERTEX
  5
216A
  8
0
 10
189.9003040063005
 20
199.1296866728938
 30
0.0
  0
VERTEX
  5
216B
  8
0
 10
189.8313090040015
 20
199.23737549922021
 30
0.0
  0
VERTEX
  5
216C
  8
0
 10
189.75752276446079
 20
199.34590732064021
 30
0.0
  0
VERTEX
  5
216D
  8
0
 10
189.59567604229881
 20
199.56353537867511
 30
0.0
  0
VERTEX
  5
216E
  8
0
 10
189.4926311179704
 20
199.68963022376479
 30
0.0
  0
VERTEX
  5
216F
  8
0
 10
189.4620476620141
 20
199.72541124225529
 30
0.0
  0
VERTEX
  5
2170
  8
0
 10
189.43096480663471
 20
199.7610535654612
 30
0.0
  0
VERTEX
  5
2171
  8
0
 10
189.41523768631561
 20
199.77881780706409
 30
0.0
  0
VERTEX
  5
2172
  8
0
 10
189.3993876636942
 20
199.7965415105067
 30
0.0
  0
VERTEX
  5
2173
  8
0
 10
189.3673217339412
 20
199.83185961428171
 30
0.0
  0
VERTEX
  5
2174
  8
0
 10
189.3347728967027
 20
199.8669926519689
 30
0.0
  0
VERTEX
  5
2175
  8
0
 10
189.30174739764411
 20
199.9019256560087
 30
0.0
  0
VERTEX
  5
2176
  8
0
 10
189.26825183441369
 20
199.9366439355291
 30
0.0
  0
VERTEX
  5
2177
  8
0
 10
189.2342931399734
 20
199.97113309625681
 30
0.0
  0
VERTEX
  5
2178
  8
0
 10
189.21714237212331
 20
199.98828734497289
 30
0.0
  0
VERTEX
  5
2179
  8
0
 10
189.1998785634226
 20
200.00537906090969
 30
0.0
  0
VERTEX
  5
217A
  8
0
 10
189.16501564810309
 20
200.03936809005839
 30
0.0
  0
VERTEX
  5
217B
  8
0
 10
189.1297108033389
 20
200.07308813014581
 30
0.0
  0
VERTEX
  5
217C
  8
0
 10
189.09396831304261
 20
200.1065295917289
 30
0.0
  0
VERTEX
  5
217D
  8
0
 10
189.05779649197291
 20
200.1396795389885
 30
0.0
  0
VERTEX
  5
217E
  8
0
 10
189.02120433083991
 20
200.17252502997661
 30
0.0
  0
VERTEX
  5
217F
  8
0
 10
189.00275355521001
 20
200.18882962127361
 30
0.0
  0
VERTEX
  5
2180
  8
0
 10
188.9842012682623
 20
200.2050533492806
 30
0.0
  0
VERTEX
  5
2181
  8
0
 10
188.9467971759511
 20
200.23725203293631
 30
0.0
  0
VERTEX
  5
2182
  8
0
 10
188.9090023413917
 20
200.26910889356131
 30
0.0
  0
VERTEX
  5
2183
  8
0
 10
188.87082744780389
 20
200.30061204569631
 30
0.0
  0
VERTEX
  5
2184
  8
0
 10
188.8322835511517
 20
200.33174993133039
 30
0.0
  0
VERTEX
  5
2185
  8
0
 10
188.79338205397951
 20
200.3625113455621
 30
0.0
  0
VERTEX
  5
2186
  8
0
 10
188.77380085606009
 20
200.37774747725501
 30
0.0
  0
VERTEX
  5
2187
  8
0
 10
188.75413467585281
 20
200.39288546232709
 30
0.0
  0
VERTEX
  5
2188
  8
0
 10
188.7145534201978
 20
200.42286186010369
 30
0.0
  0
VERTEX
  5
2189
  8
0
 10
188.67465053734529
 20
200.45243054747519
 30
0.0
  0
VERTEX
  5
218A
  8
0
 10
188.65458237147581
 20
200.46705900127651
 30
0.0
  0
VERTEX
  5
218B
  8
0
 10
188.634438483427
 20
200.48158198853881
 30
0.0
  0
VERTEX
  5
218C
  8
0
 10
188.59392990899241
 20
200.5103071041201
 30
0.0
  0
VERTEX
  5
218D
  8
0
 10
188.5531378479422
 20
200.53859713519279
 30
0.0
  0
VERTEX
  5
218E
  8
0
 10
188.53263971951159
 20
200.55257632489281
 30
0.0
  0
VERTEX
  5
218F
  8
0
 10
188.51207583157341
 20
200.5664435744456
 30
0.0
  0
VERTEX
  5
2190
  8
0
 10
188.47075786796239
 20
200.5938381963841
 30
0.0
  0
VERTEX
  5
2191
  8
0
 10
188.42919841220589
 20
200.62077309105911
 30
0.0
  0
VERTEX
  5
2192
  8
0
 10
188.3874123328988
 20
200.64724069722951
 30
0.0
  0
VERTEX
  5
2193
  8
0
 10
188.34541487469551
 20
200.67323383481661
 30
0.0
  0
VERTEX
  5
2194
  8
0
 10
188.30322161682719
 20
200.6987457364832
 30
0.0
  0
VERTEX
  5
2195
  8
0
 10
188.28205651187409
 20
200.71131922944809
 30
0.0
  0
VERTEX
  5
2196
  8
0
 10
188.260848427485
 20
200.72377007815271
 30
0.0
  0
VERTEX
  5
2197
  8
0
 10
188.218311414016
 20
200.7483010082573
 30
0.0
  0
VERTEX
  5
2198
  8
0
 10
188.17562686893871
 20
200.77233317548499
 30
0.0
  0
VERTEX
  5
2199
  8
0
 10
188.13281121183451
 20
200.7958617547751
 30
0.0
  0
VERTEX
  5
219A
  8
0
 10
188.08988092725679
 20
200.8188824712914
 30
0.0
  0
VERTEX
  5
219B
  8
0
 10
188.04663530918921
 20
200.84150382162071
 30
0.0
  0
VERTEX
  5
219C
  8
0
 10
188.02482051169221
 20
200.85270133237671
 30
0.0
  0
VERTEX
  5
219D
  8
0
 10
188.00288387147589
 20
200.86381847283471
 30
0.0
  0
VERTEX
  5
219E
  8
0
 10
187.9586638362519
 20
200.88579741135689
 30
0.0
  0
VERTEX
  5
219F
  8
0
 10
187.9140131935487
 20
200.9074131513222
 30
0.0
  0
VERTEX
  5
21A0
  8
0
 10
187.891538427131
 20
200.9180766778295
 30
0.0
  0
SEQEND
  5
21A1
  8
0
  0
LINE
  5
B74
  8
0
 10
155.96391685774981
 20
190.7904998185673
 30
0.0
 11
185.86663070632491
 21
191.87130478229909
 31
0.0
  0
POLYLINE
  5
B75
  8
0
 66
     1
 10
0.0
 20
0.0
 30
0.0
  0
VERTEX
  5
21A2
  8
0
 10
153.85460415265609
 20
190.9951362779789
 30
0.0
  0
VERTEX
  5
21A3
  8
0
 10
153.91356562914601
 20
190.98159345408271
 30
0.0
  0
VERTEX
  5
21A4
  8
0
 10
154.0316160637185
 20
190.95588328173221
 30
0.0
  0
VERTEX
  5
21A5
  8
0
 10
154.14979504906199
 20
190.9320066339684
 30
0.0
  0
VERTEX
  5
21A6
  8
0
 10
154.2089173464328
 20
190.92075529484941
 30
0.0
  0
VERTEX
  5
21A7
  8
0
 10
154.2680533822541
 20
190.90996141095309
 30
0.0
  0
VERTEX
  5
21A8
  8
0
 10
154.38634182253961
 20
190.88974387375191
 30
0.0
  0
VERTEX
  5
21A9
  8
0
 10
154.5046101736001
 20
190.87134878801041
 30
0.0
  0
VERTEX
  5
21AA
  8
0
 10
154.62280751770129
 20
190.85476932835971
 30
0.0
  0
VERTEX
  5
21AB
  8
0
 10
154.7408823349225
 20
190.8399970164474
 30
0.0
  0
VERTEX
  5
21AC
  8
0
 10
154.8587826228293
 20
190.82702166815781
 30
0.0
  0
VERTEX
  5
21AD
  8
0
 10
154.91765096515101
 20
190.82120419546089
 30
0.0
  0
VERTEX
  5
21AE
  8
0
 10
154.97645601663419
 20
190.81583134983629
 30
0.0
  0
VERTEX
  5
21AF
  8
0
 10
155.09384990994479
 20
190.80641234335889
 30
0.0
  0
VERTEX
  5
21B0
  8
0
 10
155.21091157625281
 20
190.798749119934
 30
0.0
  0
VERTEX
  5
21B1
  8
0
 10
155.32758829137191
 20
190.7928243225644
 30
0.0
  0
VERTEX
  5
21B2
  8
0
 10
155.44382745707941
 20
190.78861875714409
 30
0.0
  0
VERTEX
  5
21B3
  8
0
 10
155.55957672627329
 20
190.78611139221951
 30
0.0
  0
VERTEX
  5
21B4
  8
0
 10
155.6172513910891
 20
190.7854874621265
 30
0.0
  0
VERTEX
  5
21B5
  8
0
 10
155.67478412999679
 20
190.78527936749811
 30
0.0
  0
VERTEX
  5
21B6
  8
0
 10
155.7900092238136
 20
190.78610677646489
 30
0.0
  0
VERTEX
  5
21B7
  8
0
 10
155.90581390022351
 20
190.78861110077531
 30
0.0
  0
VERTEX
  5
21B8
  8
0
 10
155.96391685774981
 20
190.7904998185673
 30
0.0
  0
SEQEND
  5
21B9
  8
0
  0
POLYLINE
  5
B76
  8
0
 66
     1
 10
0.0
 20
0.0
 30
0.0
  0
VERTEX
  5
21BA
  8
0
 10
132.46037158297489
 20
190.03243455947111
 30
0.0
  0
VERTEX
  5
21BB
  8
0
 10
133.02442011938251
 20
190.21435201065509
 30
0.0
  0
VERTEX
  5
21BC
  8
0
 10
134.152170627624
 20
190.55038348262971
 30
0.0
  0
VERTEX
  5
21BD
  8
0
 10
135.27683445125811
 20
190.8495224833654
 30
0.0
  0
VERTEX
  5
21BE
  8
0
 10
135.83700496157951
 20
190.9853794546901
 30
0.0
  0
VERTEX
  5
21BF
  8
0
 10
136.3951881243556
 20
191.11218943494009
 30
0.0
  0
VERTEX
  5
21C0
  8
0
 10
137.51188893006531
 20
191.3405533373089
 30
0.0
  0
VERTEX
  5
21C1
  8
0
 10
138.6519619834225
 20
191.53935385764481
 30
0.0
  0
VERTEX
  5
21C2
  8
0
 10
139.81496571712231
 20
191.70694365184221
 30
0.0
  0
VERTEX
  5
21C3
  8
0
 10
140.9979272575732
 20
191.84139424576409
 30
0.0
  0
VERTEX
  5
21C4
  8
0
 10
142.19782856494831
 20
191.94104336466199
 30
0.0
  0
VERTEX
  5
21C5
  8
0
 10
142.8031867399846
 20
191.97737174717881
 30
0.0
  0
VERTEX
  5
21C6
  8
0
 10
143.41164662553231
 20
192.00449848796009
 30
0.0
  0
VERTEX
  5
21C7
  8
0
 10
144.63631656697081
 20
192.0306333259239
 30
0.0
  0
VERTEX
  5
21C8
  8
0
 10
145.86870748746071
 20
192.01859187732131
 30
0.0
  0
VERTEX
  5
21C9
  8
0
 10
147.10567233183619
 20
191.96779413669299
 30
0.0
  0
VERTEX
  5
21CA
  8
0
 10
148.34404275928441
 20
191.87793876049261
 30
0.0
  0
VERTEX
  5
21CB
  8
0
 10
149.58094173822661
 20
191.7489700811729
 30
0.0
  0
VERTEX
  5
21CC
  8
0
 10
150.19793603844809
 20
191.669868673373
 30
0.0
  0
VERTEX
  5
21CD
  8
0
 10
150.81342975946649
 20
191.5810881494518
 30
0.0
  0
VERTEX
  5
21CE
  8
0
 10
152.03833494666421
 20
191.37479404741401
 30
0.0
  0
VERTEX
  5
21CF
  8
0
 10
153.2525136283941
 20
191.13087689932331
 30
0.0
  0
VERTEX
  5
21D0
  8
0
 10
153.85460415265609
 20
190.9951362779789
 30
0.0
  0
SEQEND
  5
21D1
  8
0
  0
POLYLINE
  5
B77
  8
0
 66
     1
 10
0.0
 20
0.0
 30
0.0
  0
VERTEX
  5
21D2
  8
0
 10
118.6561279002669
 20
190.15590450955051
 30
0.0
  0
VERTEX
  5
21D3
  8
0
 10
118.7064930870782
 20
190.10210252411801
 30
0.0
  0
VERTEX
  5
21D4
  8
0
 10
118.80821335957
 20
189.99594039742141
 30
0.0
  0
VERTEX
  5
21D5
  8
0
 10
118.91119707456799
 20
189.8917312586569
 30
0.0
  0
VERTEX
  5
21D6
  8
0
 10
118.9631411603398
 20
189.84036997495389
 30
0.0
  0
VERTEX
  5
21D7
  8
0
 10
119.01537524434499
 20
189.78950953319509
 30
0.0
  0
VERTEX
  5
21D8
  8
0
 10
119.1206780603285
 20
189.68930656959211
 30
0.0
  0
VERTEX
  5
21D9
  8
0
 10
119.2270332412258
 20
189.59115227797881
 30
0.0
  0
VERTEX
  5
21DA
  8
0
 10
119.3343662102158
 20
189.49507486733521
 30
0.0
  0
VERTEX
  5
21DB
  8
0
 10
119.44260024998481
 20
189.401100635311
 30
0.0
  0
VERTEX
  5
21DC
  8
0
 10
119.5516566410483
 20
189.3092537986474
 30
0.0
  0
VERTEX
  5
21DD
  8
0
 10
119.6064681062129
 20
189.2641351145385
 30
0.0
  0
VERTEX
  5
21DE
  8
0
 10
119.6614548052264
 20
189.2195563410877
 30
0.0
  0
VERTEX
  5
21DF
  8
0
 10
119.77191245417551
 20
189.1320278777514
 30
0.0
  0
VERTEX
  5
21E0
  8
0
 10
119.8829457430631
 20
189.04668553496629
 30
0.0
  0
VERTEX
  5
21E1
  8
0
 10
119.99446942964801
 20
188.9635438445944
 30
0.0
  0
VERTEX
  5
21E2
  8
0
 10
120.1063970392118
 20
188.88261465193381
 30
0.0
  0
VERTEX
  5
21E3
  8
0
 10
120.218706839193
 20
188.8038615989656
 30
0.0
  0
VERTEX
  5
21E4
  8
0
 10
120.2753219946555
 20
188.7650702359885
 30
0.0
  0
VERTEX
  5
21E5
  8
0
 10
120.3323541977208
 20
188.7265963151919
 30
0.0
  0
VERTEX
  5
21E6
  8
0
 10
120.4476506404912
 20
188.65063071550799
 30
0.0
  0
VERTEX
  5
21E7
  8
0
 10
120.5645569153143
 20
188.5760235311443
 30
0.0
  0
VERTEX
  5
21E8
  8
0
 10
120.62360103966419
 20
188.53924720097459
 30
0.0
  0
VERTEX
  5
21E9
  8
0
 10
120.6830321966702
 20
188.50283166566371
 30
0.0
  0
VERTEX
  5
21EA
  8
0
 10
120.803034216716
 20
188.43111010602769
 30
0.0
  0
VERTEX
  5
21EB
  8
0
 10
120.9245193990069
 20
188.36091184492989
 30
0.0
  0
VERTEX
  5
21EC
  8
0
 10
120.9858042341329
 20
188.32639994954511
 30
0.0
  0
VERTEX
  5
21ED
  8
0
 10
121.04744299530419
 20
188.2922878138053
 30
0.0
  0
VERTEX
  5
21EE
  8
0
 10
121.17175922583419
 20
188.22528682603431
 30
0.0
  0
VERTEX
  5
21EF
  8
0
 10
121.2974214233556
 20
188.15995552996861
 30
0.0
  0
VERTEX
  5
21F0
  8
0
 10
121.4243821813768
 20
188.09633837151071
 30
0.0
  0
VERTEX
  5
21F1
  8
0
 10
121.55259350685679
 20
188.0344775660719
 30
0.0
  0
VERTEX
  5
21F2
  8
0
 10
121.6820069776979
 20
187.97441307983601
 30
0.0
  0
VERTEX
  5
21F3
  8
0
 10
121.747149303575
 20
187.94506633042539
 30
0.0
  0
VERTEX
  5
21F4
  8
0
 10
121.8125738384623
 20
187.91618264955051
 30
0.0
  0
VERTEX
  5
21F5
  8
0
 10
121.9442445042946
 20
187.8598220548644
 30
0.0
  0
VERTEX
  5
21F6
  8
0
 10
122.0769681059252
 20
187.80536531589331
 30
0.0
  0
VERTEX
  5
21F7
  8
0
 10
122.2106925708901
 20
187.75284463311931
 30
0.0
  0
VERTEX
  5
21F8
  8
0
 10
122.345364750554
 20
187.7022903161928
 30
0.0
  0
VERTEX
  5
21F9
  8
0
 10
122.48093054813759
 20
187.6537307225021
 30
0.0
  0
VERTEX
  5
21FA
  8
0
 10
122.5490314209528
 20
187.63020726172979
 30
0.0
  0
VERTEX
  5
21FB
  8
0
 10
122.6173350480929
 20
187.607192205095
 30
0.0
  0
VERTEX
  5
21FC
  8
0
 10
122.7545226471798
 20
187.56269906962029
 30
0.0
  0
VERTEX
  5
21FD
  8
0
 10
122.8924371876161
 20
187.52027354003721
 30
0.0
  0
VERTEX
  5
21FE
  8
0
 10
123.03102209267981
 20
187.4799357329147
 30
0.0
  0
VERTEX
  5
21FF
  8
0
 10
123.17022050514839
 20
187.4417036402244
 30
0.0
  0
VERTEX
  5
2200
  8
0
 10
123.30997542896731
 20
187.40559312060751
 30
0.0
  0
VERTEX
  5
2201
  8
0
 10
123.3800441421202
 20
187.3883377326006
 30
0.0
  0
VERTEX
  5
2202
  8
0
 10
123.4502357043097
 20
187.3716165337556
 30
0.0
  0
VERTEX
  5
2203
  8
0
 10
123.5909630330161
 20
187.33978171346439
 30
0.0
  0
VERTEX
  5
2204
  8
0
 10
123.7321009853752
 20
187.3100992894073
 30
0.0
  0
VERTEX
  5
2205
  8
0
 10
123.87359077282019
 20
187.2825783278939
 30
0.0
  0
VERTEX
  5
2206
  8
0
 10
124.0153727995492
 20
187.25722591056871
 30
0.0
  0
VERTEX
  5
2207
  8
0
 10
124.15738679456901
 20
187.234047078049
 30
0.0
  0
VERTEX
  5
2208
  8
0
 10
124.22846179352339
 20
187.2232737614132
 30
0.0
  0
VERTEX
  5
2209
  8
0
 10
124.29957194442019
 20
187.2130447828257
 30
0.0
  0
VERTEX
  5
220A
  8
0
 10
124.4418670269212
 20
187.19421985123191
 30
0.0
  0
VERTEX
  5
220B
  8
0
 10
124.5842105462969
 20
187.17757095434911
 30
0.0
  0
VERTEX
  5
220C
  8
0
 10
124.7265408700864
 20
187.1630945877948
 30
0.0
  0
VERTEX
  5
220D
  8
0
 10
124.86879636825149
 20
187.1507850604043
 30
0.0
  0
VERTEX
  5
220E
  8
0
 10
125.010915554929
 20
187.1406344918941
 30
0.0
  0
VERTEX
  5
220F
  8
0
 10
125.081904892129
 20
187.1363657575277
 30
0.0
  0
VERTEX
  5
2210
  8
0
 10
125.1528372329371
 20
187.13263281968801
 30
0.0
  0
VERTEX
  5
2211
  8
0
 10
125.2945004738817
 20
187.1267678207962
 30
0.0
  0
VERTEX
  5
2212
  8
0
 10
125.4358439332962
 20
187.12302514108529
 30
0.0
  0
VERTEX
  5
2213
  8
0
 10
125.5063763805728
 20
187.12194459417839
 30
0.0
  0
VERTEX
  5
2214
  8
0
 10
125.57680556963081
 20
187.12138825853489
 30
0.0
  0
VERTEX
  5
2215
  8
0
 10
125.7173227817768
 20
187.12183842329031
 30
0.0
  0
VERTEX
  5
2216
  8
0
 10
125.8573325596325
 20
187.12435460775279
 30
0.0
  0
VERTEX
  5
2217
  8
0
 10
125.92712739504729
 20
187.12638025356841
 30
0.0
  0
VERTEX
  5
2218
  8
0
 10
125.9967716337266
 20
187.12891346739241
 30
0.0
  0
VERTEX
  5
2219
  8
0
 10
126.1355766241702
 20
187.1354893121167
 30
0.0
  0
VERTEX
  5
221A
  8
0
 10
126.2736841892708
 20
187.14405408810791
 30
0.0
  0
VERTEX
  5
221B
  8
0
 10
126.41103117419379
 20
187.15457737011221
 30
0.0
  0
VERTEX
  5
221C
  8
0
 10
126.5475547601168
 20
187.1670263642456
 30
0.0
  0
VERTEX
  5
221D
  8
0
 10
126.68319261437711
 20
187.1813659214647
 30
0.0
  0
VERTEX
  5
221E
  8
0
 10
126.7506600834018
 20
187.18923303893709
 30
0.0
  0
VERTEX
  5
221F
  8
0
 10
126.81788421134409
 20
187.19755871098121
 30
0.0
  0
VERTEX
  5
2220
  8
0
 10
126.9524731472337
 20
187.21569342667391
 30
0.0
  0
VERTEX
  5
2221
  8
0
 10
127.0876726119927
 20
187.23588866409909
 30
0.0
  0
VERTEX
  5
2222
  8
0
 10
127.2234090507541
 20
187.2581715806474
 30
0.0
  0
VERTEX
  5
2223
  8
0
 10
127.3596086666942
 20
187.28256676104229
 30
0.0
  0
VERTEX
  5
2224
  8
0
 10
127.496197580065
 20
187.30909621681161
 30
0.0
  0
VERTEX
  5
2225
  8
0
 10
127.564614952114
 20
187.3231674753888
 30
0.0
  0
VERTEX
  5
2226
  8
0
 10
127.6331019863261
 20
187.33777939713801
 30
0.0
  0
VERTEX
  5
2227
  8
0
 10
127.7702483140238
 20
187.3686332113522
 30
0.0
  0
VERTEX
  5
2228
  8
0
 10
127.9075633829664
 20
187.40167206341621
 30
0.0
  0
VERTEX
  5
2229
  8
0
 10
128.04497456314169
 20
187.4369078988309
 30
0.0
  0
VERTEX
  5
222A
  8
0
 10
128.18240993472401
 20
187.4743502644765
 30
0.0
  0
VERTEX
  5
222B
  8
0
 10
128.31979844941111
 20
187.51400638196441
 30
0.0
  0
VERTEX
  5
222C
  8
0
 10
128.38845321116639
 20
187.53466623982061
 30
0.0
  0
VERTEX
  5
222D
  8
0
 10
128.4570700932305
 20
187.55588123514389
 30
0.0
  0
VERTEX
  5
222E
  8
0
 10
128.5941559856999
 20
187.59997765095741
 30
0.0
  0
VERTEX
  5
222F
  8
0
 10
128.73098781970219
 20
187.6462961599992
 30
0.0
  0
VERTEX
  5
2230
  8
0
 10
128.86749729952601
 20
187.6948347972932
 30
0.0
  0
VERTEX
  5
2231
  8
0
 10
129.00361624620371
 20
187.74558909551351
 30
0.0
  0
VERTEX
  5
2232
  8
0
 10
129.1392767670838
 20
187.7985521092032
 30
0.0
  0
VERTEX
  5
2233
  8
0
 10
129.2069140207021
 20
187.82585904473089
 30
0.0
  0
VERTEX
  5
2234
  8
0
 10
129.2744114222688
 20
187.8537144500545
 30
0.0
  0
VERTEX
  5
2235
  8
0
 10
129.40895338835381
 20
187.91106433353031
 30
0.0
  0
VERTEX
  5
2236
  8
0
 10
129.54283661983561
 20
187.9705876371882
 30
0.0
  0
VERTEX
  5
2237
  8
0
 10
129.67599600849891
 20
188.0322679711366
 30
0.0
  0
VERTEX
  5
2238
  8
0
 10
129.8083675410129
 20
188.0960867611152
 30
0.0
  0
VERTEX
  5
2239
  8
0
 10
129.93988845489949
 20
188.1620233447662
 30
0.0
  0
VERTEX
  5
223A
  8
0
 10
130.005310696647
 20
188.1957788080619
 30
0.0
  0
VERTEX
  5
223B
  8
0
 10
130.0704973929555
 20
188.2300550817049
 30
0.0
  0
VERTEX
  5
223C
  8
0
 10
130.20014649233431
 20
188.30016405284371
 30
0.0
  0
VERTEX
  5
223D
  8
0
 10
130.32879221145259
 20
188.3723330918645
 30
0.0
  0
VERTEX
  5
223E
  8
0
 10
130.3927203116441
 20
188.4091815439422
 30
0.0
  0
VERTEX
  5
223F
  8
0
 10
130.4563754204552
 20
188.44653438172841
 30
0.0
  0
VERTEX
  5
2240
  8
0
 10
130.58283743950079
 20
188.52273758288911
 30
0.0
  0
VERTEX
  5
2241
  8
0
 10
130.7081202951955
 20
188.60090991880119
 30
0.0
  0
VERTEX
  5
2242
  8
0
 10
130.77030165717389
 20
188.6407236173477
 30
0.0
  0
VERTEX
  5
2243
  8
0
 10
130.83216689856499
 20
188.68101623417741
 30
0.0
  0
VERTEX
  5
2244
  8
0
 10
130.95492121790281
 20
188.76301906504531
 30
0.0
  0
VERTEX
  5
2245
  8
0
 10
131.0763284467215
 20
188.84687872094199
 30
0.0
  0
VERTEX
  5
2246
  8
0
 10
131.19633516699619
 20
188.9325533796613
 30
0.0
  0
VERTEX
  5
2247
  8
0
 10
131.31488950785459
 20
189.01999919504709
 30
0.0
  0
VERTEX
  5
2248
  8
0
 10
131.43194129981481
 20
189.10917041840199
 30
0.0
  0
VERTEX
  5
2249
  8
0
 10
131.4898885641845
 20
189.15438827445661
 30
0.0
  0
VERTEX
  5
224A
  8
0
 10
131.54744222462921
 20
189.20001953415311
 30
0.0
  0
VERTEX
  5
224B
  8
0
 10
131.66134645763611
 20
189.2924978203269
 30
0.0
  0
VERTEX
  5
224C
  8
0
 10
131.77360949027559
 20
189.38655445806671
 30
0.0
  0
VERTEX
  5
224D
  8
0
 10
131.8841867142074
 20
189.4821352445968
 30
0.0
  0
VERTEX
  5
224E
  8
0
 10
131.9930347985389
 20
189.5791835924305
 30
0.0
  0
VERTEX
  5
224F
  8
0
 10
132.10011188879511
 20
189.6776406374434
 30
0.0
  0
VERTEX
  5
2250
  8
0
 10
132.1529736789474
 20
189.72737843048409
 30
0.0
  0
VERTEX
  5
2251
  8
0
 10
132.20537778346869
 20
189.77744534822031
 30
0.0
  0
VERTEX
  5
2252
  8
0
 10
132.3087941023139
 20
189.87853464819349
 30
0.0
  0
VERTEX
  5
2253
  8
0
 10
132.41032444653891
 20
189.98084355101571
 30
0.0
  0
VERTEX
  5
2254
  8
0
 10
132.46037158297489
 20
190.03243455947111
 30
0.0
  0
SEQEND
  5
2255
  8
0
  0
POLYLINE
  5
B79
  8
0
 66
     1
 10
0.0
 20
0.0
 30
0.0
  0
VERTEX
  5
2256
  8
0
 10
132.46037158297489
 20
203.21017500512721
 30
0.0
  0
VERTEX
  5
2257
  8
0
 10
132.41032444653891
 20
203.2617660135825
 30
0.0
  0
VERTEX
  5
2258
  8
0
 10
132.3087941023139
 20
203.3640749164046
 30
0.0
  0
VERTEX
  5
2259
  8
0
 10
132.20537778346869
 20
203.4651642163779
 30
0.0
  0
VERTEX
  5
225A
  8
0
 10
132.1529736789474
 20
203.51523113411409
 30
0.0
  0
VERTEX
  5
225B
  8
0
 10
132.10011188879511
 20
203.56496892715481
 30
0.0
  0
VERTEX
  5
225C
  8
0
 10
131.9930347985389
 20
203.66342597216769
 30
0.0
  0
VERTEX
  5
225D
  8
0
 10
131.8841867142074
 20
203.76047432000141
 30
0.0
  0
VERTEX
  5
225E
  8
0
 10
131.7736094902757
 20
203.8560551065315
 30
0.0
  0
VERTEX
  5
225F
  8
0
 10
131.66134645763611
 20
203.9501117442712
 30
0.0
  0
VERTEX
  5
2260
  8
0
 10
131.54744222462921
 20
204.0425900304451
 30
0.0
  0
VERTEX
  5
2261
  8
0
 10
131.4898885641845
 20
204.08822129014149
 30
0.0
  0
VERTEX
  5
2262
  8
0
 10
131.43194129981481
 20
204.13343914619611
 30
0.0
  0
VERTEX
  5
2263
  8
0
 10
131.31488950785459
 20
204.22261036955121
 30
0.0
  0
VERTEX
  5
2264
  8
0
 10
131.19633516699619
 20
204.310056184937
 30
0.0
  0
VERTEX
  5
2265
  8
0
 10
131.0763284467215
 20
204.3957308436562
 30
0.0
  0
VERTEX
  5
2266
  8
0
 10
130.95492121790301
 20
204.47959049955301
 30
0.0
  0
VERTEX
  5
2267
  8
0
 10
130.83216689856511
 20
204.56159333042089
 30
0.0
  0
VERTEX
  5
2268
  8
0
 10
130.77030165717389
 20
204.60188594725039
 30
0.0
  0
VERTEX
  5
2269
  8
0
 10
130.7081202951955
 20
204.64169964579699
 30
0.0
  0
VERTEX
  5
226A
  8
0
 10
130.58283743950079
 20
204.7198719817091
 30
0.0
  0
VERTEX
  5
226B
  8
0
 10
130.4563754204552
 20
204.79607518286991
 30
0.0
  0
VERTEX
  5
226C
  8
0
 10
130.3927203116441
 20
204.8334280206561
 30
0.0
  0
VERTEX
  5
226D
  8
0
 10
130.32879221145271
 20
204.87027647273371
 30
0.0
  0
VERTEX
  5
226E
  8
0
 10
130.2001464923344
 20
204.94244551175461
 30
0.0
  0
VERTEX
  5
226F
  8
0
 10
130.0704973929555
 20
205.01255448289331
 30
0.0
  0
VERTEX
  5
2270
  8
0
 10
130.005310696647
 20
205.04683075653639
 30
0.0
  0
VERTEX
  5
2271
  8
0
 10
129.9398884548996
 20
205.0805862198321
 30
0.0
  0
VERTEX
  5
2272
  8
0
 10
129.80836754101301
 20
205.14652280348309
 30
0.0
  0
VERTEX
  5
2273
  8
0
 10
129.67599600849891
 20
205.21034159346169
 30
0.0
  0
VERTEX
  5
2274
  8
0
 10
129.54283661983561
 20
205.2720219274099
 30
0.0
  0
VERTEX
  5
2275
  8
0
 10
129.40895338835381
 20
205.33154523106799
 30
0.0
  0
VERTEX
  5
2276
  8
0
 10
129.2744114222688
 20
205.3888951145438
 30
0.0
  0
VERTEX
  5
2277
  8
0
 10
129.2069140207021
 20
205.41675051986721
 30
0.0
  0
VERTEX
  5
2278
  8
0
 10
129.1392767670838
 20
205.44405745539501
 30
0.0
  0
VERTEX
  5
2279
  8
0
 10
129.00361624620379
 20
205.4970204690847
 30
0.0
  0
VERTEX
  5
227A
  8
0
 10
128.86749729952609
 20
205.5477747673049
 30
0.0
  0
VERTEX
  5
227B
  8
0
 10
128.73098781970219
 20
205.59631340459899
 30
0.0
  0
VERTEX
  5
227C
  8
0
 10
128.59415598570001
 20
205.6426319136408
 30
0.0
  0
VERTEX
  5
227D
  8
0
 10
128.4570700932305
 20
205.6867283294543
 30
0.0
  0
VERTEX
  5
227E
  8
0
 10
128.38845321116651
 20
205.7079433247774
 30
0.0
  0
VERTEX
  5
227F
  8
0
 10
128.31979844941111
 20
205.7286031826338
 30
0.0
  0
VERTEX
  5
2280
  8
0
 10
128.18240993472401
 20
205.7682593001218
 30
0.0
  0
VERTEX
  5
2281
  8
0
 10
128.04497456314181
 20
205.80570166576729
 30
0.0
  0
VERTEX
  5
2282
  8
0
 10
127.9075633829664
 20
205.840937501182
 30
0.0
  0
VERTEX
  5
2283
  8
0
 10
127.7702483140238
 20
205.87397635324601
 30
0.0
  0
VERTEX
  5
2284
  8
0
 10
127.6331019863261
 20
205.9048301674602
 30
0.0
  0
VERTEX
  5
2285
  8
0
 10
127.5646149521141
 20
205.91944208920941
 30
0.0
  0
VERTEX
  5
2286
  8
0
 10
127.496197580065
 20
205.9335133477866
 30
0.0
  0
VERTEX
  5
2287
  8
0
 10
127.3596086666942
 20
205.96004280355589
 30
0.0
  0
VERTEX
  5
2288
  8
0
 10
127.2234090507541
 20
205.9844379839509
 30
0.0
  0
VERTEX
  5
2289
  8
0
 10
127.0876726119927
 20
206.0067209004992
 30
0.0
  0
VERTEX
  5
228A
  8
0
 10
126.9524731472337
 20
206.02691613792439
 30
0.0
  0
VERTEX
  5
228B
  8
0
 10
126.81788421134419
 20
206.045050853617
 30
0.0
  0
VERTEX
  5
228C
  8
0
 10
126.7506600834018
 20
206.05337652566109
 30
0.0
  0
VERTEX
  5
228D
  8
0
 10
126.68319261437711
 20
206.06124364313359
 30
0.0
  0
VERTEX
  5
228E
  8
0
 10
126.5475547601168
 20
206.07558320035261
 30
0.0
  0
VERTEX
  5
228F
  8
0
 10
126.41103117419379
 20
206.088032194486
 30
0.0
  0
VERTEX
  5
2290
  8
0
 10
126.2736841892708
 20
206.09855547649039
 30
0.0
  0
VERTEX
  5
2291
  8
0
 10
126.1355766241702
 20
206.10712025248151
 30
0.0
  0
VERTEX
  5
2292
  8
0
 10
125.9967716337266
 20
206.11369609720569
 30
0.0
  0
VERTEX
  5
2293
  8
0
 10
125.92712739504729
 20
206.11622931102991
 30
0.0
  0
VERTEX
  5
2294
  8
0
 10
125.8573325596326
 20
206.11825495684531
 30
0.0
  0
VERTEX
  5
2295
  8
0
 10
125.7173227817768
 20
206.12077114130801
 30
0.0
  0
VERTEX
  5
2296
  8
0
 10
125.57680556963091
 20
206.12122130606321
 30
0.0
  0
VERTEX
  5
2297
  8
0
 10
125.5063763805728
 20
206.12066497041991
 30
0.0
  0
VERTEX
  5
2298
  8
0
 10
125.4358439332962
 20
206.119584423513
 30
0.0
  0
VERTEX
  5
2299
  8
0
 10
125.2945004738818
 20
206.11584174380209
 30
0.0
  0
VERTEX
  5
229A
  8
0
 10
125.1528372329371
 20
206.10997674491031
 30
0.0
  0
VERTEX
  5
229B
  8
0
 10
125.081904892129
 20
206.1062438070706
 30
0.0
  0
VERTEX
  5
229C
  8
0
 10
125.010915554929
 20
206.10197507270419
 30
0.0
  0
VERTEX
  5
229D
  8
0
 10
124.86879636825149
 20
206.09182450419391
 30
0.0
  0
VERTEX
  5
229E
  8
0
 10
124.7265408700864
 20
206.07951497680349
 30
0.0
  0
VERTEX
  5
229F
  8
0
 10
124.5842105462969
 20
206.06503861024919
 30
0.0
  0
VERTEX
  5
22A0
  8
0
 10
124.4418670269212
 20
206.0483897133663
 30
0.0
  0
VERTEX
  5
22A1
  8
0
 10
124.29957194442019
 20
206.02956478177239
 30
0.0
  0
VERTEX
  5
22A2
  8
0
 10
124.22846179352339
 20
206.0193358031849
 30
0.0
  0
VERTEX
  5
22A3
  8
0
 10
124.15738679456901
 20
206.00856248654929
 30
0.0
  0
VERTEX
  5
22A4
  8
0
 10
124.0153727995492
 20
205.98538365402959
 30
0.0
  0
VERTEX
  5
22A5
  8
0
 10
123.87359077282019
 20
205.9600312367044
 30
0.0
  0
VERTEX
  5
22A6
  8
0
 10
123.7321009853752
 20
205.93251027519091
 30
0.0
  0
VERTEX
  5
22A7
  8
0
 10
123.5909630330161
 20
205.90282785113391
 30
0.0
  0
VERTEX
  5
22A8
  8
0
 10
123.4502357043097
 20
205.8709930308427
 30
0.0
  0
VERTEX
  5
22A9
  8
0
 10
123.3800441421202
 20
205.85427183199769
 30
0.0
  0
VERTEX
  5
22AA
  8
0
 10
123.30997542896731
 20
205.83701644399071
 30
0.0
  0
VERTEX
  5
22AB
  8
0
 10
123.17022050514839
 20
205.80090592437389
 30
0.0
  0
VERTEX
  5
22AC
  8
0
 10
123.03102209267981
 20
205.7626738316836
 30
0.0
  0
VERTEX
  5
22AD
  8
0
 10
122.8924371876161
 20
205.72233602456089
 30
0.0
  0
VERTEX
  5
22AE
  8
0
 10
122.7545226471798
 20
205.6799104949778
 30
0.0
  0
VERTEX
  5
22AF
  8
0
 10
122.6173350480929
 20
205.63541735950341
 30
0.0
  0
VERTEX
  5
22B0
  8
0
 10
122.5490314209529
 20
205.6124023028683
 30
0.0
  0
VERTEX
  5
22B1
  8
0
 10
122.48093054813759
 20
205.58887884209611
 30
0.0
  0
VERTEX
  5
22B2
  8
0
 10
122.345364750554
 20
205.5403192484055
 30
0.0
  0
VERTEX
  5
22B3
  8
0
 10
122.2106925708902
 20
205.4897649314789
 30
0.0
  0
VERTEX
  5
22B4
  8
0
 10
122.0769681059252
 20
205.43724424870501
 30
0.0
  0
VERTEX
  5
22B5
  8
0
 10
121.9442445042946
 20
205.3827875097339
 30
0.0
  0
VERTEX
  5
22B6
  8
0
 10
121.8125738384624
 20
205.32642691504759
 30
0.0
  0
VERTEX
  5
22B7
  8
0
 10
121.747149303575
 20
205.29754323417291
 30
0.0
  0
VERTEX
  5
22B8
  8
0
 10
121.6820069776979
 20
205.26819648476231
 30
0.0
  0
VERTEX
  5
22B9
  8
0
 10
121.55259350685699
 20
205.2081319985264
 30
0.0
  0
VERTEX
  5
22BA
  8
0
 10
121.4243821813769
 20
205.14627119308761
 30
0.0
  0
VERTEX
  5
22BB
  8
0
 10
121.2974214233557
 20
205.08265403462951
 30
0.0
  0
VERTEX
  5
22BC
  8
0
 10
121.17175922583419
 20
205.01732273856399
 30
0.0
  0
VERTEX
  5
22BD
  8
0
 10
121.04744299530419
 20
204.95032175079291
 30
0.0
  0
VERTEX
  5
22BE
  8
0
 10
120.9858042341329
 20
204.91620961505311
 30
0.0
  0
VERTEX
  5
22BF
  8
0
 10
120.9245193990069
 20
204.8816977196683
 30
0.0
  0
VERTEX
  5
22C0
  8
0
 10
120.803034216716
 20
204.81149945857049
 30
0.0
  0
VERTEX
  5
22C1
  8
0
 10
120.6830321966702
 20
204.73977789893459
 30
0.0
  0
VERTEX
  5
22C2
  8
0
 10
120.62360103966419
 20
204.7033623636238
 30
0.0
  0
VERTEX
  5
22C3
  8
0
 10
120.5645569153143
 20
204.666586033454
 30
0.0
  0
VERTEX
  5
22C4
  8
0
 10
120.4476506404912
 20
204.59197884909011
 30
0.0
  0
VERTEX
  5
22C5
  8
0
 10
120.3323541977208
 20
204.5160132494064
 30
0.0
  0
VERTEX
  5
22C6
  8
0
 10
120.2753219946555
 20
204.47753932860971
 30
0.0
  0
VERTEX
  5
22C7
  8
0
 10
120.218706839193
 20
204.4387479656327
 30
0.0
  0
VERTEX
  5
22C8
  8
0
 10
120.1063970392118
 20
204.35999491266449
 30
0.0
  0
VERTEX
  5
22C9
  8
0
 10
119.99446942964801
 20
204.27906572000381
 30
0.0
  0
VERTEX
  5
22CA
  8
0
 10
119.8829457430631
 20
204.19592402963201
 30
0.0
  0
VERTEX
  5
22CB
  8
0
 10
119.77191245417551
 20
204.11058168684681
 30
0.0
  0
VERTEX
  5
22CC
  8
0
 10
119.6614548052264
 20
204.0230532235106
 30
0.0
  0
VERTEX
  5
22CD
  8
0
 10
119.6064681062129
 20
203.97847445005959
 30
0.0
  0
VERTEX
  5
22CE
  8
0
 10
119.5516566410483
 20
203.93335576595089
 30
0.0
  0
VERTEX
  5
22CF
  8
0
 10
119.44260024998481
 20
203.8415089292873
 30
0.0
  0
VERTEX
  5
22D0
  8
0
 10
119.3343662102158
 20
203.74753469726309
 30
0.0
  0
VERTEX
  5
22D1
  8
0
 10
119.2270332412258
 20
203.65145728661929
 30
0.0
  0
VERTEX
  5
22D2
  8
0
 10
119.1206780603285
 20
203.55330299500611
 30
0.0
  0
VERTEX
  5
22D3
  8
0
 10
119.01537524434499
 20
203.45310003140321
 30
0.0
  0
VERTEX
  5
22D4
  8
0
 10
118.9631411603398
 20
203.40223958964441
 30
0.0
  0
VERTEX
  5
22D5
  8
0
 10
118.91119707456799
 20
203.35087830594131
 30
0.0
  0
VERTEX
  5
22D6
  8
0
 10
118.80821335957
 20
203.24666916717689
 30
0.0
  0
VERTEX
  5
22D7
  8
0
 10
118.7064930870782
 20
203.14050704048009
 30
0.0
  0
VERTEX
  5
22D8
  8
0
 10
118.6561279002669
 20
203.08670505504779
 30
0.0
  0
SEQEND
  5
22D9
  8
0
  0
POLYLINE
  5
B7A
  8
0
 66
     1
 10
0.0
 20
0.0
 30
0.0
  0
VERTEX
  5
22DA
  8
0
 10
153.8546039204918
 20
202.2474732323688
 30
0.0
  0
VERTEX
  5
22DB
  8
0
 10
153.25251340130421
 20
202.11173261593899
 30
0.0
  0
VERTEX
  5
22DC
  8
0
 10
152.03833473037159
 20
201.86781547724999
 30
0.0
  0
VERTEX
  5
22DD
  8
0
 10
150.81342955475739
 20
201.6615213839718
 30
0.0
  0
VERTEX
  5
22DE
  8
0
 10
150.19793583979509
 20
201.5727408641655
 30
0.0
  0
VERTEX
  5
22DF
  8
0
 10
149.58094154578961
 20
201.49363946029271
 30
0.0
  0
VERTEX
  5
22E0
  8
0
 10
148.34404257970999
 20
201.36467078823509
 30
0.0
  0
VERTEX
  5
22E1
  8
0
 10
147.1056721655431
 20
201.2748154184637
 30
0.0
  0
VERTEX
  5
22E2
  8
0
 10
145.86870733484071
 20
201.2240176834037
 30
0.0
  0
VERTEX
  5
22E3
  8
0
 10
144.63631642831581
 20
201.21197623948279
 30
0.0
  0
VERTEX
  5
22E4
  8
0
 10
143.41164650103099
 20
201.2381110812272
 30
0.0
  0
VERTEX
  5
22E5
  8
0
 10
142.80318662259839
 20
201.26523782355989
 30
0.0
  0
VERTEX
  5
22E6
  8
0
 10
142.19782845468501
 20
201.30156620740311
 30
0.0
  0
VERTEX
  5
22E7
  8
0
 10
140.99792716152501
 20
201.4012153282867
 30
0.0
  0
VERTEX
  5
22E8
  8
0
 10
139.8149656351693
 20
201.53566592332371
 30
0.0
  0
VERTEX
  5
22E9
  8
0
 10
138.65196191534551
 20
201.70325571779929
 30
0.0
  0
VERTEX
  5
22EA
  8
0
 10
137.51188887554531
 20
201.9020562376212
 30
0.0
  0
VERTEX
  5
22EB
  8
0
 10
136.39518808246001
 20
202.13042013885729
 30
0.0
  0
VERTEX
  5
22EC
  8
0
 10
135.83700492552751
 20
202.25723011837351
 30
0.0
  0
VERTEX
  5
22ED
  8
0
 10
135.2768344211191
 20
202.3930870887757
 30
0.0
  0
VERTEX
  5
22EE
  8
0
 10
134.1521706094652
 20
202.69222608708611
 30
0.0
  0
VERTEX
  5
22EF
  8
0
 10
133.0244201133215
 20
203.0282575558478
 30
0.0
  0
VERTEX
  5
22F0
  8
0
 10
132.46037158297489
 20
203.2101750051271
 30
0.0
  0
SEQEND
  5
22F1
  8
0
  0
POLYLINE
  5
B7B
  8
0
 66
     1
 10
0.0
 20
0.0
 30
0.0
  0
VERTEX
  5
22F2
  8
0
 10
155.96391685774981
 20
202.452109746031
 30
0.0
  0
VERTEX
  5
22F3
  8
0
 10
155.90583497469811
 20
202.45399785538319
 30
0.0
  0
VERTEX
  5
22F4
  8
0
 10
155.79007214619199
 20
202.45650188284239
 30
0.0
  0
VERTEX
  5
22F5
  8
0
 10
155.6748884514503
 20
202.4573301986247
 30
0.0
  0
VERTEX
  5
22F6
  8
0
 10
155.61737570921761
 20
202.4571229982017
 30
0.0
  0
VERTEX
  5
22F7
  8
0
 10
155.559718818927
 20
202.45650022059829
 30
0.0
  0
VERTEX
  5
22F8
  8
0
 10
155.44399871093611
 20
202.4539957553319
 30
0.0
  0
VERTEX
  5
22F9
  8
0
 10
155.32778065517951
 20
202.44979360015401
 30
0.0
  0
VERTEX
  5
22FA
  8
0
 10
155.21111755862569
 20
202.44387241019959
 30
0.0
  0
VERTEX
  5
22FB
  8
0
 10
155.09406257856651
 20
202.43621270711009
 30
0.0
  0
VERTEX
  5
22FC
  8
0
 10
154.976668995539
 20
202.42679687882901
 30
0.0
  0
VERTEX
  5
22FD
  8
0
 10
154.9178618808493
 20
202.4214254222488
 30
0.0
  0
VERTEX
  5
22FE
  8
0
 10
154.858990087742
 20
202.4156091705708
 30
0.0
  0
VERTEX
  5
22FF
  8
0
 10
154.74107900662381
 20
202.40263566698951
 30
0.0
  0
VERTEX
  5
2300
  8
0
 10
154.62298865337431
 20
202.38786426551559
 30
0.0
  0
VERTEX
  5
2301
  8
0
 10
154.5047715561054
 20
202.37128464078299
 30
0.0
  0
VERTEX
  5
2302
  8
0
 10
154.38647974755671
 20
202.35288820002029
 30
0.0
  0
VERTEX
  5
2303
  8
0
 10
154.268164643223
 20
202.33266802924271
 30
0.0
  0
VERTEX
  5
2304
  8
0
 10
154.20901422379279
 20
202.3218723281623
 30
0.0
  0
VERTEX
  5
2305
  8
0
 10
154.1498769198538
 20
202.3106188300431
 30
0.0
  0
VERTEX
  5
2306
  8
0
 10
154.03166626072769
 20
202.2867368187099
 30
0.0
  0
VERTEX
  5
2307
  8
0
 10
153.91358250629071
 20
202.2610199198748
 30
0.0
  0
VERTEX
  5
2308
  8
0
 10
153.8546039204918
 20
202.2474732323688
 30
0.0
  0
SEQEND
  5
2309
  8
0
  0
LINE
  5
B7C
  8
0
 10
185.8666307063248
 20
201.37130478229909
 30
0.0
 11
155.96391685774981
 21
202.452109746031
 31
0.0
  0
POLYLINE
  5
B7D
  8
0
 66
     1
 10
0.0
 20
0.0
 30
0.0
  0
VERTEX
  5
230A
  8
0
 10
187.891538427131
 20
200.9180766778295
 30
0.0
  0
VERTEX
  5
230B
  8
0
 10
187.83792300744321
 20
200.9429371895674
 30
0.0
  0
VERTEX
  5
230C
  8
0
 10
187.72976313021201
 20
200.9906568591019
 30
0.0
  0
VERTEX
  5
230D
  8
0
 10
187.6204529925443
 20
201.03566854034631
 30
0.0
  0
VERTEX
  5
230E
  8
0
 10
187.56539055532241
 20
201.0571491185483
 30
0.0
  0
VERTEX
  5
230F
  8
0
 10
187.5100744748031
 20
201.07793945207521
 30
0.0
  0
VERTEX
  5
2310
  8
0
 10
187.39874085474321
 20
201.11742961298529
 30
0.0
  0
VERTEX
  5
2311
  8
0
 10
187.28657344630881
 20
201.15410332350601
 30
0.0
  0
VERTEX
  5
2312
  8
0
 10
187.17369680594169
 20
201.18793135026289
 30
0.0
  0
VERTEX
  5
2313
  8
0
 10
187.0602379233936
 20
201.21889130256841
 30
0.0
  0
VERTEX
  5
2314
  8
0
 10
186.94632538558881
 20
201.2469679130912
 30
0.0
  0
VERTEX
  5
2315
  8
0
 10
186.8892394037438
 20
201.25992218966991
 30
0.0
  0
VERTEX
  5
2316
  8
0
 10
186.83208851103331
 20
201.2721532239631
 30
0.0
  0
VERTEX
  5
2317
  8
0
 10
186.71765646734599
 20
201.2944466755095
 30
0.0
  0
VERTEX
  5
2318
  8
0
 10
186.60315852072131
 20
201.3138549182722
 30
0.0
  0
VERTEX
  5
2319
  8
0
 10
186.48872662714001
 20
201.33039138856421
 30
0.0
  0
VERTEX
  5
231A
  8
0
 10
186.37449567213309
 20
201.34407655071061
 30
0.0
  0
VERTEX
  5
231B
  8
0
 10
186.2606025867909
 20
201.3549382870608
 30
0.0
  0
VERTEX
  5
231C
  8
0
 10
186.2038258740929
 20
201.35932118358289
 30
0.0
  0
VERTEX
  5
231D
  8
0
 10
186.14718544765981
 20
201.36301217912509
 30
0.0
  0
VERTEX
  5
231E
  8
0
 10
186.03438257309949
 20
201.3683416803222
 30
0.0
  0
VERTEX
  5
231F
  8
0
 10
185.92233161272921
 20
201.37097818254739
 30
0.0
  0
VERTEX
  5
2320
  8
0
 10
185.86663070632491
 20
201.37130478229909
 30
0.0
  0
SEQEND
  5
2321
  8
0
  0
POLYLINE
  5
B7F
  8
0
 66
     1
 10
0.0
 20
0.0
 30
0.0
  0
VERTEX
  5
2322
  8
0
 10
185.86663070632491
 20
191.87130478229909
 30
0.0
  0
VERTEX
  5
2323
  8
0
 10
185.92233429457519
 20
191.8716314135024
 30
0.0
  0
VERTEX
  5
2324
  8
0
 10
186.03438961438641
 20
191.87426813310771
 30
0.0
  0
VERTEX
  5
2325
  8
0
 10
186.14719562576639
 20
191.87959798769671
 30
0.0
  0
VERTEX
  5
2326
  8
0
 10
186.2038372057923
 20
191.8832891874834
 30
0.0
  0
VERTEX
  5
2327
  8
0
 10
186.2606148187246
 20
191.88767229559531
 30
0.0
  0
VERTEX
  5
2328
  8
0
 10
186.37450901331121
 20
191.8985344485551
 30
0.0
  0
VERTEX
  5
2329
  8
0
 10
186.48874026881799
 20
191.91221997819389
 30
0.0
  0
VERTEX
  5
232A
  8
0
 10
186.60317178601599
 20
191.92875672842399
 30
0.0
  0
VERTEX
  5
232B
  8
0
 10
186.71766880577979
 20
191.94816513605741
 30
0.0
  0
VERTEX
  5
232C
  8
0
 10
186.83209949222811
 20
191.9704586202071
 30
0.0
  0
VERTEX
  5
232D
  8
0
 10
186.88924958459469
 20
191.98268961936449
 30
0.0
  0
VERTEX
  5
232E
  8
0
 10
186.9463347086481
 20
191.9956438276497
 30
0.0
  0
VERTEX
  5
232F
  8
0
 10
187.06024542821839
 20
192.02372021040941
 30
0.0
  0
VERTEX
  5
2330
  8
0
 10
187.1737024675088
 20
192.0546798348006
 30
0.0
  0
VERTEX
  5
2331
  8
0
 10
187.28657736687359
 20
192.08850746924881
 30
0.0
  0
VERTEX
  5
2332
  8
0
 10
187.3987432547579
 20
192.12518076944821
 30
0.0
  0
VERTEX
  5
2333
  8
0
 10
187.5100756825496
 20
192.1646705578959
 30
0.0
  0
VERTEX
  5
2334
  8
0
 10
187.5653913205841
 20
192.18546073911611
 30
0.0
  0
VERTEX
  5
2335
  8
0
 10
187.6204534324703
 20
192.20694119903411
 30
0.0
  0
VERTEX
  5
2336
  8
0
 10
187.72976308160131
 20
192.25195268476841
 30
0.0
  0
VERTEX
  5
2337
  8
0
 10
187.83792280294841
 20
192.2996722817515
 30
0.0
  0
VERTEX
  5
2338
  8
0
 10
187.891538427131
 20
192.32453288676871
 30
0.0
  0
SEQEND
  5
2339
  8
0
  0
CIRCLE
  5
B81
  8
0
 10
125.6166307063249
 20
196.62130478229909
 30
0.0
 40
5.0
  0
LINE
  5
B8B
  8
1
 10
125.6166307063249
 20
11.687259194052309
 30
0.0
 11
125.6166307063249
 21
34.687259194052317
 31
0.0
  0
LINE
  5
B8C
  8
1
 10
114.35663070632491
 20
23.187259194052331
 30
0.0
 11
192.50972826566081
 21
23.187259194052331
 31
0.0
  0
LINE
  5
B8D
  8
1
 10
125.60663070632491
 20
11.68726354187922
 30
0.0
 11
125.60663070632491
 21
34.687254846225422
 31
0.0
  0
LINE
  5
B8E
  8
0
 10
190.50972826566081
 20
22.185188810052711
 30
0.0
 11
190.50972826566081
 21
24.18932957805195
 31
0.0
  0
LINE
  5
B8F
  8
0
 10
116.35663070632491
 20
25.30914514763229
 30
0.0
 11
116.35663070632491
 21
21.06537324047234
 31
0.0
  0
ARC
  5
B98
  8
0
 10
144.86663070632281
 20
-20.902740805941679
 30
0.0
 40
39.499999999993747
 50
104.6798479306195
 51
108.3054346187775
  0
POLYLINE
  5
B99
  8
0
 66
     1
 10
0.0
 20
0.0
 30
0.0
  0
VERTEX
  5
233A
  8
0
 10
134.85663070632489
 20
17.307858508902179
 30
0.0
  0
VERTEX
  5
233B
  8
0
 10
135.35038861421339
 20
17.433810114085961
 30
0.0
  0
VERTEX
  5
233C
  8
0
 10
136.3479100924944
 20
17.667732345201291
 30
0.0
  0
VERTEX
  5
233D
  8
0
 10
137.35797978407459
 20
17.877024037689448
 30
0.0
  0
VERTEX
  5
233E
  8
0
 10
137.86741876968571
 20
17.972200123473819
 30
0.0
  0
VERTEX
  5
233F
  8
0
 10
138.37963159694019
 20
18.060945397424391
 30
0.0
  0
VERTEX
  5
2340
  8
0
 10
139.41188138943639
 20
18.218809647605521
 30
0.0
  0
VERTEX
  5
2341
  8
0
 10
140.4537192835229
 20
18.34998155536768
 30
0.0
  0
VERTEX
  5
2342
  8
0
 10
141.5041154737043
 20
18.453878603122469
 30
0.0
  0
VERTEX
  5
2343
  8
0
 10
142.56203476506221
 20
18.529971978585891
 30
0.0
  0
VERTEX
  5
2344
  8
0
 10
143.62646795990551
 20
18.577785993506211
 30
0.0
  0
VERTEX
  5
2345
  8
0
 10
144.16079475907679
 20
18.590952305935058
 30
0.0
  0
VERTEX
  5
2346
  8
0
 10
144.69634709665169
 20
18.596892147945422
 30
0.0
  0
VERTEX
  5
2347
  8
0
 10
145.77057910834839
 20
18.58691451397732
 30
0.0
  0
VERTEX
  5
2348
  8
0
 10
146.84805981068641
 20
18.547530913070808
 30
0.0
  0
VERTEX
  5
2349
  8
0
 10
147.9276799575882
 20
18.478472703558879
 30
0.0
  0
VERTEX
  5
234A
  8
0
 10
149.0083203051307
 20
18.379525005320701
 30
0.0
  0
VERTEX
  5
234B
  8
0
 10
150.08884725805191
 20
18.250527950145582
 30
0.0
  0
VERTEX
  5
234C
  8
0
 10
150.62871162449929
 20
18.174726147431102
 30
0.0
  0
VERTEX
  5
234D
  8
0
 10
151.16811944712211
 20
18.091377207537452
 30
0.0
  0
VERTEX
  5
234E
  8
0
 10
152.2450880530177
 20
17.902005903482529
 30
0.0
  0
VERTEX
  5
234F
  8
0
 10
153.3190709942331
 20
17.682311392790449
 30
0.0
  0
VERTEX
  5
2350
  8
0
 10
153.8546039204918
 20
17.561090743982682
 30
0.0
  0
SEQEND
  5
2351
  8
0
  0
ARC
  5
B9A
  8
0
 10
125.6166307063249
 20
23.18725919405232
 30
0.0
 40
9.5000000000000036
 50
43.91299907152743
 51
167.09375167335969
  0
POLYLINE
  5
B9B
  8
0
 66
     1
 10
0.0
 20
0.0
 30
0.0
  0
VERTEX
  5
2352
  8
0
 10
153.85460415265609
 20
28.813427698372578
 30
0.0
  0
VERTEX
  5
2353
  8
0
 10
153.3190712204098
 20
28.692207044860449
 30
0.0
  0
VERTEX
  5
2354
  8
0
 10
152.2450882669668
 20
28.472512525303081
 30
0.0
  0
VERTEX
  5
2355
  8
0
 10
151.16811964859559
 20
28.283141213125521
 30
0.0
  0
VERTEX
  5
2356
  8
0
 10
150.6287118196644
 20
28.199792269451208
 30
0.0
  0
VERTEX
  5
2357
  8
0
 10
150.0888474468463
 20
28.123990463140249
 30
0.0
  0
VERTEX
  5
2358
  8
0
 10
149.008320481016
 20
27.994993401328259
 30
0.0
  0
VERTEX
  5
2359
  8
0
 10
147.92768012037641
 20
27.896045697199089
 30
0.0
  0
VERTEX
  5
235A
  8
0
 10
146.84805996023221
 20
27.826987482544951
 30
0.0
  0
VERTEX
  5
235B
  8
0
 10
145.770579244549
 20
27.78760387724509
 30
0.0
  0
VERTEX
  5
235C
  8
0
 10
144.69634721944541
 20
27.777626239629878
 30
0.0
  0
VERTEX
  5
235D
  8
0
 10
144.1607948751566
 20
27.783566080095031
 30
0.0
  0
VERTEX
  5
235E
  8
0
 10
143.6264680692714
 20
27.79673239116309
 30
0.0
  0
VERTEX
  5
235F
  8
0
 10
142.56203486102021
 20
27.844546403910641
 30
0.0
  0
VERTEX
  5
2360
  8
0
 10
141.50411555631771
 20
27.92063977792397
 30
0.0
  0
VERTEX
  5
2361
  8
0
 10
140.4537193528935
 20
28.024536824938149
 30
0.0
  0
VERTEX
  5
2362
  8
0
 10
139.41188144570191
 20
28.155708732654041
 30
0.0
  0
VERTEX
  5
2363
  8
0
 10
138.3796316402763
 20
28.313572983465381
 30
0.0
  0
VERTEX
  5
2364
  8
0
 10
137.8674188066347
 20
28.402318257978418
 30
0.0
  0
VERTEX
  5
2365
  8
0
 10
137.35797981469449
 20
28.49749434448654
 30
0.0
  0
VERTEX
  5
2366
  8
0
 10
136.34791011064809
 20
28.70678603889397
 30
0.0
  0
VERTEX
  5
2367
  8
0
 10
135.35038862018621
 20
28.94070827253616
 30
0.0
  0
VERTEX
  5
2368
  8
0
 10
134.85663070632489
 20
29.066659879202529
 30
0.0
  0
SEQEND
  5
2369
  8
0
  0
ARC
  5
B9C
  8
0
 10
144.86663070632551
 20
67.277259194054963
 30
0.0
 40
39.500000000002707
 50
251.6945653812227
 51
255.3201520693797
  0
POLYLINE
  5
B9D
  8
0
 66
     1
 10
0.0
 20
0.0
 30
0.0
  0
VERTEX
  5
236A
  8
0
 10
155.96391685774981
 20
29.01806415778417
 30
0.0
  0
VERTEX
  5
236B
  8
0
 10
155.90578961072461
 20
29.019953576767591
 30
0.0
  0
VERTEX
  5
236C
  8
0
 10
155.78996115780899
 20
29.022457891098981
 30
0.0
  0
VERTEX
  5
236D
  8
0
 10
155.67474521292789
 20
29.023284607936219
 30
0.0
  0
VERTEX
  5
236E
  8
0
 10
155.6172252713597
 20
29.023076325782899
 30
0.0
  0
VERTEX
  5
236F
  8
0
 10
155.55956384957329
 20
29.02245239839371
 30
0.0
  0
VERTEX
  5
2370
  8
0
 10
155.44384196439131
 20
29.019945638495859
 30
0.0
  0
VERTEX
  5
2371
  8
0
 10
155.3276306067275
 20
29.015741492768019
 30
0.0
  0
VERTEX
  5
2372
  8
0
 10
155.21098114561809
 20
29.00981889830452
 30
0.0
  0
VERTEX
  5
2373
  8
0
 10
155.09394515398481
 20
29.00215856907333
 30
0.0
  0
VERTEX
  5
2374
  8
0
 10
154.97657429490459
 20
28.992742992351129
 30
0.0
  0
VERTEX
  5
2375
  8
0
 10
154.91777943183951
 20
28.987371995715609
 30
0.0
  0
VERTEX
  5
2376
  8
0
 10
154.8589202095967
 20
28.98155641740097
 30
0.0
  0
VERTEX
  5
2377
  8
0
 10
154.74103440681611
 20
28.968584836449828
 30
0.0
  0
VERTEX
  5
2378
  8
0
 10
154.6229681533828
 20
28.953815957971699
 30
0.0
  0
VERTEX
  5
2379
  8
0
 10
154.50477236562261
 20
28.937239172233848
 30
0.0
  0
VERTEX
  5
237A
  8
0
 10
154.3864975015436
 20
28.918845509020201
 30
0.0
  0
VERTEX
  5
237B
  8
0
 10
154.2681934536123
 20
28.898627587403421
 30
0.0
  0
VERTEX
  5
237C
  8
0
 10
154.2090458961886
 20
28.887832643537092
 30
0.0
  0
VERTEX
  5
237D
  8
0
 10
154.1499094420503
 20
28.876579557402881
 30
0.0
  0
VERTEX
  5
237E
  8
0
 10
154.0316938178313
 20
28.852697014277108
 30
0.0
  0
VERTEX
  5
237F
  8
0
 10
153.91359476103199
 20
28.826977097635421
 30
0.0
  0
VERTEX
  5
2380
  8
0
 10
153.85460415265609
 20
28.813427698372589
 30
0.0
  0
SEQEND
  5
2381
  8
0
  0
LINE
  5
B9E
  8
0
 10
185.86663070632491
 20
27.937259194052331
 30
0.0
 11
155.96391685774981
 21
29.018064157784149
 31
0.0
  0
LINE
  5
B9F
  8
0
 10
155.96391685774981
 20
17.356454230320509
 30
0.0
 11
185.86663070632491
 21
18.437259194052331
 31
0.0
  0
POLYLINE
  5
BA0
  8
0
 66
     1
 10
0.0
 20
0.0
 30
0.0
  0
VERTEX
  5
2382
  8
0
 10
153.8546039204918
 20
17.561090743982682
 30
0.0
  0
VERTEX
  5
2383
  8
0
 10
153.9136286980785
 20
17.54753363067249
 30
0.0
  0
VERTEX
  5
2384
  8
0
 10
154.03179423266761
 20
17.52180029914782
 30
0.0
  0
VERTEX
  5
2385
  8
0
 10
154.15007292916661
 20
17.497907084646009
 30
0.0
  0
VERTEX
  5
2386
  8
0
 10
154.2092392115957
 20
17.486649714126582
 30
0.0
  0
VERTEX
  5
2387
  8
0
 10
154.26841531260169
 20
17.47585117361427
 30
0.0
  0
VERTEX
  5
2388
  8
0
 10
154.38677210552731
 20
17.45562807208897
 30
0.0
  0
VERTEX
  5
2389
  8
0
 10
154.50509308838099
 20
17.437231799491531
 30
0.0
  0
VERTEX
  5
238A
  8
0
 10
154.62332733530809
 20
17.42065479292441
 30
0.0
  0
VERTEX
  5
238B
  8
0
 10
154.74142332526131
 20
17.405887846450071
 30
0.0
  0
VERTEX
  5
238C
  8
0
 10
154.85932905347991
 20
17.392920058885171
 30
0.0
  0
VERTEX
  5
238D
  8
0
 10
154.91819421322421
 20
17.38710696856408
 30
0.0
  0
VERTEX
  5
238E
  8
0
 10
154.9769921434405
 20
17.38173878992384
 30
0.0
  0
VERTEX
  5
238F
  8
0
 10
155.0943599594232
 20
17.37232962444337
 30
0.0
  0
VERTEX
  5
2390
  8
0
 10
155.21137971989
 20
17.36467634488892
 30
0.0
  0
VERTEX
  5
2391
  8
0
 10
155.32799861191711
 20
17.358760911681198
 30
0.0
  0
VERTEX
  5
2392
  8
0
 10
155.44416390697339
 20
17.354563451642761
 30
0.0
  0
VERTEX
  5
2393
  8
0
 10
155.55982307838281
 20
17.352062254492591
 30
0.0
  0
VERTEX
  5
2394
  8
0
 10
155.6174465376962
 20
17.351440468684331
 30
0.0
  0
VERTEX
  5
2395
  8
0
 10
155.67492392086061
 20
17.35123377751826
 30
0.0
  0
VERTEX
  5
2396
  8
0
 10
155.79005875864061
 20
17.352061900855251
 30
0.0
  0
VERTEX
  5
2397
  8
0
 10
155.90581907350639
 20
17.354565661880851
 30
0.0
  0
VERTEX
  5
2398
  8
0
 10
155.96391685774981
 20
17.356454230320519
 30
0.0
  0
SEQEND
  5
2399
  8
0
  0
ARC
  5
BA1
  8
0
 10
125.6166307063249
 20
23.18725919405232
 30
0.0
 40
9.5000000000000036
 50
192.90624832664011
 51
316.08700092847261
  0
LINE
  5
BA2
  8
0
 10
190.50972826566081
 20
24.18932957805195
 30
0.0
 11
190.4911715553437
 21
24.271750750384928
 31
0.0
  0
POLYLINE
  5
BA3
  8
0
 66
     1
 10
0.0
 20
0.0
 30
0.0
  0
VERTEX
  5
239A
  8
0
 10
190.4911715553437
 20
24.271750750384928
 30
0.0
  0
VERTEX
  5
239B
  8
0
 10
190.48604877707069
 20
24.293367998676391
 30
0.0
  0
VERTEX
  5
239C
  8
0
 10
190.4755001894186
 20
24.336529435469352
 30
0.0
  0
VERTEX
  5
239D
  8
0
 10
190.464548333127
 20
24.37959031297142
 30
0.0
  0
VERTEX
  5
239E
  8
0
 10
190.4589214773244
 20
24.40108186421152
 30
0.0
  0
VERTEX
  5
239F
  8
0
 10
190.45319416646521
 20
24.422546863425371
 30
0.0
  0
VERTEX
  5
23A0
  8
0
 10
190.4414386829049
 20
24.465395328202359
 30
0.0
  0
VERTEX
  5
23A1
  8
0
 10
190.42928291103161
 20
24.5081319581309
 30
0.0
  0
VERTEX
  5
23A2
  8
0
 10
190.38360110982831
 20
24.65677556819519
 30
0.0
  0
VERTEX
  5
23A3
  8
0
 10
190.29405617881079
 20
24.907841562200211
 30
0.0
  0
VERTEX
  5
23A4
  8
0
 10
190.2440358971746
 20
25.031391454797841
 30
0.0
  0
SEQEND
  5
23A5
  8
0
  0
POLYLINE
  5
BA4
  8
0
 66
     1
 10
0.0
 20
0.0
 30
0.0
  0
VERTEX
  5
23A6
  8
0
 10
190.2440358971746
 20
25.031391454797841
 30
0.0
  0
VERTEX
  5
23A7
  8
0
 10
190.24010999751141
 20
25.040682753188811
 30
0.0
  0
VERTEX
  5
23A8
  8
0
 10
190.23182117863229
 20
25.06012121258874
 30
0.0
  0
VERTEX
  5
23A9
  8
0
 10
190.22295623917239
 20
25.080649764394519
 30
0.0
  0
VERTEX
  5
23AA
  8
0
 10
190.21830989511051
 20
25.091304424053341
 30
0.0
  0
VERTEX
  5
23AB
  8
0
 10
190.2135219773954
 20
25.102209918611852
 30
0.0
  0
VERTEX
  5
23AC
  8
0
 10
190.203524033115
 20
25.1247462964721
 30
0.0
  0
VERTEX
  5
23AD
  8
0
 10
190.19296699102679
 20
25.1482065038165
 30
0.0
  0
VERTEX
  5
23AE
  8
0
 10
190.1818544887121
 20
25.17254096446138
 30
0.0
  0
VERTEX
  5
23AF
  8
0
 10
190.17018932497399
 20
25.197702731148329
 30
0.0
  0
VERTEX
  5
23B0
  8
0
 10
190.15797356485641
 20
25.223647288333609
 30
0.0
  0
VERTEX
  5
23B1
  8
0
 10
190.1516596803126
 20
25.236899819158619
 30
0.0
  0
VERTEX
  5
23B2
  8
0
 10
190.14520863838709
 20
25.250332357871191
 30
0.0
  0
VERTEX
  5
23B3
  8
0
 10
190.1318955695709
 20
25.277717432420008
 30
0.0
  0
VERTEX
  5
23B4
  8
0
 10
190.11803792378359
 20
25.30575787739842
 30
0.0
  0
VERTEX
  5
23B5
  8
0
 10
190.06526411450571
 20
25.408515033371049
 30
0.0
  0
VERTEX
  5
23B6
  8
0
 10
190.0147319038669
 20
25.501509927000139
 30
0.0
  0
VERTEX
  5
23B7
  8
0
 10
189.9592767601338
 20
25.598223374259529
 30
0.0
  0
VERTEX
  5
23B8
  8
0
 10
189.83338833133061
 20
25.80017594444028
 30
0.0
  0
VERTEX
  5
23B9
  8
0
 10
189.6870616063045
 20
26.009812601603841
 30
0.0
  0
VERTEX
  5
23BA
  8
0
 10
189.52012784354901
 20
26.22279187684374
 30
0.0
  0
VERTEX
  5
23BB
  8
0
 10
189.33264164511269
 20
26.435222890309252
 30
0.0
  0
VERTEX
  5
23BC
  8
0
 10
189.12463597666959
 20
26.643832881738788
 30
0.0
  0
VERTEX
  5
23BD
  8
0
 10
189.01297989260641
 20
26.745768263590509
 30
0.0
  0
VERTEX
  5
23BE
  8
0
 10
188.89625603130759
 20
26.845656437412249
 30
0.0
  0
VERTEX
  5
23BF
  8
0
 10
188.64774653367999
 20
27.037959747826289
 30
0.0
  0
VERTEX
  5
23C0
  8
0
 10
188.37945483430761
 20
27.2181666479425
 30
0.0
  0
VERTEX
  5
23C1
  8
0
 10
188.2139837367294
 20
27.316718450498708
 30
0.0
  0
VERTEX
  5
23C2
  8
0
 10
188.16550937718
 20
27.343899286324849
 30
0.0
  0
VERTEX
  5
23C3
  8
0
 10
188.11650707043941
 20
27.370625822283539
 30
0.0
  0
VERTEX
  5
23C4
  8
0
 10
188.09180862238961
 20
27.38381531090074
 30
0.0
  0
VERTEX
  5
23C5
  8
0
 10
188.0669709446523
 20
27.39689134372972
 30
0.0
  0
VERTEX
  5
23C6
  8
0
 10
188.0166466011151
 20
27.422814842624248
 30
0.0
  0
VERTEX
  5
23C7
  8
0
 10
187.96542076667629
 20
27.44843042771215
 30
0.0
  0
VERTEX
  5
23C8
  8
0
 10
187.9133061845782
 20
27.473705214558919
 30
0.0
  0
VERTEX
  5
23C9
  8
0
 10
187.8603164671089
 20
27.498606673350029
 30
0.0
  0
VERTEX
  5
23CA
  8
0
 10
187.80646607607011
 20
27.523102680421001
 30
0.0
  0
VERTEX
  5
23CB
  8
0
 10
187.77922287345751
 20
27.535188724555681
 30
0.0
  0
VERTEX
  5
23CC
  8
0
 10
187.75177029743281
 20
27.547161569339838
 30
0.0
  0
VERTEX
  5
23CD
  8
0
 10
187.69624520946479
 20
27.570752181374161
 30
0.0
  0
VERTEX
  5
23CE
  8
0
 10
187.6399076435749
 20
27.593843915105278
 30
0.0
  0
VERTEX
  5
23CF
  8
0
 10
187.58277513710041
 20
27.616406774876229
 30
0.0
  0
VERTEX
  5
23D0
  8
0
 10
187.52486587725269
 20
27.63841141767918
 30
0.0
  0
VERTEX
  5
23D1
  8
0
 10
187.46619863541559
 20
27.659829198001319
 30
0.0
  0
VERTEX
  5
23D2
  8
0
 10
187.43658677853301
 20
27.670309264187249
 30
0.0
  0
VERTEX
  5
23D3
  8
0
 10
187.40679269097271
 20
27.680632210066651
 30
0.0
  0
VERTEX
  5
23D4
  8
0
 10
187.3466677696174
 20
27.700793318358951
 30
0.0
  0
VERTEX
  5
23D5
  8
0
 10
187.28584431786649
 20
27.72028607736274
 30
0.0
  0
VERTEX
  5
23D6
  8
0
 10
187.25517731519261
 20
27.729773730628079
 30
0.0
  0
VERTEX
  5
23D7
  8
0
 10
187.22434381512741
 20
27.739084664584539
 30
0.0
  0
VERTEX
  5
23D8
  8
0
 10
187.16218875377601
 20
27.757163935475791
 30
0.0
  0
VERTEX
  5
23D9
  8
0
 10
187.0994025808273
 20
27.77449948702106
 30
0.0
  0
VERTEX
  5
23DA
  8
0
 10
187.06778039955799
 20
27.782880959868791
 30
0.0
  0
VERTEX
  5
23DB
  8
0
 10
187.03600963149131
 20
27.791067718456532
 30
0.0
  0
VERTEX
  5
23DC
  8
0
 10
186.97203505382291
 20
27.806845888609789
 30
0.0
  0
VERTEX
  5
23DD
  8
0
 10
186.9075047236928
 20
27.82181216925591
 30
0.0
  0
VERTEX
  5
23DE
  8
0
 10
186.8424451493315
 20
27.835945693787469
 30
0.0
  0
VERTEX
  5
23DF
  8
0
 10
186.77688336475219
 20
27.849226600397639
 30
0.0
  0
VERTEX
  5
23E0
  8
0
 10
186.71084681141869
 20
27.861636068877509
 30
0.0
  0
VERTEX
  5
23E1
  8
0
 10
186.67765915145159
 20
27.867508424723209
 30
0.0
  0
VERTEX
  5
23E2
  8
0
 10
186.6443631625028
 20
27.873156357521371
 30
0.0
  0
VERTEX
  5
23E3
  8
0
 10
186.5774475588203
 20
27.883772730944191
 30
0.0
  0
VERTEX
  5
23E4
  8
0
 10
186.51011921015041
 20
27.89347025449619
 30
0.0
  0
VERTEX
  5
23E5
  8
0
 10
186.44240864034151
 20
27.902233188752579
 30
0.0
  0
VERTEX
  5
23E6
  8
0
 10
186.37434723639271
 20
27.91004692219509
 30
0.0
  0
VERTEX
  5
23E7
  8
0
 10
186.3059671236484
 20
27.916898029356059
 30
0.0
  0
VERTEX
  5
23E8
  8
0
 10
186.27166775957571
 20
27.919958739290109
 30
0.0
  0
VERTEX
  5
23E9
  8
0
 10
186.2373010309982
 20
27.92277432024574
 30
0.0
  0
VERTEX
  5
23EA
  8
0
 10
186.16838214580449
 20
27.927664880148392
 30
0.0
  0
VERTEX
  5
23EB
  8
0
 10
186.09924395837439
 20
27.931560098819109
 30
0.0
  0
VERTEX
  5
23EC
  8
0
 10
186.06460313422829
 20
27.93313181326474
 30
0.0
  0
SEQEND
  5
23ED
  8
0
  0
POLYLINE
  5
BA5
  8
0
 66
     1
 10
0.0
 20
0.0
 30
0.0
  0
VERTEX
  5
23EE
  8
0
 10
186.06460313422829
 20
27.93313181326474
 30
0.0
  0
VERTEX
  5
23EF
  8
0
 10
186.03162233446091
 20
27.934392830537099
 30
0.0
  0
VERTEX
  5
23F0
  8
0
 10
185.9656384301172
 20
27.93622723675692
 30
0.0
  0
VERTEX
  5
23F1
  8
0
 10
185.8996354055306
 20
27.93714452843993
 30
0.0
  0
VERTEX
  5
23F2
  8
0
 10
185.86663070632491
 20
27.937259194052331
 30
0.0
  0
SEQEND
  5
23F3
  8
0
  0
POLYLINE
  5
BA6
  8
0
 66
     1
 10
0.0
 20
0.0
 30
0.0
  0
VERTEX
  5
23F4
  8
0
 10
186.06460313422829
 20
18.441386574839921
 30
0.0
  0
VERTEX
  5
23F5
  8
0
 10
186.09924395837439
 20
18.442958289285549
 30
0.0
  0
VERTEX
  5
23F6
  8
0
 10
186.1683821458044
 20
18.446853507956241
 30
0.0
  0
VERTEX
  5
23F7
  8
0
 10
186.23730103099811
 20
18.451744067858911
 30
0.0
  0
VERTEX
  5
23F8
  8
0
 10
186.27166775957551
 20
18.454559648814541
 30
0.0
  0
VERTEX
  5
23F9
  8
0
 10
186.30596712364829
 20
18.457620358748581
 30
0.0
  0
VERTEX
  5
23FA
  8
0
 10
186.37434723639251
 20
18.46447146590954
 30
0.0
  0
VERTEX
  5
23FB
  8
0
 10
186.4424086403412
 20
18.472285199352061
 30
0.0
  0
VERTEX
  5
23FC
  8
0
 10
186.51011921015021
 20
18.481048133608422
 30
0.0
  0
VERTEX
  5
23FD
  8
0
 10
186.5774475588199
 20
18.490745657160421
 30
0.0
  0
VERTEX
  5
23FE
  8
0
 10
186.6443631625024
 20
18.501362030583209
 30
0.0
  0
VERTEX
  5
23FF
  8
0
 10
186.67765915145111
 20
18.507009963381361
 30
0.0
  0
VERTEX
  5
2400
  8
0
 10
186.71084681141821
 20
18.512882319227071
 30
0.0
  0
VERTEX
  5
2401
  8
0
 10
186.7768833647516
 20
18.525291787706919
 30
0.0
  0
VERTEX
  5
2402
  8
0
 10
186.8424451493309
 20
18.538572694317061
 30
0.0
  0
VERTEX
  5
2403
  8
0
 10
186.9075047236922
 20
18.552706218848609
 30
0.0
  0
VERTEX
  5
2404
  8
0
 10
186.97203505382231
 20
18.567672499494702
 30
0.0
  0
VERTEX
  5
2405
  8
0
 10
187.0360096314906
 20
18.583450669647942
 30
0.0
  0
VERTEX
  5
2406
  8
0
 10
187.06778039955731
 20
18.591637428235678
 30
0.0
  0
VERTEX
  5
2407
  8
0
 10
187.09940258082639
 20
18.600018901083399
 30
0.0
  0
VERTEX
  5
2408
  8
0
 10
187.16218875377521
 20
18.617354452628639
 30
0.0
  0
VERTEX
  5
2409
  8
0
 10
187.2243438151265
 20
18.635433723519881
 30
0.0
  0
VERTEX
  5
240A
  8
0
 10
187.2551773151917
 20
18.64474465747632
 30
0.0
  0
VERTEX
  5
240B
  8
0
 10
187.2858443178657
 20
18.65423231074163
 30
0.0
  0
VERTEX
  5
240C
  8
0
 10
187.3466677696164
 20
18.673725069745409
 30
0.0
  0
VERTEX
  5
240D
  8
0
 10
187.4067926909718
 20
18.69388617803769
 30
0.0
  0
VERTEX
  5
240E
  8
0
 10
187.43658677853199
 20
18.704209123917071
 30
0.0
  0
VERTEX
  5
240F
  8
0
 10
187.46619863541471
 20
18.714689190102991
 30
0.0
  0
VERTEX
  5
2410
  8
0
 10
187.52486587725161
 20
18.736106970425109
 30
0.0
  0
VERTEX
  5
2411
  8
0
 10
187.5827751370993
 20
18.758111613228039
 30
0.0
  0
VERTEX
  5
2412
  8
0
 10
187.63990764357371
 20
18.780674472998928
 30
0.0
  0
VERTEX
  5
2413
  8
0
 10
187.6962452094638
 20
18.803766206730032
 30
0.0
  0
VERTEX
  5
2414
  8
0
 10
187.75177029743159
 20
18.827356818764329
 30
0.0
  0
VERTEX
  5
2415
  8
0
 10
187.77922287345629
 20
18.839329663548469
 30
0.0
  0
VERTEX
  5
2416
  8
0
 10
187.80646607606889
 20
18.851415707683142
 30
0.0
  0
VERTEX
  5
2417
  8
0
 10
187.86031646710771
 20
18.875911714754078
 30
0.0
  0
VERTEX
  5
2418
  8
0
 10
187.9133061845769
 20
18.90081317354516
 30
0.0
  0
VERTEX
  5
2419
  8
0
 10
187.96542076667509
 20
18.926087960391911
 30
0.0
  0
VERTEX
  5
241A
  8
0
 10
188.01664660111391
 20
18.951703545479781
 30
0.0
  0
VERTEX
  5
241B
  8
0
 10
188.0669709446509
 20
18.97762704437427
 30
0.0
  0
VERTEX
  5
241C
  8
0
 10
188.0918086223883
 20
18.990703077203221
 30
0.0
  0
VERTEX
  5
241D
  8
0
 10
188.1165070704381
 20
19.003892565820401
 30
0.0
  0
VERTEX
  5
241E
  8
0
 10
188.16550937717869
 20
19.030619101779081
 30
0.0
  0
VERTEX
  5
241F
  8
0
 10
188.21398373672801
 20
19.057799937605171
 30
0.0
  0
VERTEX
  5
2420
  8
0
 10
188.3794548343063
 20
19.156351740161281
 30
0.0
  0
VERTEX
  5
2421
  8
0
 10
188.6477465336784
 20
19.336558640277271
 30
0.0
  0
VERTEX
  5
2422
  8
0
 10
188.896256031306
 20
19.528861950691109
 30
0.0
  0
VERTEX
  5
2423
  8
0
 10
189.01297989260479
 20
19.628750124512731
 30
0.0
  0
VERTEX
  5
2424
  8
0
 10
189.1246359766678
 20
19.730685506364349
 30
0.0
  0
VERTEX
  5
2425
  8
0
 10
189.3326416451111
 20
19.939295497793651
 30
0.0
  0
VERTEX
  5
2426
  8
0
 10
189.52012784354741
 20
20.151726511259
 30
0.0
  0
VERTEX
  5
2427
  8
0
 10
189.68706160630299
 20
20.36470578649876
 30
0.0
  0
VERTEX
  5
2428
  8
0
 10
189.8333883313293
 20
20.5743424436622
 30
0.0
  0
VERTEX
  5
2429
  8
0
 10
189.9592767601325
 20
20.776295013842901
 30
0.0
  0
VERTEX
  5
242A
  8
0
 10
190.01473190386571
 20
20.873008461102291
 30
0.0
  0
VERTEX
  5
242B
  8
0
 10
190.06526411450449
 20
20.966003354731399
 30
0.0
  0
VERTEX
  5
242C
  8
0
 10
190.11803792378251
 20
21.068760510704109
 30
0.0
  0
VERTEX
  5
242D
  8
0
 10
190.13189556956971
 20
21.09680095568255
 30
0.0
  0
VERTEX
  5
242E
  8
0
 10
190.14520863838609
 20
21.124186030231449
 30
0.0
  0
VERTEX
  5
242F
  8
0
 10
190.15165968031161
 20
21.13761856894406
 30
0.0
  0
VERTEX
  5
2430
  8
0
 10
190.1579735648555
 20
21.15087109976918
 30
0.0
  0
VERTEX
  5
2431
  8
0
 10
190.17018932497319
 20
21.176815656954709
 30
0.0
  0
VERTEX
  5
2432
  8
0
 10
190.18185448871159
 20
21.201977423641949
 30
0.0
  0
VERTEX
  5
2433
  8
0
 10
190.1929669910264
 20
21.226311884287171
 30
0.0
  0
VERTEX
  5
2434
  8
0
 10
190.20352403311469
 20
21.249772091631868
 30
0.0
  0
VERTEX
  5
2435
  8
0
 10
190.2135219773952
 20
21.272308469492351
 30
0.0
  0
VERTEX
  5
2436
  8
0
 10
190.21830989511039
 20
21.28321396405099
 30
0.0
  0
VERTEX
  5
2437
  8
0
 10
190.22295623917231
 20
21.293868623709901
 30
0.0
  0
VERTEX
  5
2438
  8
0
 10
190.23182117863229
 20
21.31439717551585
 30
0.0
  0
VERTEX
  5
2439
  8
0
 10
190.24010999751141
 20
21.33383563491584
 30
0.0
  0
VERTEX
  5
243A
  8
0
 10
190.2440358971746
 20
21.34312693330682
 30
0.0
  0
SEQEND
  5
243B
  8
0
  0
POLYLINE
  5
BA7
  8
0
 66
     1
 10
0.0
 20
0.0
 30
0.0
  0
VERTEX
  5
243C
  8
0
 10
190.2440358971746
 20
21.34312693330682
 30
0.0
  0
VERTEX
  5
243D
  8
0
 10
190.29405617881091
 20
21.466676825904429
 30
0.0
  0
VERTEX
  5
243E
  8
0
 10
190.38360110982831
 20
21.717742819909478
 30
0.0
  0
VERTEX
  5
243F
  8
0
 10
190.42928291103161
 20
21.86638642997374
 30
0.0
  0
VERTEX
  5
2440
  8
0
 10
190.4414386829049
 20
21.909123059902299
 30
0.0
  0
VERTEX
  5
2441
  8
0
 10
190.45319416646521
 20
21.951971524679301
 30
0.0
  0
VERTEX
  5
2442
  8
0
 10
190.4589214773244
 20
21.973436523893149
 30
0.0
  0
VERTEX
  5
2443
  8
0
 10
190.464548333127
 20
21.994928075133242
 30
0.0
  0
VERTEX
  5
2444
  8
0
 10
190.47550018941871
 20
22.03798895263532
 30
0.0
  0
VERTEX
  5
2445
  8
0
 10
190.48604877707069
 20
22.081150389428249
 30
0.0
  0
VERTEX
  5
2446
  8
0
 10
190.4911715553437
 20
22.102767637719719
 30
0.0
  0
SEQEND
  5
2447
  8
0
  0
LINE
  5
BA8
  8
0
 10
190.4911715553437
 20
22.102767637719719
 30
0.0
 11
190.50972826566081
 21
22.185188810052718
 31
0.0
  0
POLYLINE
  5
BA9
  8
0
 66
     1
 10
0.0
 20
0.0
 30
0.0
  0
VERTEX
  5
2448
  8
0
 10
185.86663070632491
 20
18.437259194052331
 30
0.0
  0
VERTEX
  5
2449
  8
0
 10
185.89963540553049
 20
18.437373859664731
 30
0.0
  0
VERTEX
  5
244A
  8
0
 10
185.9656384301172
 20
18.438291151347741
 30
0.0
  0
VERTEX
  5
244B
  8
0
 10
186.03162233446091
 20
18.440125557567558
 30
0.0
  0
VERTEX
  5
244C
  8
0
 10
186.06460313422829
 20
18.441386574839921
 30
0.0
  0
SEQEND
  5
244D
  8
0
  0
ARC
  5
BAA
  8
0
 10
125.60663070632491
 20
23.187259194052331
 30
0.0
 40
9.25
 50
193.35017161745111
 51
166.64982838254861
  0
POLYLINE
  5
BAC
  8
0
 66
     1
 10
0.0
 20
0.0
 30
0.0
  0
VERTEX
  5
244E
  8
0
 10
116.6065929534743
 20
21.051417334909988
 30
0.0
  0
VERTEX
  5
244F
  8
0
 10
116.579699946563
 20
21.168095738938991
 30
0.0
  0
VERTEX
  5
2450
  8
0
 10
116.5304559163114
 20
21.402447948815521
 30
0.0
  0
VERTEX
  5
2451
  8
0
 10
116.4872949447536
 20
21.637996379766822
 30
0.0
  0
VERTEX
  5
2452
  8
0
 10
116.4680048056244
 20
21.756169872225431
 30
0.0
  0
VERTEX
  5
2453
  8
0
 10
116.45024595935421
 20
21.874583161879229
 30
0.0
  0
VERTEX
  5
2454
  8
0
 10
116.4193337911853
 20
22.112049729312471
 30
0.0
  0
VERTEX
  5
2455
  8
0
 10
116.3945791582849
 20
22.350236926574208
 30
0.0
  0
VERTEX
  5
2456
  8
0
 10
116.3759986517708
 20
22.588985115189569
 30
0.0
  0
VERTEX
  5
2457
  8
0
 10
116.3636047247209
 20
22.828134280694531
 30
0.0
  0
VERTEX
  5
2458
  8
0
 10
116.3574056838269
 20
23.067524139881229
 30
0.0
  0
VERTEX
  5
2459
  8
0
 10
116.35663070632491
 20
23.187259194052331
 30
0.0
  0
VERTEX
  5
245A
  8
0
 10
116.3574056838269
 20
23.306994248223429
 30
0.0
  0
VERTEX
  5
245B
  8
0
 10
116.3636047247209
 20
23.546384107410141
 30
0.0
  0
VERTEX
  5
245C
  8
0
 10
116.3759986517708
 20
23.785533272915089
 30
0.0
  0
VERTEX
  5
245D
  8
0
 10
116.3945791582849
 20
24.02428146153045
 30
0.0
  0
VERTEX
  5
245E
  8
0
 10
116.4193337911853
 20
24.262468658792191
 30
0.0
  0
VERTEX
  5
245F
  8
0
 10
116.45024595935421
 20
24.499935226225428
 30
0.0
  0
VERTEX
  5
2460
  8
0
 10
116.4680048056244
 20
24.61834851587923
 30
0.0
  0
VERTEX
  5
2461
  8
0
 10
116.4872949447536
 20
24.73652200833785
 30
0.0
  0
VERTEX
  5
2462
  8
0
 10
116.5304559163114
 20
24.972070439289141
 30
0.0
  0
VERTEX
  5
2463
  8
0
 10
116.579699946563
 20
25.20642264916567
 30
0.0
  0
VERTEX
  5
2464
  8
0
 10
116.6065929534743
 20
25.32310105319468
 30
0.0
  0
SEQEND
  5
2465
  8
0
  0
CIRCLE
  5
BAE
  8
0
 10
125.6166307063249
 20
23.187259194052331
 30
0.0
 40
4.0
  0
CIRCLE
  5
BAF
  8
0
 10
125.6166307063249
 20
23.187259194052331
 30
0.0
 40
6.75
  0
CIRCLE
  5
BB5
  8
3
 10
125.60663070632491
 20
23.187259194052331
 30
0.0
 40
3.243000000000023
  0
LINE
  5
BB8
  8
1
 10
125.6166307063249
 20
79.731639790970902
 30
0.0
 11
125.6166307063249
 21
140.73163979097089
 31
0.0
  0
LINE
  5
BCA
  8
0
 10
134.85663070632489
 20
113.4816020381203
 30
0.0
 11
134.60666845917541
 21
113.2316397909709
 31
0.0
  0
TEXT
  5
18B9
  8
0
 62
     3
 10
0.0
 20
0.0
 30
0.0
 40
10.0
  1
FKRP8X25-SUS
  7
STANDARD1
  0
ENDSEC
  0
EOF
