  0
SECTION
  2
HEADER
  9
$ACADVER
  1
AC1009
  9
$INSBASE
 10
0.0
 20
0.0
 30
0.0
  9
$EXTMIN
 10
0.0
 20
-2.960436562073669
 30
0.0
  9
$EXTMAX
 10
257.359634178335
 20
227.73502202255119
 30
0.0
  9
$LIMMIN
 10
0.0
 20
0.0
  9
$LIMMAX
 10
187.5
 20
135.0
  9
$ORTHOMODE
 70
     0
  9
$REGENMODE
 70
     1
  9
$FILLMODE
 70
     1
  9
$QTEXTMODE
 70
     0
  9
$MIRRTEXT
 70
     0
  9
$DRAGMODE
 70
     2
  9
$LTSCALE
 40
5.0
  9
$OSMODE
 70
    55
  9
$ATTMODE
 70
     1
  9
$TEXTSIZE
 40
4.0
  9
$TRACEWID
 40
0.05
  9
$TEXTSTYLE
  7
STANDARD
  9
$CLAYER
  8
0
  9
$CELTYPE
  6
BYLAYER
  9
$CECOLOR
 62
   256
  9
$DIMSCALE
 40
0.5
  9
$DIMASZ
 40
3.0
  9
$DIMEXO
 40
2.0
  9
$DIMDLI
 40
0.38
  9
$DIMRND
 40
0.0
  9
$DIMDLE
 40
0.0
  9
$DIMEXE
 40
2.0
  9
$DIMTP
 40
0.0
  9
$DIMTM
 40
0.0
  9
$DIMTXT
 40
3.0
  9
$DIMCEN
 40
0.0
  9
$DIMTSZ
 40
0.0
  9
$DIMTOL
 70
     0
  9
$DIMLIM
 70
     0
  9
$DIMTIH
 70
     0
  9
$DIMTOH
 70
     0
  9
$DIMSE1
 70
     0
  9
$DIMSE2
 70
     0
  9
$DIMTAD
 70
     1
  9
$DIMZIN
 70
     0
  9
$DIMBLK
  1

  9
$DIMASO
 70
     0
  9
$DIMSHO
 70
     0
  9
$DIMPOST
  1

  9
$DIMAPOST
  1

  9
$DIMALT
 70
     0
  9
$DIMALTD
 70
     2
  9
$DIMALTF
 40
25.399999999999999
  9
$DIMLFAC
 40
1.0
  9
$DIMTOFL
 70
     0
  9
$DIMTVP
 40
1.6000000000000001
  9
$DIMTIX
 70
     1
  9
$DIMSOXD
 70
     0
  9
$DIMSAH
 70
     0
  9
$DIMBLK1
  1

  9
$DIMBLK2
  1

  9
$DIMSTYLE
  2
STANDARD
  9
$DIMCLRD
 70
     0
  9
$DIMCLRE
 70
     0
  9
$DIMCLRT
 70
     0
  9
$DIMTFAC
 40
1.0
  9
$DIMGAP
 40
0.09
  9
$LUNITS
 70
     2
  9
$LUPREC
 70
     4
  9
$SKETCHINC
 40
0.1
  9
$FILLETRAD
 40
1.25
  9
$AUNITS
 70
     0
  9
$AUPREC
 70
     0
  9
$MENU
  1
E:\r13\win\SUPPORT\ACAD
  9
$ELEVATION
 40
0.0
  9
$PELEVATION
 40
0.0
  9
$THICKNESS
 40
0.0
  9
$LIMCHECK
 70
     0
  9
$BLIPMODE
 70
     0
  9
$CHAMFERA
 40
0.0
  9
$CHAMFERB
 40
0.0
  9
$SKPOLY
 70
     0
  9
$TDCREATE
 40
2449840.6143865739
  9
$TDUPDATE
 40
2456598.6513373032
  9
$TDINDWG
 40
0.3006587384
  9
$TDUSRTIMER
 40
0.3006587384
  9
$USRTIMER
 70
     1
  9
$ANGBASE
 50
0.0
  9
$ANGDIR
 70
     0
  9
$PDMODE
 70
     0
  9
$PDSIZE
 40
0.0
  9
$PLINEWID
 40
0.0
  9
$COORDS
 70
     1
  9
$SPLFRAME
 70
     0
  9
$SPLINETYPE
 70
     6
  9
$SPLINESEGS
 70
     8
  9
$ATTDIA
 70
     0
  9
$ATTREQ
 70
     1
  9
$HANDLING
 70
     1
  9
$HANDSEED
  5
FB8
  9
$SURFTAB1
 70
     6
  9
$SURFTAB2
 70
     6
  9
$SURFTYPE
 70
     6
  9
$SURFU
 70
     6
  9
$SURFV
 70
     6
  9
$UCSNAME
  2

  9
$UCSORG
 10
0.0
 20
0.0
 30
0.0
  9
$UCSXDIR
 10
1.0
 20
0.0
 30
0.0
  9
$UCSYDIR
 10
0.0
 20
1.0
 30
0.0
  9
$PUCSNAME
  2

  9
$PUCSORG
 10
0.0
 20
0.0
 30
0.0
  9
$PUCSXDIR
 10
1.0
 20
0.0
 30
0.0
  9
$PUCSYDIR
 10
0.0
 20
1.0
 30
0.0
  9
$USERI1
 70
     0
  9
$USERI2
 70
     1
  9
$USERI3
 70
     1
  9
$USERI4
 70
     0
  9
$USERI5
 70
     0
  9
$USERR1
 40
0.0
  9
$USERR2
 40
0.0
  9
$USERR3
 40
0.0
  9
$USERR4
 40
0.0
  9
$USERR5
 40
0.0
  9
$WORLDVIEW
 70
     1
  9
$SHADEDGE
 70
     3
  9
$SHADEDIF
 70
    70
  9
$TILEMODE
 70
     1
  9
$MAXACTVP
 70
    16
  9
$PLIMCHECK
 70
     0
  9
$PEXTMIN
 10
1.0000000000000000E+020
 20
1.0000000000000000E+020
 30
1.0000000000000000E+020
  9
$PEXTMAX
 10
-1.0000000000000000E+020
 20
-1.0000000000000000E+020
 30
-1.0000000000000000E+020
  9
$PLIMMIN
 10
0.0
 20
0.0
  9
$PLIMMAX
 10
12.0
 20
9.0
  9
$UNITMODE
 70
     0
  9
$VISRETAIN
 70
     0
  9
$PLINEGEN
 70
     0
  9
$PSLTSCALE
 70
     0
  0
ENDSEC
  0
SECTION
  2
TABLES
  0
TABLE
  2
VPORT
 70
     1
  0
VPORT
  2
*ACTIVE
 70
     0
 10
0.0
 20
0.0
 11
1.0
 21
1.0
 12
128.67981768837959
 22
147.383009968153
 13
0.0
 23
0.0
 14
5.0
 24
5.0
 15
5.0
 25
5.0
 16
0.0
 26
0.0
 36
1.0
 17
0.0
 27
0.0
 37
0.0
 40
303.33910631753417
 41
1.7807262569832401
 42
50.0
 43
0.0
 44
0.0
 50
0.0
 51
0.0
 71
     0
 72
   100
 73
     1
 74
     0
 75
     0
 76
     0
 77
     0
 78
     0
  0
ENDTAB
  0
TABLE
  2
LTYPE
 70
     3
  0
LTYPE
  2
CONTINUOUS
 70
     0
  3
Solid Line
 72
    65
 73
     0
 40
0.0
  0
LTYPE
  2
CENTER
 70
     0
  3
____ _ ____ _ ____ _ ____ _ ____ _ ____ _ ____
 72
    65
 73
     4
 40
2.0
 49
1.25
 49
-0.25
 49
0.25
 49
-0.25
  0
LTYPE
  2
PHANTOM2
 70
     0
  3
___ _ _ ___ _ _ ___ _ _ ___ _ _
 72
    65
 73
     6
 40
1.25
 49
0.625
 49
-0.125
 49
0.125
 49
-0.125
 49
0.125
 49
-0.125
  0
ENDTAB
  0
TABLE
  2
LAYER
 70
     3
  0
LAYER
  2
0
 70
     0
 62
     7
  6
CONTINUOUS
  0
LAYER
  2
1
 70
     0
 62
     1
  6
CENTER
  0
LAYER
  2
3
 70
     0
 62
     3
  6
CONTINUOUS
  0
ENDTAB
  0
TABLE
  2
STYLE
 70
     2
  0
STYLE
  2
STANDARD
 70
     0
 40
0.0
 41
1.0
 50
0.0
 71
     0
 42
4.0
  3
TXT
  4
BIGFONT
  0
STYLE
  2
STANDARD1
 70
     0
 40
0.0
 41
1.0
 50
0.0
 71
     0
 42
3.0
  3
txt
  4

  0
ENDTAB
  0
TABLE
  2
VIEW
 70
     1
  0
VIEW
  2
ALL
 70
     0
 40
179.66152299999999
 10
141.903918
 20
89.830760999999995
 41
0.0
 11
0.0
 21
0.0
 31
1.0
 12
0.0
 22
0.0
 32
0.0
 42
0.0
 43
0.0
 44
0.0
 50
0.0
 71
     0
  0
ENDTAB
  0
TABLE
  2
UCS
 70
     0
  0
ENDTAB
  0
TABLE
  2
APPID
 70
     4
  0
APPID
  2
ACAD
 70
     0
  0
APPID
  2
DCO15
 70
     0
  0
APPID
  2
ACAD_MLEADERVER
 70
     0
  0
APPID
  2
ACAD_NAV_VCDISPLAY
 70
     0
  0
ENDTAB
  0
TABLE
  2
DIMSTYLE
 70
     1
  0
DIMSTYLE
  2
STANDARD
 70
     0
  3

  4

  5

  6

  7

 40
1.0
 41
0.18
 42
0.0625
 43
0.38
 44
0.18
 45
0.0
 46
0.0
 47
0.0
 48
0.0
140
0.18
141
0.09
142
0.0
143
25.399999999999999
144
1.0
145
0.0
146
1.0
147
0.09
 71
     0
 72
     0
 73
     1
 74
     1
 75
     0
 76
     0
 77
     0
 78
     0
170
     0
171
     2
172
     0
173
     0
174
     0
175
     0
176
     0
177
     0
178
     0
  0
ENDTAB
  0
ENDSEC
  0
SECTION
  2
BLOCKS
  0
BLOCK
  8
0
  2
$MODEL_SPACE
 70
     0
 10
0.0
 20
0.0
 30
0.0
  3
$MODEL_SPACE
  1

  0
ENDBLK
  5
1BD
  8
0
  0
BLOCK
 67
     1
  8
0
  2
$PAPER_SPACE
 70
     0
 10
0.0
 20
0.0
 30
0.0
  3
$PAPER_SPACE
  1

  0
ENDBLK
  5
1BB
 67
     1
  8
0
  0
ENDSEC
  0
SECTION
  2
ENTITIES
  0
LINE
  5
502
  8
0
 10
101.66185881231991
 20
141.6711037069193
 30
0.0
 11
101.66185881231991
 21
145.6711037069193
 31
0.0
  0
LINE
  5
503
  8
0
 10
91.661858812319863
 20
145.6711037069193
 30
0.0
 11
91.661858812319863
 21
141.6711037069193
 31
0.0
  0
LINE
  5
50B
  8
0
 10
91.661858812319863
 20
141.6711037069193
 30
0.0
 11
101.66185881231991
 21
141.6711037069193
 31
0.0
  0
LINE
  5
511
  8
1
 10
96.661858812319892
 20
177.53814512593539
 30
0.0
 11
96.661858812319849
 21
86.671103706919382
 31
0.0
  0
LINE
  5
512
  8
0
 10
100.0069189191944
 20
172.6711037069193
 30
0.0
 11
93.316798705445336
 21
172.6711037069193
 31
0.0
  0
LINE
  5
52F
  8
0
 10
103.16185881231981
 20
145.6711037069193
 30
0.0
 11
90.161858812319878
 21
145.6711037069193
 31
0.0
  0
LINE
  5
535
  8
0
 10
163.22641264403339
 20
141.6711037069193
 30
0.0
 11
163.22641264403339
 21
145.6711037069193
 31
0.0
  0
LINE
  5
536
  8
0
 10
153.22641264403339
 20
145.6711037069193
 30
0.0
 11
153.22641264403339
 21
141.6711037069193
 31
0.0
  0
LINE
  5
53E
  8
0
 10
153.22641264403339
 20
141.6711037069193
 30
0.0
 11
163.22641264403339
 21
141.6711037069193
 31
0.0
  0
LINE
  5
544
  8
0
 10
198.22641264403339
 20
169.29578104123891
 30
0.0
 11
198.22641264403339
 21
170.16800624022869
 31
0.0
  0
LINE
  5
545
  8
0
 10
151.7164126440334
 20
160.50276042909539
 30
0.0
 11
151.7164126440334
 21
145.6711037069193
 31
0.0
  0
LINE
  5
546
  8
0
 10
164.7164126440334
 20
145.6711037069193
 30
0.0
 11
164.7164126440334
 21
156.135427234139
 31
0.0
  0
LINE
  5
549
  8
0
 10
193.53041999757599
 20
163.7842278531252
 30
0.0
 11
183.86406030531421
 21
161.04892377162651
 31
0.0
  0
LINE
  5
554
  8
0
 10
181.1412578349084
 20
160.6711037069193
 30
0.0
 11
176.1756339449509
 21
160.6711037069193
 31
0.0
  0
LINE
  5
555
  8
0
 10
164.7164126440334
 20
145.6711037069193
 30
0.0
 11
151.7164126440334
 21
145.6711037069193
 31
0.0
  0
LINE
  5
55A
  8
1
 10
158.22641264403339
 20
171.8511037069193
 30
0.0
 11
158.2264126440335
 21
86.671103706919382
 31
0.0
  0
LINE
  5
55E
  8
0
 10
254.3054687191169
 20
160.7146180476559
 30
0.0
 11
253.8953763817517
 21
163.8494396516528
 31
0.0
  0
LINE
  5
55F
  8
0
 10
254.44114720946251
 20
170.76165462913309
 30
0.0
 11
254.44114720946251
 21
160.6711037069193
 31
0.0
  0
LINE
  5
561
  8
0
 10
246.27812114720749
 20
170.76165462913309
 30
0.0
 11
246.27812114720749
 21
160.6711037069193
 31
0.0
  0
LINE
  5
563
  8
1
 10
250.359634178335
 20
177.53814512593539
 30
0.0
 11
250.359634178335
 21
86.671103706919382
 31
0.0
  0
LINE
  5
564
  8
0
 10
255.359634178335
 20
141.6711037069193
 30
0.0
 11
255.359634178335
 21
145.6711037069193
 31
0.0
  0
LINE
  5
565
  8
0
 10
245.359634178335
 20
145.6711037069193
 30
0.0
 11
245.359634178335
 21
141.6711037069193
 31
0.0
  0
LINE
  5
56A
  8
0
 10
245.359634178335
 20
141.6711037069193
 30
0.0
 11
255.359634178335
 21
141.6711037069193
 31
0.0
  0
LINE
  5
574
  8
0
 10
256.859634178335
 20
145.6711037069193
 30
0.0
 11
243.859634178335
 21
145.6711037069193
 31
0.0
  0
LINE
  5
575
  8
0
 10
246.45283752404879
 20
161.01303086547929
 30
0.0
 11
254.26643083262121
 21
161.01303086547929
 31
0.0
  0
LINE
  5
576
  8
0
 10
254.4445695003175
 20
160.6711037069193
 30
0.0
 11
246.27812114720749
 21
160.67110370691799
 31
0.0
  0
LINE
  5
583
  8
0
 10
253.7046942852096
 20
172.6711037069193
 30
0.0
 11
246.9955820404962
 21
172.6711037069193
 31
0.0
  0
LINE
  5
586
  8
0
 10
246.82389197491821
 20
163.8494396516528
 30
0.0
 11
253.8953763817517
 21
163.8494396516528
 31
0.0
  0
LINE
  5
587
  8
0
 10
246.859634178335
 20
172.48673745390681
 30
0.0
 11
246.859634178335
 21
164.21272738759239
 31
0.0
  0
LINE
  5
591
  8
0
 10
253.859634178335
 20
172.48673745390681
 30
0.0
 11
253.859634178335
 21
164.21272738759239
 31
0.0
  0
LINE
  5
59A
  8
0
 10
151.72641264403339
 20
213.1621053896227
 30
0.0
 11
151.72641264403339
 21
218.30793865547969
 31
0.0
  0
CIRCLE
  5
5B6
  8
0
 10
158.22641264403339
 20
43.683167254352128
 30
0.0
 40
6.5000000000000027
  0
LINE
  5
5C6
  8
1
 10
158.23641264403341
 20
227.73502202255119
 30
0.0
 11
158.23641264403341
 21
203.73502202255119
 31
0.0
  0
LINE
  5
5C7
  8
1
 10
203.2364156607787
 20
215.73502202255119
 30
0.0
 11
146.72641264403339
 21
215.73502202255119
 31
0.0
  0
LINE
  5
5CB
  8
1
 10
158.23641264403341
 20
55.68266635711381
 30
0.0
 11
158.23641264403341
 21
31.683668151590439
 31
0.0
  0
CIRCLE
  5
5CD
  8
0
 10
158.23641264403341
 20
43.683167254352128
 30
0.0
 40
4.989999999999994
  0
CIRCLE
  5
5E2
  8
0
 10
158.23641264403341
 20
43.683167254352128
 30
0.0
 40
2.5
  0
CIRCLE
  5
5E3
  8
3
 10
158.23641264403341
 20
43.683167254352128
 30
0.0
 40
2.1000000000000001
  0
LINE
  5
5E5
  8
1
 10
146.72641264403339
 20
43.683167254352128
 30
0.0
 11
203.2364156607787
 21
43.683167254352128
 31
0.0
  0
ARC
  5
62F
  8
0
 10
158.23641264403341
 20
215.73502202255119
 30
0.0
 40
7.0
 50
201.56518501524261
 51
308.53132429037919
  0
ARC
  5
630
  8
0
 10
158.23641264403341
 20
215.73502202255119
 30
0.0
 40
7.0
 50
51.468675709620783
 51
158.43481498475739
  0
ARC
  5
633
  8
0
 10
194.73641264403341
 20
215.73502202255119
 30
0.0
 40
3.5
 50
270.0
 51
90.0
  0
LINE
  5
636
  8
0
 10
179.02743340000649
 20
219.81653505367871
 30
0.0
 11
194.86535785450101
 21
219.23264594926161
 31
0.0
  0
LINE
  5
637
  8
0
 10
179.02743340000649
 20
211.65350899142371
 30
0.0
 11
194.73641264403341
 21
212.23502202255119
 31
0.0
  0
CIRCLE
  5
642
  8
0
 10
158.5187905164685
 20
215.73502202255119
 30
0.0
 40
4.6971000970094821
  0
ARC
  5
6CE
  8
0
 10
173.27214577173211
 20
249.24732698212151
 30
0.0
 40
30.0
 50
249.1551953734386
 51
281.16030063920113
  0
ARC
  5
6D0
  8
0
 10
173.27214577173211
 20
182.22271706298079
 30
0.0
 40
30.0
 50
78.839699360798974
 51
110.8448046265614
  0
LINE
  5
6E7
  8
0
 10
179.02743340000649
 20
47.764680285479642
 30
0.0
 11
194.86535785450101
 21
47.180791181062567
 31
0.0
  0
ARC
  5
6E8
  8
0
 10
194.73641264403341
 20
43.683167254352092
 30
0.0
 40
3.5
 50
270.0
 51
90.0
  0
ARC
  5
6E9
  8
0
 10
173.27214577173211
 20
77.195472213922471
 30
0.0
 40
30.0
 50
249.1551953734386
 51
281.16030063920113
  0
LINE
  5
6EA
  8
0
 10
179.02743340000649
 20
39.601654223224607
 30
0.0
 11
194.73641264403341
 21
40.183167254352099
 31
0.0
  0
ARC
  5
6EB
  8
0
 10
173.27214577173211
 20
10.170862294781781
 30
0.0
 40
30.0
 50
78.839699360798974
 51
110.8448046265614
  0
ARC
  5
6EC
  8
0
 10
158.23641264403341
 20
43.683167254352128
 30
0.0
 40
7.0
 50
201.56518501524261
 51
308.53132429037919
  0
ARC
  5
6ED
  8
0
 10
158.23641264403341
 20
43.683167254352128
 30
0.0
 40
7.0
 50
51.468675709620783
 51
158.43481498475739
  0
LINE
  5
6EE
  8
0
 10
151.72641264403339
 20
41.11025062142366
 30
0.0
 11
151.72641264403339
 21
46.256083887280617
 31
0.0
  0
ARC
  5
6F3
  8
0
 10
205.79940632685441
 20
23.012358036478641
 30
0.0
 40
150.0
 50
93.915861512303536
 51
110.1986696099367
  0
ARC
  5
701
  8
0
 10
195.72641264403339
 20
170.16800624022869
 30
0.0
 40
2.5
 50
0.0
 51
93.915861512302882
  0
ARC
  5
702
  8
0
 10
155.2164126440334
 20
160.50276042909539
 30
0.0
 40
3.5
 50
110.198669609936
 51
180.0
  0
LINE
  5
703
  8
0
 10
102.1463270468487
 20
163.7875140698747
 30
0.0
 11
98.426391264531247
 21
163.7875140698747
 31
0.0
  0
LINE
  5
713
  8
0
 10
91.177390577791073
 20
163.7875140698747
 30
0.0
 11
94.897326360108508
 21
163.7875140698747
 31
0.0
  0
LINE
  5
716
  8
0
 10
100.74679413430231
 20
170.72884716488599
 30
0.0
 11
100.74679413430231
 21
168.25769383438751
 31
0.0
  0
ARC
  5
719
  8
0
 10
192.2375121166927
 20
169.64327122312591
 30
0.0
 40
6.0
 50
282.44396201272468
 51
356.51437909834618
  0
ARC
  5
71E
  8
0
 10
181.1412578349084
 20
170.6711037069193
 30
0.0
 40
10.0
 50
270.0
 51
285.80000000000001
  0
ARC
  5
726
  8
0
 10
195.06364569632279
 20
104.37593104194229
 30
0.0
 40
60.0
 50
112.1950152906777
 51
120.38362357021521
  0
ARC
  5
728
  8
0
 10
176.1756339449509
 20
150.6711037069193
 30
0.0
 40
10.0
 50
90.0
 51
112.1950152906778
  0
LINE
  5
72C
  8
0
 10
103.16185881231981
 20
145.6711037069193
 30
0.0
 11
103.66185881231991
 21
165.2685012150925
 31
0.0
  0
POLYLINE
  5
72D
  8
0
 10
102.14632704684871
 20
163.78751406987479
 30
0.0
 66
     1
 70
     8
  0
VERTEX
  8
0
  5
D2E
 10
102.146
 20
163.788
 30
0.000000
  70
    32
  0
VERTEX
  8
0
  5
D2F
 10
102.191
 20
163.807
 30
0.000000
  70
    32
  0
VERTEX
  8
0
  5
D30
 10
102.234
 20
163.826
 30
0.000000
  70
    32
  0
VERTEX
  8
0
  5
D31
 10
102.277
 20
163.846
 30
0.000000
  70
    32
  0
VERTEX
  8
0
  5
D32
 10
102.320
 20
163.865
 30
0.000000
  70
    32
  0
VERTEX
  8
0
  5
D33
 10
102.362
 20
163.885
 30
0.000000
  70
    32
  0
VERTEX
  8
0
  5
D34
 10
102.403
 20
163.905
 30
0.000000
  70
    32
  0
VERTEX
  8
0
  5
D35
 10
102.444
 20
163.925
 30
0.000000
  70
    32
  0
VERTEX
  8
0
  5
D36
 10
102.484
 20
163.945
 30
0.000000
  70
    32
  0
VERTEX
  8
0
  5
D37
 10
102.523
 20
163.966
 30
0.000000
  70
    32
  0
VERTEX
  8
0
  5
D38
 10
102.562
 20
163.986
 30
0.000000
  70
    32
  0
VERTEX
  8
0
  5
D39
 10
102.600
 20
164.007
 30
0.000000
  70
    32
  0
VERTEX
  8
0
  5
D3A
 10
102.638
 20
164.027
 30
0.000000
  70
    32
  0
VERTEX
  8
0
  5
D3B
 10
102.675
 20
164.048
 30
0.000000
  70
    32
  0
VERTEX
  8
0
  5
D3C
 10
102.711
 20
164.069
 30
0.000000
  70
    32
  0
VERTEX
  8
0
  5
D3D
 10
102.747
 20
164.090
 30
0.000000
  70
    32
  0
VERTEX
  8
0
  5
D3E
 10
102.782
 20
164.112
 30
0.000000
  70
    32
  0
VERTEX
  8
0
  5
D3F
 10
102.817
 20
164.133
 30
0.000000
  70
    32
  0
VERTEX
  8
0
  5
D40
 10
102.850
 20
164.155
 30
0.000000
  70
    32
  0
VERTEX
  8
0
  5
D41
 10
102.883
 20
164.176
 30
0.000000
  70
    32
  0
VERTEX
  8
0
  5
D42
 10
102.916
 20
164.198
 30
0.000000
  70
    32
  0
VERTEX
  8
0
  5
D43
 10
102.948
 20
164.220
 30
0.000000
  70
    32
  0
VERTEX
  8
0
  5
D44
 10
102.979
 20
164.242
 30
0.000000
  70
    32
  0
VERTEX
  8
0
  5
D45
 10
103.010
 20
164.264
 30
0.000000
  70
    32
  0
VERTEX
  8
0
  5
D46
 10
103.039
 20
164.286
 30
0.000000
  70
    32
  0
VERTEX
  8
0
  5
D47
 10
103.069
 20
164.308
 30
0.000000
  70
    32
  0
VERTEX
  8
0
  5
D48
 10
103.097
 20
164.331
 30
0.000000
  70
    32
  0
VERTEX
  8
0
  5
D49
 10
103.125
 20
164.353
 30
0.000000
  70
    32
  0
VERTEX
  8
0
  5
D4A
 10
103.152
 20
164.376
 30
0.000000
  70
    32
  0
VERTEX
  8
0
  5
D4B
 10
103.179
 20
164.398
 30
0.000000
  70
    32
  0
VERTEX
  8
0
  5
D4C
 10
103.205
 20
164.421
 30
0.000000
  70
    32
  0
VERTEX
  8
0
  5
D4D
 10
103.230
 20
164.444
 30
0.000000
  70
    32
  0
VERTEX
  8
0
  5
D4E
 10
103.254
 20
164.467
 30
0.000000
  70
    32
  0
VERTEX
  8
0
  5
D4F
 10
103.278
 20
164.490
 30
0.000000
  70
    32
  0
VERTEX
  8
0
  5
D50
 10
103.301
 20
164.513
 30
0.000000
  70
    32
  0
VERTEX
  8
0
  5
D51
 10
103.323
 20
164.536
 30
0.000000
  70
    32
  0
VERTEX
  8
0
  5
D52
 10
103.345
 20
164.559
 30
0.000000
  70
    32
  0
VERTEX
  8
0
  5
D53
 10
103.366
 20
164.583
 30
0.000000
  70
    32
  0
VERTEX
  8
0
  5
D54
 10
103.386
 20
164.606
 30
0.000000
  70
    32
  0
VERTEX
  8
0
  5
D55
 10
103.406
 20
164.630
 30
0.000000
  70
    32
  0
VERTEX
  8
0
  5
D56
 10
103.425
 20
164.653
 30
0.000000
  70
    32
  0
VERTEX
  8
0
  5
D57
 10
103.443
 20
164.677
 30
0.000000
  70
    32
  0
VERTEX
  8
0
  5
D58
 10
103.460
 20
164.700
 30
0.000000
  70
    32
  0
VERTEX
  8
0
  5
D59
 10
103.477
 20
164.724
 30
0.000000
  70
    32
  0
VERTEX
  8
0
  5
D5A
 10
103.493
 20
164.748
 30
0.000000
  70
    32
  0
VERTEX
  8
0
  5
D5B
 10
103.508
 20
164.772
 30
0.000000
  70
    32
  0
VERTEX
  8
0
  5
D5C
 10
103.523
 20
164.796
 30
0.000000
  70
    32
  0
VERTEX
  8
0
  5
D5D
 10
103.537
 20
164.820
 30
0.000000
  70
    32
  0
VERTEX
  8
0
  5
D5E
 10
103.550
 20
164.844
 30
0.000000
  70
    32
  0
VERTEX
  8
0
  5
D5F
 10
103.562
 20
164.868
 30
0.000000
  70
    32
  0
VERTEX
  8
0
  5
D60
 10
103.574
 20
164.892
 30
0.000000
  70
    32
  0
VERTEX
  8
0
  5
D61
 10
103.585
 20
164.916
 30
0.000000
  70
    32
  0
VERTEX
  8
0
  5
D62
 10
103.595
 20
164.940
 30
0.000000
  70
    32
  0
VERTEX
  8
0
  5
D63
 10
103.605
 20
164.964
 30
0.000000
  70
    32
  0
VERTEX
  8
0
  5
D64
 10
103.613
 20
164.988
 30
0.000000
  70
    32
  0
VERTEX
  8
0
  5
D65
 10
103.621
 20
165.013
 30
0.000000
  70
    32
  0
VERTEX
  8
0
  5
D66
 10
103.629
 20
165.037
 30
0.000000
  70
    32
  0
VERTEX
  8
0
  5
D67
 10
103.635
 20
165.061
 30
0.000000
  70
    32
  0
VERTEX
  8
0
  5
D68
 10
103.641
 20
165.085
 30
0.000000
  70
    32
  0
VERTEX
  8
0
  5
D69
 10
103.646
 20
165.110
 30
0.000000
  70
    32
  0
VERTEX
  8
0
  5
D6A
 10
103.651
 20
165.134
 30
0.000000
  70
    32
  0
VERTEX
  8
0
  5
D6B
 10
103.654
 20
165.158
 30
0.000000
  70
    32
  0
VERTEX
  8
0
  5
D6C
 10
103.657
 20
165.183
 30
0.000000
  70
    32
  0
VERTEX
  8
0
  5
D6D
 10
103.660
 20
165.207
 30
0.000000
  70
    32
  0
VERTEX
  8
0
  5
D6E
 10
103.661
 20
165.232
 30
0.000000
  70
    32
  0
VERTEX
  8
0
  5
D6F
 10
103.662
 20
165.256
 30
0.000000
  70
    32
  0
VERTEX
  8
0
  5
D70
 10
103.662
 20
165.280
 30
0.000000
  70
    32
  0
VERTEX
  8
0
  5
D71
 10
103.661
 20
165.305
 30
0.000000
  70
    32
  0
VERTEX
  8
0
  5
D72
 10
103.660
 20
165.329
 30
0.000000
  70
    32
  0
VERTEX
  8
0
  5
D73
 10
103.657
 20
165.354
 30
0.000000
  70
    32
  0
VERTEX
  8
0
  5
D74
 10
103.654
 20
165.378
 30
0.000000
  70
    32
  0
VERTEX
  8
0
  5
D75
 10
103.651
 20
165.402
 30
0.000000
  70
    32
  0
VERTEX
  8
0
  5
D76
 10
103.646
 20
165.427
 30
0.000000
  70
    32
  0
VERTEX
  8
0
  5
D77
 10
103.641
 20
165.451
 30
0.000000
  70
    32
  0
VERTEX
  8
0
  5
D78
 10
103.635
 20
165.475
 30
0.000000
  70
    32
  0
VERTEX
  8
0
  5
D79
 10
103.629
 20
165.500
 30
0.000000
  70
    32
  0
VERTEX
  8
0
  5
D7A
 10
103.622
 20
165.524
 30
0.000000
  70
    32
  0
VERTEX
  8
0
  5
D7B
 10
103.614
 20
165.548
 30
0.000000
  70
    32
  0
VERTEX
  8
0
  5
D7C
 10
103.605
 20
165.572
 30
0.000000
  70
    32
  0
VERTEX
  8
0
  5
D7D
 10
103.595
 20
165.596
 30
0.000000
  70
    32
  0
VERTEX
  8
0
  5
D7E
 10
103.585
 20
165.621
 30
0.000000
  70
    32
  0
VERTEX
  8
0
  5
D7F
 10
103.574
 20
165.645
 30
0.000000
  70
    32
  0
VERTEX
  8
0
  5
D80
 10
103.562
 20
165.669
 30
0.000000
  70
    32
  0
VERTEX
  8
0
  5
D81
 10
103.550
 20
165.693
 30
0.000000
  70
    32
  0
VERTEX
  8
0
  5
D82
 10
103.537
 20
165.717
 30
0.000000
  70
    32
  0
VERTEX
  8
0
  5
D83
 10
103.523
 20
165.741
 30
0.000000
  70
    32
  0
VERTEX
  8
0
  5
D84
 10
103.509
 20
165.765
 30
0.000000
  70
    32
  0
VERTEX
  8
0
  5
D85
 10
103.493
 20
165.788
 30
0.000000
  70
    32
  0
VERTEX
  8
0
  5
D86
 10
103.477
 20
165.812
 30
0.000000
  70
    32
  0
VERTEX
  8
0
  5
D87
 10
103.461
 20
165.836
 30
0.000000
  70
    32
  0
VERTEX
  8
0
  5
D88
 10
103.443
 20
165.860
 30
0.000000
  70
    32
  0
VERTEX
  8
0
  5
D89
 10
103.425
 20
165.883
 30
0.000000
  70
    32
  0
VERTEX
  8
0
  5
D8A
 10
103.406
 20
165.907
 30
0.000000
  70
    32
  0
VERTEX
  8
0
  5
D8B
 10
103.387
 20
165.930
 30
0.000000
  70
    32
  0
VERTEX
  8
0
  5
D8C
 10
103.366
 20
165.954
 30
0.000000
  70
    32
  0
VERTEX
  8
0
  5
D8D
 10
103.346
 20
165.977
 30
0.000000
  70
    32
  0
VERTEX
  8
0
  5
D8E
 10
103.324
 20
166.000
 30
0.000000
  70
    32
  0
VERTEX
  8
0
  5
D8F
 10
103.302
 20
166.023
 30
0.000000
  70
    32
  0
VERTEX
  8
0
  5
D90
 10
103.279
 20
166.046
 30
0.000000
  70
    32
  0
VERTEX
  8
0
  5
D91
 10
103.255
 20
166.069
 30
0.000000
  70
    32
  0
VERTEX
  8
0
  5
D92
 10
103.230
 20
166.092
 30
0.000000
  70
    32
  0
VERTEX
  8
0
  5
D93
 10
103.205
 20
166.115
 30
0.000000
  70
    32
  0
VERTEX
  8
0
  5
D94
 10
103.179
 20
166.138
 30
0.000000
  70
    32
  0
VERTEX
  8
0
  5
D95
 10
103.153
 20
166.161
 30
0.000000
  70
    32
  0
VERTEX
  8
0
  5
D96
 10
103.126
 20
166.183
 30
0.000000
  70
    32
  0
VERTEX
  8
0
  5
D97
 10
103.098
 20
166.206
 30
0.000000
  70
    32
  0
VERTEX
  8
0
  5
D98
 10
103.069
 20
166.228
 30
0.000000
  70
    32
  0
VERTEX
  8
0
  5
D99
 10
103.040
 20
166.250
 30
0.000000
  70
    32
  0
VERTEX
  8
0
  5
D9A
 10
103.010
 20
166.272
 30
0.000000
  70
    32
  0
VERTEX
  8
0
  5
D9B
 10
102.980
 20
166.295
 30
0.000000
  70
    32
  0
VERTEX
  8
0
  5
D9C
 10
102.949
 20
166.317
 30
0.000000
  70
    32
  0
VERTEX
  8
0
  5
D9D
 10
102.917
 20
166.338
 30
0.000000
  70
    32
  0
VERTEX
  8
0
  5
D9E
 10
102.884
 20
166.360
 30
0.000000
  70
    32
  0
VERTEX
  8
0
  5
D9F
 10
102.851
 20
166.382
 30
0.000000
  70
    32
  0
VERTEX
  8
0
  5
DA0
 10
102.818
 20
166.403
 30
0.000000
  70
    32
  0
VERTEX
  8
0
  5
DA1
 10
102.783
 20
166.425
 30
0.000000
  70
    32
  0
VERTEX
  8
0
  5
DA2
 10
102.748
 20
166.446
 30
0.000000
  70
    32
  0
VERTEX
  8
0
  5
DA3
 10
102.712
 20
166.467
 30
0.000000
  70
    32
  0
VERTEX
  8
0
  5
DA4
 10
102.676
 20
166.488
 30
0.000000
  70
    32
  0
VERTEX
  8
0
  5
DA5
 10
102.639
 20
166.509
 30
0.000000
  70
    32
  0
VERTEX
  8
0
  5
DA6
 10
102.601
 20
166.530
 30
0.000000
  70
    32
  0
VERTEX
  8
0
  5
DA7
 10
102.563
 20
166.550
 30
0.000000
  70
    32
  0
VERTEX
  8
0
  5
DA8
 10
102.524
 20
166.571
 30
0.000000
  70
    32
  0
VERTEX
  8
0
  5
DA9
 10
102.485
 20
166.591
 30
0.000000
  70
    32
  0
VERTEX
  8
0
  5
DAA
 10
102.445
 20
166.611
 30
0.000000
  70
    32
  0
VERTEX
  8
0
  5
DAB
 10
102.404
 20
166.632
 30
0.000000
  70
    32
  0
VERTEX
  8
0
  5
DAC
 10
102.363
 20
166.651
 30
0.000000
  70
    32
  0
VERTEX
  8
0
  5
DAD
 10
102.321
 20
166.671
 30
0.000000
  70
    32
  0
VERTEX
  8
0
  5
DAE
 10
102.279
 20
166.691
 30
0.000000
  70
    32
  0
SEQEND
  8
0
  5
DAF
  0
LINE
  5
72F
  8
0
 10
90.161858812319878
 20
145.6711037069193
 30
0.0
 11
89.661858812319878
 21
165.2685012150925
 31
0.0
  0
ARC
  5
734
  8
0
 10
101.76154345787241
 20
169.5356209448251
 30
0.0
 40
1.5
 50
135.62248582632071
 51
194.54190412830249
  0
ARC
  5
76A
  8
0
 10
107.860896601261
 20
173.7504334451186
 30
0.0
 40
9.0
 50
219.44968032693691
 51
231.6645676099084
  0
ARC
  5
76B
  8
0
 10
104.9852201407918
 20
170.93058393639691
 30
0.0
 40
5.0
 50
200.75171325611291
 51
215.43300582698109
  0
LINE
  5
771
  8
0
 10
100.1917042618729
 20
172.54761760847441
 30
0.0
 11
100.4535980854654
 21
171.91512940758079
 31
0.0
  0
LINE
  5
772
  8
0
 10
100.4535980854654
 20
171.91512940758079
 30
0.0
 11
100.74044598021131
 21
170.77330133403649
 31
0.0
  0
ARC
  5
775
  8
0
 10
100.54647320312461
 20
170.72457185887771
 30
0.0
 40
0.2
 50
315.62248582632043
 51
14.10191193147306
  0
ARC
  5
776
  8
0
 10
100.0069189191944
 20
172.47110370691931
 30
0.0
 40
0.2
 50
22.492934975536091
 51
90.0
  0
LINE
  5
786
  8
0
 10
92.870119539174368
 20
171.91512940758079
 30
0.0
 11
92.583271644428407
 21
170.77330133403649
 31
0.0
  0
ARC
  5
787
  8
0
 10
88.338497483847959
 20
170.93058393639691
 30
0.0
 40
5.0
 50
324.56699417301888
 51
339.24828674388721
  0
LINE
  5
788
  8
0
 10
92.576923490337407
 20
170.72884716488599
 30
0.0
 11
92.576923490337407
 21
168.25769383438751
 31
0.0
  0
ARC
  5
789
  8
0
 10
92.777244421515135
 20
170.72457185887771
 30
0.0
 40
0.2
 50
165.8980880685269
 51
224.37751417367971
  0
ARC
  5
78A
  8
0
 10
91.562174166767363
 20
169.5356209448251
 30
0.0
 40
1.5
 50
345.45809587169748
 51
44.377514173679231
  0
LINE
  5
78B
  8
0
 10
93.132013362766799
 20
172.54761760847441
 30
0.0
 11
92.870119539174368
 21
171.91512940758079
 31
0.0
  0
ARC
  5
78C
  8
0
 10
93.316798705445336
 20
172.47110370691931
 30
0.0
 40
0.2
 50
90.0
 51
157.50706502446391
  0
ARC
  5
78D
  8
0
 10
85.462821023378723
 20
173.7504334451186
 30
0.0
 40
9.0
 50
308.33543239009163
 51
320.55031967306309
  0
POLYLINE
  5
78E
  8
0
 10
91.177390577791073
 20
163.78751406987479
 30
0.0
 66
     1
 70
     8
  0
VERTEX
  8
0
  5
DB0
 10
91.1774
 20
163.788
 30
0.000000
  70
    32
  0
VERTEX
  8
0
  5
DB1
 10
91.1332
 20
163.807
 30
0.000000
  70
    32
  0
VERTEX
  8
0
  5
DB2
 10
91.0895
 20
163.826
 30
0.000000
  70
    32
  0
VERTEX
  8
0
  5
DB3
 10
91.0464
 20
163.846
 30
0.000000
  70
    32
  0
VERTEX
  8
0
  5
DB4
 10
91.0040
 20
163.865
 30
0.000000
  70
    32
  0
VERTEX
  8
0
  5
DB5
 10
90.9621
 20
163.885
 30
0.000000
  70
    32
  0
VERTEX
  8
0
  5
DB6
 10
90.9208
 20
163.905
 30
0.000000
  70
    32
  0
VERTEX
  8
0
  5
DB7
 10
90.8801
 20
163.925
 30
0.000000
  70
    32
  0
VERTEX
  8
0
  5
DB8
 10
90.8400
 20
163.945
 30
0.000000
  70
    32
  0
VERTEX
  8
0
  5
DB9
 10
90.8005
 20
163.966
 30
0.000000
  70
    32
  0
VERTEX
  8
0
  5
DBA
 10
90.7617
 20
163.986
 30
0.000000
  70
    32
  0
VERTEX
  8
0
  5
DBB
 10
90.7234
 20
164.007
 30
0.000000
  70
    32
  0
VERTEX
  8
0
  5
DBC
 10
90.6858
 20
164.027
 30
0.000000
  70
    32
  0
VERTEX
  8
0
  5
DBD
 10
90.6488
 20
164.048
 30
0.000000
  70
    32
  0
VERTEX
  8
0
  5
DBE
 10
90.6125
 20
164.069
 30
0.000000
  70
    32
  0
VERTEX
  8
0
  5
DBF
 10
90.5767
 20
164.090
 30
0.000000
  70
    32
  0
VERTEX
  8
0
  5
DC0
 10
90.5416
 20
164.112
 30
0.000000
  70
    32
  0
VERTEX
  8
0
  5
DC1
 10
90.5072
 20
164.133
 30
0.000000
  70
    32
  0
VERTEX
  8
0
  5
DC2
 10
90.4734
 20
164.155
 30
0.000000
  70
    32
  0
VERTEX
  8
0
  5
DC3
 10
90.4402
 20
164.176
 30
0.000000
  70
    32
  0
VERTEX
  8
0
  5
DC4
 10
90.4077
 20
164.198
 30
0.000000
  70
    32
  0
VERTEX
  8
0
  5
DC5
 10
90.3759
 20
164.220
 30
0.000000
  70
    32
  0
VERTEX
  8
0
  5
DC6
 10
90.3447
 20
164.242
 30
0.000000
  70
    32
  0
VERTEX
  8
0
  5
DC7
 10
90.3141
 20
164.264
 30
0.000000
  70
    32
  0
VERTEX
  8
0
  5
DC8
 10
90.2843
 20
164.286
 30
0.000000
  70
    32
  0
VERTEX
  8
0
  5
DC9
 10
90.2551
 20
164.308
 30
0.000000
  70
    32
  0
VERTEX
  8
0
  5
DCA
 10
90.2265
 20
164.331
 30
0.000000
  70
    32
  0
VERTEX
  8
0
  5
DCB
 10
90.1987
 20
164.353
 30
0.000000
  70
    32
  0
VERTEX
  8
0
  5
DCC
 10
90.1715
 20
164.376
 30
0.000000
  70
    32
  0
VERTEX
  8
0
  5
DCD
 10
90.1450
 20
164.398
 30
0.000000
  70
    32
  0
VERTEX
  8
0
  5
DCE
 10
90.1192
 20
164.421
 30
0.000000
  70
    32
  0
VERTEX
  8
0
  5
DCF
 10
90.0941
 20
164.444
 30
0.000000
  70
    32
  0
VERTEX
  8
0
  5
DD0
 10
90.0696
 20
164.467
 30
0.000000
  70
    32
  0
VERTEX
  8
0
  5
DD1
 10
90.0459
 20
164.490
 30
0.000000
  70
    32
  0
VERTEX
  8
0
  5
DD2
 10
90.0228
 20
164.513
 30
0.000000
  70
    32
  0
VERTEX
  8
0
  5
DD3
 10
90.0005
 20
164.536
 30
0.000000
  70
    32
  0
VERTEX
  8
0
  5
DD4
 10
89.9788
 20
164.559
 30
0.000000
  70
    32
  0
VERTEX
  8
0
  5
DD5
 10
89.9578
 20
164.583
 30
0.000000
  70
    32
  0
VERTEX
  8
0
  5
DD6
 10
89.9376
 20
164.606
 30
0.000000
  70
    32
  0
VERTEX
  8
0
  5
DD7
 10
89.9180
 20
164.630
 30
0.000000
  70
    32
  0
VERTEX
  8
0
  5
DD8
 10
89.8992
 20
164.653
 30
0.000000
  70
    32
  0
VERTEX
  8
0
  5
DD9
 10
89.8810
 20
164.677
 30
0.000000
  70
    32
  0
VERTEX
  8
0
  5
DDA
 10
89.8636
 20
164.700
 30
0.000000
  70
    32
  0
VERTEX
  8
0
  5
DDB
 10
89.8469
 20
164.724
 30
0.000000
  70
    32
  0
VERTEX
  8
0
  5
DDC
 10
89.8309
 20
164.748
 30
0.000000
  70
    32
  0
VERTEX
  8
0
  5
DDD
 10
89.8156
 20
164.772
 30
0.000000
  70
    32
  0
VERTEX
  8
0
  5
DDE
 10
89.8010
 20
164.796
 30
0.000000
  70
    32
  0
VERTEX
  8
0
  5
DDF
 10
89.7872
 20
164.820
 30
0.000000
  70
    32
  0
VERTEX
  8
0
  5
DE0
 10
89.7740
 20
164.844
 30
0.000000
  70
    32
  0
VERTEX
  8
0
  5
DE1
 10
89.7616
 20
164.868
 30
0.000000
  70
    32
  0
VERTEX
  8
0
  5
DE2
 10
89.7499
 20
164.892
 30
0.000000
  70
    32
  0
VERTEX
  8
0
  5
DE3
 10
89.7390
 20
164.916
 30
0.000000
  70
    32
  0
VERTEX
  8
0
  5
DE4
 10
89.7287
 20
164.940
 30
0.000000
  70
    32
  0
VERTEX
  8
0
  5
DE5
 10
89.7192
 20
164.964
 30
0.000000
  70
    32
  0
VERTEX
  8
0
  5
DE6
 10
89.7104
 20
164.988
 30
0.000000
  70
    32
  0
VERTEX
  8
0
  5
DE7
 10
89.7024
 20
165.013
 30
0.000000
  70
    32
  0
VERTEX
  8
0
  5
DE8
 10
89.6950
 20
165.037
 30
0.000000
  70
    32
  0
VERTEX
  8
0
  5
DE9
 10
89.6884
 20
165.061
 30
0.000000
  70
    32
  0
VERTEX
  8
0
  5
DEA
 10
89.6826
 20
165.085
 30
0.000000
  70
    32
  0
VERTEX
  8
0
  5
DEB
 10
89.6774
 20
165.110
 30
0.000000
  70
    32
  0
VERTEX
  8
0
  5
DEC
 10
89.6730
 20
165.134
 30
0.000000
  70
    32
  0
VERTEX
  8
0
  5
DED
 10
89.6693
 20
165.158
 30
0.000000
  70
    32
  0
VERTEX
  8
0
  5
DEE
 10
89.6664
 20
165.183
 30
0.000000
  70
    32
  0
VERTEX
  8
0
  5
DEF
 10
89.6642
 20
165.207
 30
0.000000
  70
    32
  0
VERTEX
  8
0
  5
DF0
 10
89.6627
 20
165.232
 30
0.000000
  70
    32
  0
VERTEX
  8
0
  5
DF1
 10
89.6620
 20
165.256
 30
0.000000
  70
    32
  0
VERTEX
  8
0
  5
DF2
 10
89.6619
 20
165.280
 30
0.000000
  70
    32
  0
VERTEX
  8
0
  5
DF3
 10
89.6627
 20
165.305
 30
0.000000
  70
    32
  0
VERTEX
  8
0
  5
DF4
 10
89.6641
 20
165.329
 30
0.000000
  70
    32
  0
VERTEX
  8
0
  5
DF5
 10
89.6663
 20
165.354
 30
0.000000
  70
    32
  0
VERTEX
  8
0
  5
DF6
 10
89.6692
 20
165.378
 30
0.000000
  70
    32
  0
VERTEX
  8
0
  5
DF7
 10
89.6729
 20
165.402
 30
0.000000
  70
    32
  0
VERTEX
  8
0
  5
DF8
 10
89.6773
 20
165.427
 30
0.000000
  70
    32
  0
VERTEX
  8
0
  5
DF9
 10
89.6824
 20
165.451
 30
0.000000
  70
    32
  0
VERTEX
  8
0
  5
DFA
 10
89.6882
 20
165.475
 30
0.000000
  70
    32
  0
VERTEX
  8
0
  5
DFB
 10
89.6948
 20
165.500
 30
0.000000
  70
    32
  0
VERTEX
  8
0
  5
DFC
 10
89.7021
 20
165.524
 30
0.000000
  70
    32
  0
VERTEX
  8
0
  5
DFD
 10
89.7102
 20
165.548
 30
0.000000
  70
    32
  0
VERTEX
  8
0
  5
DFE
 10
89.7189
 20
165.572
 30
0.000000
  70
    32
  0
VERTEX
  8
0
  5
DFF
 10
89.7284
 20
165.596
 30
0.000000
  70
    32
  0
VERTEX
  8
0
  5
E00
 10
89.7386
 20
165.621
 30
0.000000
  70
    32
  0
VERTEX
  8
0
  5
E01
 10
89.7496
 20
165.645
 30
0.000000
  70
    32
  0
VERTEX
  8
0
  5
E02
 10
89.7613
 20
165.669
 30
0.000000
  70
    32
  0
VERTEX
  8
0
  5
E03
 10
89.7737
 20
165.693
 30
0.000000
  70
    32
  0
VERTEX
  8
0
  5
E04
 10
89.7868
 20
165.717
 30
0.000000
  70
    32
  0
VERTEX
  8
0
  5
E05
 10
89.8006
 20
165.741
 30
0.000000
  70
    32
  0
VERTEX
  8
0
  5
E06
 10
89.8152
 20
165.765
 30
0.000000
  70
    32
  0
VERTEX
  8
0
  5
E07
 10
89.8304
 20
165.788
 30
0.000000
  70
    32
  0
VERTEX
  8
0
  5
E08
 10
89.8464
 20
165.812
 30
0.000000
  70
    32
  0
VERTEX
  8
0
  5
E09
 10
89.8631
 20
165.836
 30
0.000000
  70
    32
  0
VERTEX
  8
0
  5
E0A
 10
89.8805
 20
165.860
 30
0.000000
  70
    32
  0
VERTEX
  8
0
  5
E0B
 10
89.8986
 20
165.883
 30
0.000000
  70
    32
  0
VERTEX
  8
0
  5
E0C
 10
89.9175
 20
165.907
 30
0.000000
  70
    32
  0
VERTEX
  8
0
  5
E0D
 10
89.9370
 20
165.930
 30
0.000000
  70
    32
  0
VERTEX
  8
0
  5
E0E
 10
89.9572
 20
165.954
 30
0.000000
  70
    32
  0
VERTEX
  8
0
  5
E0F
 10
89.9782
 20
165.977
 30
0.000000
  70
    32
  0
VERTEX
  8
0
  5
E10
 10
89.9998
 20
166.000
 30
0.000000
  70
    32
  0
VERTEX
  8
0
  5
E11
 10
90.0222
 20
166.023
 30
0.000000
  70
    32
  0
VERTEX
  8
0
  5
E12
 10
90.0452
 20
166.046
 30
0.000000
  70
    32
  0
VERTEX
  8
0
  5
E13
 10
90.0689
 20
166.069
 30
0.000000
  70
    32
  0
VERTEX
  8
0
  5
E14
 10
90.0934
 20
166.092
 30
0.000000
  70
    32
  0
VERTEX
  8
0
  5
E15
 10
90.1185
 20
166.115
 30
0.000000
  70
    32
  0
VERTEX
  8
0
  5
E16
 10
90.1443
 20
166.138
 30
0.000000
  70
    32
  0
VERTEX
  8
0
  5
E17
 10
90.1707
 20
166.161
 30
0.000000
  70
    32
  0
VERTEX
  8
0
  5
E18
 10
90.1979
 20
166.183
 30
0.000000
  70
    32
  0
VERTEX
  8
0
  5
E19
 10
90.2257
 20
166.206
 30
0.000000
  70
    32
  0
VERTEX
  8
0
  5
E1A
 10
90.2542
 20
166.228
 30
0.000000
  70
    32
  0
VERTEX
  8
0
  5
E1B
 10
90.2834
 20
166.250
 30
0.000000
  70
    32
  0
VERTEX
  8
0
  5
E1C
 10
90.3133
 20
166.272
 30
0.000000
  70
    32
  0
VERTEX
  8
0
  5
E1D
 10
90.3438
 20
166.295
 30
0.000000
  70
    32
  0
VERTEX
  8
0
  5
E1E
 10
90.3749
 20
166.317
 30
0.000000
  70
    32
  0
VERTEX
  8
0
  5
E1F
 10
90.4068
 20
166.338
 30
0.000000
  70
    32
  0
VERTEX
  8
0
  5
E20
 10
90.4393
 20
166.360
 30
0.000000
  70
    32
  0
VERTEX
  8
0
  5
E21
 10
90.4724
 20
166.382
 30
0.000000
  70
    32
  0
VERTEX
  8
0
  5
E22
 10
90.5062
 20
166.403
 30
0.000000
  70
    32
  0
VERTEX
  8
0
  5
E23
 10
90.5406
 20
166.425
 30
0.000000
  70
    32
  0
VERTEX
  8
0
  5
E24
 10
90.5757
 20
166.446
 30
0.000000
  70
    32
  0
VERTEX
  8
0
  5
E25
 10
90.6114
 20
166.467
 30
0.000000
  70
    32
  0
VERTEX
  8
0
  5
E26
 10
90.6478
 20
166.488
 30
0.000000
  70
    32
  0
VERTEX
  8
0
  5
E27
 10
90.6847
 20
166.509
 30
0.000000
  70
    32
  0
VERTEX
  8
0
  5
E28
 10
90.7223
 20
166.530
 30
0.000000
  70
    32
  0
VERTEX
  8
0
  5
E29
 10
90.7606
 20
166.550
 30
0.000000
  70
    32
  0
VERTEX
  8
0
  5
E2A
 10
90.7994
 20
166.571
 30
0.000000
  70
    32
  0
VERTEX
  8
0
  5
E2B
 10
90.8389
 20
166.591
 30
0.000000
  70
    32
  0
VERTEX
  8
0
  5
E2C
 10
90.8789
 20
166.611
 30
0.000000
  70
    32
  0
VERTEX
  8
0
  5
E2D
 10
90.9196
 20
166.632
 30
0.000000
  70
    32
  0
VERTEX
  8
0
  5
E2E
 10
90.9609
 20
166.651
 30
0.000000
  70
    32
  0
VERTEX
  8
0
  5
E2F
 10
91.0027
 20
166.671
 30
0.000000
  70
    32
  0
VERTEX
  8
0
  5
E30
 10
91.0452
 20
166.691
 30
0.000000
  70
    32
  0
SEQEND
  8
0
  5
E31
  0
LINE
  5
9BE
  8
0
 10
253.8654262561536
 20
164.140976079425
 30
0.0
 11
253.8450920991975
 21
164.39287227415349
 31
0.0
  0
ARC
  5
A0C
  8
0
 10
250.359634178335
 20
171.6535114310237
 30
0.0
 40
1.0
 50
235.76817851301581
 51
304.2318214869839
  0
LINE
  5
A4C
  8
0
 10
246.56789490518949
 20
171.91512940758079
 30
0.0
 11
246.2810470104435
 21
170.77330133403649
 31
0.0
  0
LINE
  5
A51
  8
0
 10
246.82978872878189
 20
172.54761760847441
 30
0.0
 11
246.56789490518949
 21
171.91512940758079
 31
0.0
  0
LINE
  5
A53
  8
0
 10
254.15137345148051
 20
171.91512940758079
 30
0.0
 11
254.43822134622641
 21
170.77330133403649
 31
0.0
  0
ARC
  5
A58
  8
0
 10
253.7046942852096
 20
172.47110370691931
 30
0.0
 40
0.2
 50
22.492934975536091
 51
90.0
  0
LINE
  5
A59
  8
0
 10
253.88947962788811
 20
172.54761760847441
 30
0.0
 11
254.15137345148051
 21
171.91512940758079
 31
0.0
  0
ARC
  5
A63
  8
0
 10
253.74166813822021
 20
172.2728162049894
 30
0.0
 40
0.4
 50
95.303685279422695
 51
111.7307513085735
  0
LINE
  5
A66
  8
0
 10
253.59356998613649
 20
172.6443898011307
 30
0.0
 11
250.93337038169139
 21
170.83435938673469
 31
0.0
  0
LINE
  5
A67
  8
0
 10
247.12569837053351
 20
172.6443898011307
 30
0.0
 11
249.78589797497861
 21
170.83435938673469
 31
0.0
  0
ARC
  5
A68
  8
0
 10
246.97760021844979
 20
172.2728162049894
 30
0.0
 40
0.4
 50
68.269248691426469
 51
84.696314720577305
  0
ARC
  5
A69
  8
0
 10
247.01457407146049
 20
172.47110370691931
 30
0.0
 40
0.2
 50
90.0
 51
157.50706502446391
  0
POLYLINE
  5
A84
  8
0
 10
250.95291006006977
 20
168.93450662381926
 30
0.0
 66
     1
 70
     8
  0
VERTEX
  8
0
  5
E32
 10
250.953
 20
168.935
 30
0.000000
  70
    32
  0
VERTEX
  8
0
  5
E33
 10
250.945
 20
168.945
 30
0.000000
  70
    32
  0
VERTEX
  8
0
  5
E34
 10
250.938
 20
168.956
 30
0.000000
  70
    32
  0
VERTEX
  8
0
  5
E35
 10
250.930
 20
168.966
 30
0.000000
  70
    32
  0
VERTEX
  8
0
  5
E36
 10
250.922
 20
168.976
 30
0.000000
  70
    32
  0
VERTEX
  8
0
  5
E37
 10
250.915
 20
168.987
 30
0.000000
  70
    32
  0
VERTEX
  8
0
  5
E38
 10
250.907
 20
168.997
 30
0.000000
  70
    32
  0
VERTEX
  8
0
  5
E39
 10
250.899
 20
169.006
 30
0.000000
  70
    32
  0
VERTEX
  8
0
  5
E3A
 10
250.891
 20
169.016
 30
0.000000
  70
    32
  0
VERTEX
  8
0
  5
E3B
 10
250.883
 20
169.026
 30
0.000000
  70
    32
  0
VERTEX
  8
0
  5
E3C
 10
250.874
 20
169.035
 30
0.000000
  70
    32
  0
VERTEX
  8
0
  5
E3D
 10
250.866
 20
169.044
 30
0.000000
  70
    32
  0
VERTEX
  8
0
  5
E3E
 10
250.858
 20
169.053
 30
0.000000
  70
    32
  0
VERTEX
  8
0
  5
E3F
 10
250.849
 20
169.062
 30
0.000000
  70
    32
  0
VERTEX
  8
0
  5
E40
 10
250.841
 20
169.071
 30
0.000000
  70
    32
  0
VERTEX
  8
0
  5
E41
 10
250.832
 20
169.080
 30
0.000000
  70
    32
  0
VERTEX
  8
0
  5
E42
 10
250.824
 20
169.088
 30
0.000000
  70
    32
  0
VERTEX
  8
0
  5
E43
 10
250.815
 20
169.097
 30
0.000000
  70
    32
  0
VERTEX
  8
0
  5
E44
 10
250.806
 20
169.105
 30
0.000000
  70
    32
  0
VERTEX
  8
0
  5
E45
 10
250.798
 20
169.113
 30
0.000000
  70
    32
  0
VERTEX
  8
0
  5
E46
 10
250.789
 20
169.121
 30
0.000000
  70
    32
  0
VERTEX
  8
0
  5
E47
 10
250.780
 20
169.128
 30
0.000000
  70
    32
  0
VERTEX
  8
0
  5
E48
 10
250.771
 20
169.136
 30
0.000000
  70
    32
  0
VERTEX
  8
0
  5
E49
 10
250.762
 20
169.143
 30
0.000000
  70
    32
  0
VERTEX
  8
0
  5
E4A
 10
250.753
 20
169.151
 30
0.000000
  70
    32
  0
VERTEX
  8
0
  5
E4B
 10
250.744
 20
169.158
 30
0.000000
  70
    32
  0
VERTEX
  8
0
  5
E4C
 10
250.734
 20
169.164
 30
0.000000
  70
    32
  0
VERTEX
  8
0
  5
E4D
 10
250.725
 20
169.171
 30
0.000000
  70
    32
  0
VERTEX
  8
0
  5
E4E
 10
250.716
 20
169.178
 30
0.000000
  70
    32
  0
VERTEX
  8
0
  5
E4F
 10
250.707
 20
169.184
 30
0.000000
  70
    32
  0
VERTEX
  8
0
  5
E50
 10
250.697
 20
169.190
 30
0.000000
  70
    32
  0
VERTEX
  8
0
  5
E51
 10
250.688
 20
169.196
 30
0.000000
  70
    32
  0
VERTEX
  8
0
  5
E52
 10
250.678
 20
169.202
 30
0.000000
  70
    32
  0
VERTEX
  8
0
  5
E53
 10
250.669
 20
169.208
 30
0.000000
  70
    32
  0
VERTEX
  8
0
  5
E54
 10
250.659
 20
169.213
 30
0.000000
  70
    32
  0
VERTEX
  8
0
  5
E55
 10
250.650
 20
169.219
 30
0.000000
  70
    32
  0
VERTEX
  8
0
  5
E56
 10
250.640
 20
169.224
 30
0.000000
  70
    32
  0
VERTEX
  8
0
  5
E57
 10
250.630
 20
169.229
 30
0.000000
  70
    32
  0
VERTEX
  8
0
  5
E58
 10
250.621
 20
169.234
 30
0.000000
  70
    32
  0
VERTEX
  8
0
  5
E59
 10
250.611
 20
169.238
 30
0.000000
  70
    32
  0
VERTEX
  8
0
  5
E5A
 10
250.601
 20
169.243
 30
0.000000
  70
    32
  0
VERTEX
  8
0
  5
E5B
 10
250.591
 20
169.247
 30
0.000000
  70
    32
  0
VERTEX
  8
0
  5
E5C
 10
250.581
 20
169.251
 30
0.000000
  70
    32
  0
VERTEX
  8
0
  5
E5D
 10
250.572
 20
169.255
 30
0.000000
  70
    32
  0
VERTEX
  8
0
  5
E5E
 10
250.562
 20
169.259
 30
0.000000
  70
    32
  0
VERTEX
  8
0
  5
E5F
 10
250.552
 20
169.263
 30
0.000000
  70
    32
  0
VERTEX
  8
0
  5
E60
 10
250.542
 20
169.266
 30
0.000000
  70
    32
  0
VERTEX
  8
0
  5
E61
 10
250.532
 20
169.269
 30
0.000000
  70
    32
  0
VERTEX
  8
0
  5
E62
 10
250.522
 20
169.272
 30
0.000000
  70
    32
  0
VERTEX
  8
0
  5
E63
 10
250.512
 20
169.275
 30
0.000000
  70
    32
  0
VERTEX
  8
0
  5
E64
 10
250.502
 20
169.278
 30
0.000000
  70
    32
  0
VERTEX
  8
0
  5
E65
 10
250.492
 20
169.280
 30
0.000000
  70
    32
  0
VERTEX
  8
0
  5
E66
 10
250.482
 20
169.282
 30
0.000000
  70
    32
  0
VERTEX
  8
0
  5
E67
 10
250.471
 20
169.285
 30
0.000000
  70
    32
  0
VERTEX
  8
0
  5
E68
 10
250.461
 20
169.287
 30
0.000000
  70
    32
  0
VERTEX
  8
0
  5
E69
 10
250.451
 20
169.288
 30
0.000000
  70
    32
  0
VERTEX
  8
0
  5
E6A
 10
250.441
 20
169.290
 30
0.000000
  70
    32
  0
VERTEX
  8
0
  5
E6B
 10
250.431
 20
169.291
 30
0.000000
  70
    32
  0
VERTEX
  8
0
  5
E6C
 10
250.421
 20
169.292
 30
0.000000
  70
    32
  0
VERTEX
  8
0
  5
E6D
 10
250.411
 20
169.293
 30
0.000000
  70
    32
  0
VERTEX
  8
0
  5
E6E
 10
250.400
 20
169.294
 30
0.000000
  70
    32
  0
VERTEX
  8
0
  5
E6F
 10
250.390
 20
169.295
 30
0.000000
  70
    32
  0
VERTEX
  8
0
  5
E70
 10
250.380
 20
169.295
 30
0.000000
  70
    32
  0
VERTEX
  8
0
  5
E71
 10
250.370
 20
169.296
 30
0.000000
  70
    32
  0
VERTEX
  8
0
  5
E72
 10
250.360
 20
169.296
 30
0.000000
  70
    32
  0
VERTEX
  8
0
  5
E73
 10
250.349
 20
169.296
 30
0.000000
  70
    32
  0
VERTEX
  8
0
  5
E74
 10
250.339
 20
169.295
 30
0.000000
  70
    32
  0
VERTEX
  8
0
  5
E75
 10
250.329
 20
169.295
 30
0.000000
  70
    32
  0
VERTEX
  8
0
  5
E76
 10
250.319
 20
169.294
 30
0.000000
  70
    32
  0
VERTEX
  8
0
  5
E77
 10
250.309
 20
169.293
 30
0.000000
  70
    32
  0
VERTEX
  8
0
  5
E78
 10
250.299
 20
169.292
 30
0.000000
  70
    32
  0
VERTEX
  8
0
  5
E79
 10
250.288
 20
169.291
 30
0.000000
  70
    32
  0
VERTEX
  8
0
  5
E7A
 10
250.278
 20
169.290
 30
0.000000
  70
    32
  0
VERTEX
  8
0
  5
E7B
 10
250.268
 20
169.288
 30
0.000000
  70
    32
  0
VERTEX
  8
0
  5
E7C
 10
250.258
 20
169.287
 30
0.000000
  70
    32
  0
VERTEX
  8
0
  5
E7D
 10
250.248
 20
169.285
 30
0.000000
  70
    32
  0
VERTEX
  8
0
  5
E7E
 10
250.238
 20
169.282
 30
0.000000
  70
    32
  0
VERTEX
  8
0
  5
E7F
 10
250.228
 20
169.280
 30
0.000000
  70
    32
  0
VERTEX
  8
0
  5
E80
 10
250.218
 20
169.278
 30
0.000000
  70
    32
  0
VERTEX
  8
0
  5
E81
 10
250.207
 20
169.275
 30
0.000000
  70
    32
  0
VERTEX
  8
0
  5
E82
 10
250.197
 20
169.272
 30
0.000000
  70
    32
  0
VERTEX
  8
0
  5
E83
 10
250.187
 20
169.269
 30
0.000000
  70
    32
  0
VERTEX
  8
0
  5
E84
 10
250.177
 20
169.266
 30
0.000000
  70
    32
  0
VERTEX
  8
0
  5
E85
 10
250.167
 20
169.263
 30
0.000000
  70
    32
  0
VERTEX
  8
0
  5
E86
 10
250.158
 20
169.259
 30
0.000000
  70
    32
  0
VERTEX
  8
0
  5
E87
 10
250.148
 20
169.255
 30
0.000000
  70
    32
  0
VERTEX
  8
0
  5
E88
 10
250.138
 20
169.251
 30
0.000000
  70
    32
  0
VERTEX
  8
0
  5
E89
 10
250.128
 20
169.247
 30
0.000000
  70
    32
  0
VERTEX
  8
0
  5
E8A
 10
250.118
 20
169.243
 30
0.000000
  70
    32
  0
VERTEX
  8
0
  5
E8B
 10
250.108
 20
169.238
 30
0.000000
  70
    32
  0
VERTEX
  8
0
  5
E8C
 10
250.099
 20
169.234
 30
0.000000
  70
    32
  0
VERTEX
  8
0
  5
E8D
 10
250.089
 20
169.229
 30
0.000000
  70
    32
  0
VERTEX
  8
0
  5
E8E
 10
250.079
 20
169.224
 30
0.000000
  70
    32
  0
VERTEX
  8
0
  5
E8F
 10
250.070
 20
169.219
 30
0.000000
  70
    32
  0
VERTEX
  8
0
  5
E90
 10
250.060
 20
169.213
 30
0.000000
  70
    32
  0
VERTEX
  8
0
  5
E91
 10
250.050
 20
169.208
 30
0.000000
  70
    32
  0
VERTEX
  8
0
  5
E92
 10
250.041
 20
169.202
 30
0.000000
  70
    32
  0
VERTEX
  8
0
  5
E93
 10
250.031
 20
169.196
 30
0.000000
  70
    32
  0
VERTEX
  8
0
  5
E94
 10
250.022
 20
169.190
 30
0.000000
  70
    32
  0
VERTEX
  8
0
  5
E95
 10
250.013
 20
169.184
 30
0.000000
  70
    32
  0
VERTEX
  8
0
  5
E96
 10
250.003
 20
169.178
 30
0.000000
  70
    32
  0
VERTEX
  8
0
  5
E97
 10
249.994
 20
169.171
 30
0.000000
  70
    32
  0
VERTEX
  8
0
  5
E98
 10
249.985
 20
169.164
 30
0.000000
  70
    32
  0
VERTEX
  8
0
  5
E99
 10
249.976
 20
169.158
 30
0.000000
  70
    32
  0
VERTEX
  8
0
  5
E9A
 10
249.966
 20
169.151
 30
0.000000
  70
    32
  0
VERTEX
  8
0
  5
E9B
 10
249.957
 20
169.143
 30
0.000000
  70
    32
  0
VERTEX
  8
0
  5
E9C
 10
249.948
 20
169.136
 30
0.000000
  70
    32
  0
VERTEX
  8
0
  5
E9D
 10
249.939
 20
169.128
 30
0.000000
  70
    32
  0
VERTEX
  8
0
  5
E9E
 10
249.931
 20
169.121
 30
0.000000
  70
    32
  0
VERTEX
  8
0
  5
E9F
 10
249.922
 20
169.113
 30
0.000000
  70
    32
  0
VERTEX
  8
0
  5
EA0
 10
249.913
 20
169.105
 30
0.000000
  70
    32
  0
VERTEX
  8
0
  5
EA1
 10
249.904
 20
169.097
 30
0.000000
  70
    32
  0
VERTEX
  8
0
  5
EA2
 10
249.896
 20
169.088
 30
0.000000
  70
    32
  0
VERTEX
  8
0
  5
EA3
 10
249.887
 20
169.080
 30
0.000000
  70
    32
  0
VERTEX
  8
0
  5
EA4
 10
249.878
 20
169.071
 30
0.000000
  70
    32
  0
VERTEX
  8
0
  5
EA5
 10
249.870
 20
169.062
 30
0.000000
  70
    32
  0
VERTEX
  8
0
  5
EA6
 10
249.862
 20
169.053
 30
0.000000
  70
    32
  0
VERTEX
  8
0
  5
EA7
 10
249.853
 20
169.044
 30
0.000000
  70
    32
  0
VERTEX
  8
0
  5
EA8
 10
249.845
 20
169.035
 30
0.000000
  70
    32
  0
VERTEX
  8
0
  5
EA9
 10
249.837
 20
169.026
 30
0.000000
  70
    32
  0
VERTEX
  8
0
  5
EAA
 10
249.829
 20
169.016
 30
0.000000
  70
    32
  0
VERTEX
  8
0
  5
EAB
 10
249.821
 20
169.006
 30
0.000000
  70
    32
  0
VERTEX
  8
0
  5
EAC
 10
249.813
 20
168.997
 30
0.000000
  70
    32
  0
VERTEX
  8
0
  5
EAD
 10
249.805
 20
168.987
 30
0.000000
  70
    32
  0
VERTEX
  8
0
  5
EAE
 10
249.797
 20
168.976
 30
0.000000
  70
    32
  0
VERTEX
  8
0
  5
EAF
 10
249.789
 20
168.966
 30
0.000000
  70
    32
  0
VERTEX
  8
0
  5
EB0
 10
249.781
 20
168.956
 30
0.000000
  70
    32
  0
VERTEX
  8
0
  5
EB1
 10
249.774
 20
168.945
 30
0.000000
  70
    32
  0
VERTEX
  8
0
  5
EB2
 10
249.766
 20
168.935
 30
0.000000
  70
    32
  0
SEQEND
  8
0
  5
EB3
  0
ARC
  5
A85
  8
0
 10
235.85050567117869
 20
155.82277974768249
 30
0.0
 40
20.0
 50
26.540009007947351
 51
40.96412461172509
  0
ARC
  5
A86
  8
0
 10
252.84833447173639
 20
164.31240966110829
 30
0.0
 40
1.0
 50
4.6151572348128216
 51
26.540009007947258
  0
LINE
  5
A87
  8
0
 10
253.8654262561536
 20
164.140976079425
 30
0.0
 11
253.8953763817517
 21
163.8494396516528
 31
0.0
  0
ARC
  5
A88
  8
0
 10
264.86876268549128
 20
155.82277974768249
 30
0.0
 40
20.0
 50
139.0358753885001
 51
153.45999099205261
  0
LINE
  5
A89
  8
0
 10
246.8538421005164
 20
164.140976079425
 30
0.0
 11
246.82389197491821
 21
163.8494396516528
 31
0.0
  0
LINE
  5
A8A
  8
0
 10
246.8538421005164
 20
164.140976079425
 30
0.0
 11
246.8741762574725
 21
164.39287227415349
 31
0.0
  0
ARC
  5
A8B
  8
0
 10
247.87093388493361
 20
164.31240966110829
 30
0.0
 40
1.0
 50
153.4599909920527
 51
175.38484276518719
  0
ARC
  5
A8F
  8
0
 10
254.3550462969512
 20
160.72110370691931
 30
0.0
 40
0.05
 50
187.4530187104076
 51
270.00000000001683
  0
ARC
  5
A90
  8
0
 10
246.3642220597188
 20
160.72110370691931
 30
0.0
 40
0.05
 50
269.99999999998317
 51
352.5469812895924
  0
LINE
  5
A91
  8
0
 10
246.4137996375531
 20
160.7146180476559
 30
0.0
 11
246.82389197491821
 21
163.8494396516528
 31
0.0
  0
LINE
  5
A92
  8
0
 10
254.44114720946251
 20
168.1294234637127
 30
0.0
 11
255.8337642310419
 21
166.67967300819501
 31
0.0
  0
LINE
  5
A93
  8
0
 10
255.83376423104181
 20
166.6796730081951
 30
0.0
 11
256.62520195417528
 21
166.3213419492385
 31
0.0
  0
ARC
  5
A97
  8
0
 10
256.109634178335
 20
165.18261903802829
 30
0.0
 40
1.25
 50
0.0
 51
65.640901373421741
  0
LINE
  5
A98
  8
0
 10
246.27812114720749
 20
168.1294234637127
 30
0.0
 11
244.8855041256281
 21
166.67967300819501
 31
0.0
  0
ARC
  5
A99
  8
0
 10
244.609634178335
 20
165.18261903802829
 30
0.0
 40
1.25
 50
114.3590986265782
 51
180.0
  0
LINE
  5
A9A
  8
0
 10
244.88550412562819
 20
166.6796730081951
 30
0.0
 11
244.09406640249469
 21
166.3213419492385
 31
0.0
  0
POLYLINE
  5
AAD
  8
0
 10
246.78663327440083
 20
160.16926222649136
 30
0.0
 66
     1
 70
     8
  0
VERTEX
  8
0
  5
EB4
 10
246.787
 20
160.169
 30
0.000000
  70
    32
  0
VERTEX
  8
0
  5
EB5
 10
246.787
 20
160.175
 30
0.000000
  70
    32
  0
VERTEX
  8
0
  5
EB6
 10
246.787
 20
160.182
 30
0.000000
  70
    32
  0
VERTEX
  8
0
  5
EB7
 10
246.787
 20
160.188
 30
0.000000
  70
    32
  0
VERTEX
  8
0
  5
EB8
 10
246.786
 20
160.194
 30
0.000000
  70
    32
  0
VERTEX
  8
0
  5
EB9
 10
246.786
 20
160.200
 30
0.000000
  70
    32
  0
VERTEX
  8
0
  5
EBA
 10
246.786
 20
160.206
 30
0.000000
  70
    32
  0
VERTEX
  8
0
  5
EBB
 10
246.786
 20
160.212
 30
0.000000
  70
    32
  0
VERTEX
  8
0
  5
EBC
 10
246.786
 20
160.218
 30
0.000000
  70
    32
  0
VERTEX
  8
0
  5
EBD
 10
246.786
 20
160.225
 30
0.000000
  70
    32
  0
VERTEX
  8
0
  5
EBE
 10
246.785
 20
160.231
 30
0.000000
  70
    32
  0
VERTEX
  8
0
  5
EBF
 10
246.785
 20
160.237
 30
0.000000
  70
    32
  0
VERTEX
  8
0
  5
EC0
 10
246.785
 20
160.243
 30
0.000000
  70
    32
  0
VERTEX
  8
0
  5
EC1
 10
246.784
 20
160.249
 30
0.000000
  70
    32
  0
VERTEX
  8
0
  5
EC2
 10
246.784
 20
160.255
 30
0.000000
  70
    32
  0
VERTEX
  8
0
  5
EC3
 10
246.784
 20
160.261
 30
0.000000
  70
    32
  0
VERTEX
  8
0
  5
EC4
 10
246.783
 20
160.267
 30
0.000000
  70
    32
  0
VERTEX
  8
0
  5
EC5
 10
246.783
 20
160.273
 30
0.000000
  70
    32
  0
VERTEX
  8
0
  5
EC6
 10
246.782
 20
160.279
 30
0.000000
  70
    32
  0
VERTEX
  8
0
  5
EC7
 10
246.782
 20
160.285
 30
0.000000
  70
    32
  0
VERTEX
  8
0
  5
EC8
 10
246.781
 20
160.291
 30
0.000000
  70
    32
  0
VERTEX
  8
0
  5
EC9
 10
246.781
 20
160.297
 30
0.000000
  70
    32
  0
VERTEX
  8
0
  5
ECA
 10
246.780
 20
160.303
 30
0.000000
  70
    32
  0
VERTEX
  8
0
  5
ECB
 10
246.780
 20
160.309
 30
0.000000
  70
    32
  0
VERTEX
  8
0
  5
ECC
 10
246.779
 20
160.315
 30
0.000000
  70
    32
  0
VERTEX
  8
0
  5
ECD
 10
246.779
 20
160.321
 30
0.000000
  70
    32
  0
VERTEX
  8
0
  5
ECE
 10
246.778
 20
160.327
 30
0.000000
  70
    32
  0
VERTEX
  8
0
  5
ECF
 10
246.777
 20
160.333
 30
0.000000
  70
    32
  0
VERTEX
  8
0
  5
ED0
 10
246.777
 20
160.338
 30
0.000000
  70
    32
  0
VERTEX
  8
0
  5
ED1
 10
246.776
 20
160.344
 30
0.000000
  70
    32
  0
VERTEX
  8
0
  5
ED2
 10
246.775
 20
160.350
 30
0.000000
  70
    32
  0
VERTEX
  8
0
  5
ED3
 10
246.774
 20
160.356
 30
0.000000
  70
    32
  0
VERTEX
  8
0
  5
ED4
 10
246.773
 20
160.361
 30
0.000000
  70
    32
  0
VERTEX
  8
0
  5
ED5
 10
246.773
 20
160.367
 30
0.000000
  70
    32
  0
VERTEX
  8
0
  5
ED6
 10
246.772
 20
160.373
 30
0.000000
  70
    32
  0
VERTEX
  8
0
  5
ED7
 10
246.771
 20
160.378
 30
0.000000
  70
    32
  0
VERTEX
  8
0
  5
ED8
 10
246.770
 20
160.384
 30
0.000000
  70
    32
  0
VERTEX
  8
0
  5
ED9
 10
246.769
 20
160.389
 30
0.000000
  70
    32
  0
VERTEX
  8
0
  5
EDA
 10
246.768
 20
160.395
 30
0.000000
  70
    32
  0
VERTEX
  8
0
  5
EDB
 10
246.767
 20
160.400
 30
0.000000
  70
    32
  0
VERTEX
  8
0
  5
EDC
 10
246.766
 20
160.406
 30
0.000000
  70
    32
  0
VERTEX
  8
0
  5
EDD
 10
246.765
 20
160.411
 30
0.000000
  70
    32
  0
VERTEX
  8
0
  5
EDE
 10
246.764
 20
160.417
 30
0.000000
  70
    32
  0
VERTEX
  8
0
  5
EDF
 10
246.763
 20
160.422
 30
0.000000
  70
    32
  0
VERTEX
  8
0
  5
EE0
 10
246.762
 20
160.427
 30
0.000000
  70
    32
  0
VERTEX
  8
0
  5
EE1
 10
246.761
 20
160.433
 30
0.000000
  70
    32
  0
VERTEX
  8
0
  5
EE2
 10
246.760
 20
160.438
 30
0.000000
  70
    32
  0
VERTEX
  8
0
  5
EE3
 10
246.759
 20
160.443
 30
0.000000
  70
    32
  0
VERTEX
  8
0
  5
EE4
 10
246.758
 20
160.448
 30
0.000000
  70
    32
  0
VERTEX
  8
0
  5
EE5
 10
246.756
 20
160.453
 30
0.000000
  70
    32
  0
VERTEX
  8
0
  5
EE6
 10
246.755
 20
160.458
 30
0.000000
  70
    32
  0
VERTEX
  8
0
  5
EE7
 10
246.754
 20
160.463
 30
0.000000
  70
    32
  0
VERTEX
  8
0
  5
EE8
 10
246.753
 20
160.468
 30
0.000000
  70
    32
  0
VERTEX
  8
0
  5
EE9
 10
246.751
 20
160.473
 30
0.000000
  70
    32
  0
VERTEX
  8
0
  5
EEA
 10
246.750
 20
160.478
 30
0.000000
  70
    32
  0
VERTEX
  8
0
  5
EEB
 10
246.749
 20
160.483
 30
0.000000
  70
    32
  0
VERTEX
  8
0
  5
EEC
 10
246.747
 20
160.488
 30
0.000000
  70
    32
  0
VERTEX
  8
0
  5
EED
 10
246.746
 20
160.492
 30
0.000000
  70
    32
  0
VERTEX
  8
0
  5
EEE
 10
246.745
 20
160.497
 30
0.000000
  70
    32
  0
VERTEX
  8
0
  5
EEF
 10
246.743
 20
160.502
 30
0.000000
  70
    32
  0
VERTEX
  8
0
  5
EF0
 10
246.742
 20
160.506
 30
0.000000
  70
    32
  0
VERTEX
  8
0
  5
EF1
 10
246.741
 20
160.511
 30
0.000000
  70
    32
  0
VERTEX
  8
0
  5
EF2
 10
246.739
 20
160.515
 30
0.000000
  70
    32
  0
VERTEX
  8
0
  5
EF3
 10
246.738
 20
160.520
 30
0.000000
  70
    32
  0
VERTEX
  8
0
  5
EF4
 10
246.736
 20
160.524
 30
0.000000
  70
    32
  0
VERTEX
  8
0
  5
EF5
 10
246.735
 20
160.528
 30
0.000000
  70
    32
  0
VERTEX
  8
0
  5
EF6
 10
246.733
 20
160.533
 30
0.000000
  70
    32
  0
VERTEX
  8
0
  5
EF7
 10
246.732
 20
160.537
 30
0.000000
  70
    32
  0
VERTEX
  8
0
  5
EF8
 10
246.730
 20
160.541
 30
0.000000
  70
    32
  0
VERTEX
  8
0
  5
EF9
 10
246.728
 20
160.545
 30
0.000000
  70
    32
  0
VERTEX
  8
0
  5
EFA
 10
246.727
 20
160.549
 30
0.000000
  70
    32
  0
VERTEX
  8
0
  5
EFB
 10
246.725
 20
160.553
 30
0.000000
  70
    32
  0
VERTEX
  8
0
  5
EFC
 10
246.724
 20
160.557
 30
0.000000
  70
    32
  0
VERTEX
  8
0
  5
EFD
 10
246.722
 20
160.561
 30
0.000000
  70
    32
  0
VERTEX
  8
0
  5
EFE
 10
246.720
 20
160.565
 30
0.000000
  70
    32
  0
VERTEX
  8
0
  5
EFF
 10
246.719
 20
160.569
 30
0.000000
  70
    32
  0
VERTEX
  8
0
  5
F00
 10
246.717
 20
160.572
 30
0.000000
  70
    32
  0
VERTEX
  8
0
  5
F01
 10
246.715
 20
160.576
 30
0.000000
  70
    32
  0
VERTEX
  8
0
  5
F02
 10
246.713
 20
160.580
 30
0.000000
  70
    32
  0
VERTEX
  8
0
  5
F03
 10
246.712
 20
160.583
 30
0.000000
  70
    32
  0
VERTEX
  8
0
  5
F04
 10
246.710
 20
160.587
 30
0.000000
  70
    32
  0
VERTEX
  8
0
  5
F05
 10
246.708
 20
160.590
 30
0.000000
  70
    32
  0
VERTEX
  8
0
  5
F06
 10
246.706
 20
160.593
 30
0.000000
  70
    32
  0
VERTEX
  8
0
  5
F07
 10
246.705
 20
160.597
 30
0.000000
  70
    32
  0
VERTEX
  8
0
  5
F08
 10
246.703
 20
160.600
 30
0.000000
  70
    32
  0
VERTEX
  8
0
  5
F09
 10
246.701
 20
160.603
 30
0.000000
  70
    32
  0
VERTEX
  8
0
  5
F0A
 10
246.699
 20
160.606
 30
0.000000
  70
    32
  0
VERTEX
  8
0
  5
F0B
 10
246.697
 20
160.609
 30
0.000000
  70
    32
  0
VERTEX
  8
0
  5
F0C
 10
246.695
 20
160.612
 30
0.000000
  70
    32
  0
VERTEX
  8
0
  5
F0D
 10
246.694
 20
160.615
 30
0.000000
  70
    32
  0
VERTEX
  8
0
  5
F0E
 10
246.692
 20
160.618
 30
0.000000
  70
    32
  0
VERTEX
  8
0
  5
F0F
 10
246.690
 20
160.620
 30
0.000000
  70
    32
  0
VERTEX
  8
0
  5
F10
 10
246.688
 20
160.623
 30
0.000000
  70
    32
  0
VERTEX
  8
0
  5
F11
 10
246.686
 20
160.626
 30
0.000000
  70
    32
  0
VERTEX
  8
0
  5
F12
 10
246.684
 20
160.628
 30
0.000000
  70
    32
  0
VERTEX
  8
0
  5
F13
 10
246.682
 20
160.631
 30
0.000000
  70
    32
  0
VERTEX
  8
0
  5
F14
 10
246.680
 20
160.633
 30
0.000000
  70
    32
  0
VERTEX
  8
0
  5
F15
 10
246.678
 20
160.635
 30
0.000000
  70
    32
  0
VERTEX
  8
0
  5
F16
 10
246.676
 20
160.637
 30
0.000000
  70
    32
  0
VERTEX
  8
0
  5
F17
 10
246.674
 20
160.640
 30
0.000000
  70
    32
  0
VERTEX
  8
0
  5
F18
 10
246.672
 20
160.642
 30
0.000000
  70
    32
  0
VERTEX
  8
0
  5
F19
 10
246.670
 20
160.644
 30
0.000000
  70
    32
  0
VERTEX
  8
0
  5
F1A
 10
246.668
 20
160.646
 30
0.000000
  70
    32
  0
VERTEX
  8
0
  5
F1B
 10
246.666
 20
160.648
 30
0.000000
  70
    32
  0
VERTEX
  8
0
  5
F1C
 10
246.664
 20
160.649
 30
0.000000
  70
    32
  0
VERTEX
  8
0
  5
F1D
 10
246.662
 20
160.651
 30
0.000000
  70
    32
  0
VERTEX
  8
0
  5
F1E
 10
246.660
 20
160.653
 30
0.000000
  70
    32
  0
VERTEX
  8
0
  5
F1F
 10
246.658
 20
160.655
 30
0.000000
  70
    32
  0
VERTEX
  8
0
  5
F20
 10
246.656
 20
160.656
 30
0.000000
  70
    32
  0
VERTEX
  8
0
  5
F21
 10
246.654
 20
160.658
 30
0.000000
  70
    32
  0
VERTEX
  8
0
  5
F22
 10
246.652
 20
160.659
 30
0.000000
  70
    32
  0
VERTEX
  8
0
  5
F23
 10
246.650
 20
160.660
 30
0.000000
  70
    32
  0
VERTEX
  8
0
  5
F24
 10
246.648
 20
160.661
 30
0.000000
  70
    32
  0
VERTEX
  8
0
  5
F25
 10
246.646
 20
160.663
 30
0.000000
  70
    32
  0
VERTEX
  8
0
  5
F26
 10
246.644
 20
160.664
 30
0.000000
  70
    32
  0
VERTEX
  8
0
  5
F27
 10
246.642
 20
160.665
 30
0.000000
  70
    32
  0
VERTEX
  8
0
  5
F28
 10
246.639
 20
160.666
 30
0.000000
  70
    32
  0
VERTEX
  8
0
  5
F29
 10
246.637
 20
160.667
 30
0.000000
  70
    32
  0
VERTEX
  8
0
  5
F2A
 10
246.635
 20
160.667
 30
0.000000
  70
    32
  0
VERTEX
  8
0
  5
F2B
 10
246.633
 20
160.668
 30
0.000000
  70
    32
  0
VERTEX
  8
0
  5
F2C
 10
246.631
 20
160.669
 30
0.000000
  70
    32
  0
VERTEX
  8
0
  5
F2D
 10
246.629
 20
160.669
 30
0.000000
  70
    32
  0
VERTEX
  8
0
  5
F2E
 10
246.627
 20
160.670
 30
0.000000
  70
    32
  0
VERTEX
  8
0
  5
F2F
 10
246.625
 20
160.670
 30
0.000000
  70
    32
  0
VERTEX
  8
0
  5
F30
 10
246.623
 20
160.670
 30
0.000000
  70
    32
  0
VERTEX
  8
0
  5
F31
 10
246.621
 20
160.671
 30
0.000000
  70
    32
  0
VERTEX
  8
0
  5
F32
 10
246.618
 20
160.671
 30
0.000000
  70
    32
  0
VERTEX
  8
0
  5
F33
 10
246.616
 20
160.671
 30
0.000000
  70
    32
  0
VERTEX
  8
0
  5
F34
 10
246.614
 20
160.671
 30
0.000000
  70
    32
  0
SEQEND
  8
0
  5
F35
  0
ARC
  5
AAE
  8
0
 10
236.81983699084941
 20
160.98349286821971
 30
0.0
 40
10.0
 50
331.23365111884709
 51
355.32963180574501
  0
ARC
  5
AAF
  8
0
 10
263.89943136582059
 20
160.98349286821971
 30
0.0
 40
10.0
 50
184.6703681942551
 51
208.76634888115291
  0
POLYLINE
  5
AB0
  8
0
 10
253.93263508226917
 20
160.16926222649136
 30
0.0
 66
     1
 70
     8
  0
VERTEX
  8
0
  5
F36
 10
253.933
 20
160.169
 30
0.000000
  70
    32
  0
VERTEX
  8
0
  5
F37
 10
253.933
 20
160.175
 30
0.000000
  70
    32
  0
VERTEX
  8
0
  5
F38
 10
253.933
 20
160.182
 30
0.000000
  70
    32
  0
VERTEX
  8
0
  5
F39
 10
253.933
 20
160.188
 30
0.000000
  70
    32
  0
VERTEX
  8
0
  5
F3A
 10
253.933
 20
160.194
 30
0.000000
  70
    32
  0
VERTEX
  8
0
  5
F3B
 10
253.933
 20
160.200
 30
0.000000
  70
    32
  0
VERTEX
  8
0
  5
F3C
 10
253.933
 20
160.206
 30
0.000000
  70
    32
  0
VERTEX
  8
0
  5
F3D
 10
253.933
 20
160.212
 30
0.000000
  70
    32
  0
VERTEX
  8
0
  5
F3E
 10
253.933
 20
160.218
 30
0.000000
  70
    32
  0
VERTEX
  8
0
  5
F3F
 10
253.934
 20
160.225
 30
0.000000
  70
    32
  0
VERTEX
  8
0
  5
F40
 10
253.934
 20
160.231
 30
0.000000
  70
    32
  0
VERTEX
  8
0
  5
F41
 10
253.934
 20
160.237
 30
0.000000
  70
    32
  0
VERTEX
  8
0
  5
F42
 10
253.935
 20
160.243
 30
0.000000
  70
    32
  0
VERTEX
  8
0
  5
F43
 10
253.935
 20
160.249
 30
0.000000
  70
    32
  0
VERTEX
  8
0
  5
F44
 10
253.935
 20
160.255
 30
0.000000
  70
    32
  0
VERTEX
  8
0
  5
F45
 10
253.936
 20
160.261
 30
0.000000
  70
    32
  0
VERTEX
  8
0
  5
F46
 10
253.936
 20
160.267
 30
0.000000
  70
    32
  0
VERTEX
  8
0
  5
F47
 10
253.936
 20
160.273
 30
0.000000
  70
    32
  0
VERTEX
  8
0
  5
F48
 10
253.937
 20
160.279
 30
0.000000
  70
    32
  0
VERTEX
  8
0
  5
F49
 10
253.937
 20
160.285
 30
0.000000
  70
    32
  0
VERTEX
  8
0
  5
F4A
 10
253.938
 20
160.291
 30
0.000000
  70
    32
  0
VERTEX
  8
0
  5
F4B
 10
253.938
 20
160.297
 30
0.000000
  70
    32
  0
VERTEX
  8
0
  5
F4C
 10
253.939
 20
160.303
 30
0.000000
  70
    32
  0
VERTEX
  8
0
  5
F4D
 10
253.939
 20
160.309
 30
0.000000
  70
    32
  0
VERTEX
  8
0
  5
F4E
 10
253.940
 20
160.315
 30
0.000000
  70
    32
  0
VERTEX
  8
0
  5
F4F
 10
253.941
 20
160.321
 30
0.000000
  70
    32
  0
VERTEX
  8
0
  5
F50
 10
253.941
 20
160.327
 30
0.000000
  70
    32
  0
VERTEX
  8
0
  5
F51
 10
253.942
 20
160.333
 30
0.000000
  70
    32
  0
VERTEX
  8
0
  5
F52
 10
253.943
 20
160.338
 30
0.000000
  70
    32
  0
VERTEX
  8
0
  5
F53
 10
253.943
 20
160.344
 30
0.000000
  70
    32
  0
VERTEX
  8
0
  5
F54
 10
253.944
 20
160.350
 30
0.000000
  70
    32
  0
VERTEX
  8
0
  5
F55
 10
253.945
 20
160.356
 30
0.000000
  70
    32
  0
VERTEX
  8
0
  5
F56
 10
253.946
 20
160.361
 30
0.000000
  70
    32
  0
VERTEX
  8
0
  5
F57
 10
253.947
 20
160.367
 30
0.000000
  70
    32
  0
VERTEX
  8
0
  5
F58
 10
253.947
 20
160.373
 30
0.000000
  70
    32
  0
VERTEX
  8
0
  5
F59
 10
253.948
 20
160.378
 30
0.000000
  70
    32
  0
VERTEX
  8
0
  5
F5A
 10
253.949
 20
160.384
 30
0.000000
  70
    32
  0
VERTEX
  8
0
  5
F5B
 10
253.950
 20
160.389
 30
0.000000
  70
    32
  0
VERTEX
  8
0
  5
F5C
 10
253.951
 20
160.395
 30
0.000000
  70
    32
  0
VERTEX
  8
0
  5
F5D
 10
253.952
 20
160.400
 30
0.000000
  70
    32
  0
VERTEX
  8
0
  5
F5E
 10
253.953
 20
160.406
 30
0.000000
  70
    32
  0
VERTEX
  8
0
  5
F5F
 10
253.954
 20
160.411
 30
0.000000
  70
    32
  0
VERTEX
  8
0
  5
F60
 10
253.955
 20
160.417
 30
0.000000
  70
    32
  0
VERTEX
  8
0
  5
F61
 10
253.956
 20
160.422
 30
0.000000
  70
    32
  0
VERTEX
  8
0
  5
F62
 10
253.957
 20
160.427
 30
0.000000
  70
    32
  0
VERTEX
  8
0
  5
F63
 10
253.958
 20
160.433
 30
0.000000
  70
    32
  0
VERTEX
  8
0
  5
F64
 10
253.959
 20
160.438
 30
0.000000
  70
    32
  0
VERTEX
  8
0
  5
F65
 10
253.961
 20
160.443
 30
0.000000
  70
    32
  0
VERTEX
  8
0
  5
F66
 10
253.962
 20
160.448
 30
0.000000
  70
    32
  0
VERTEX
  8
0
  5
F67
 10
253.963
 20
160.453
 30
0.000000
  70
    32
  0
VERTEX
  8
0
  5
F68
 10
253.964
 20
160.458
 30
0.000000
  70
    32
  0
VERTEX
  8
0
  5
F69
 10
253.965
 20
160.463
 30
0.000000
  70
    32
  0
VERTEX
  8
0
  5
F6A
 10
253.967
 20
160.468
 30
0.000000
  70
    32
  0
VERTEX
  8
0
  5
F6B
 10
253.968
 20
160.473
 30
0.000000
  70
    32
  0
VERTEX
  8
0
  5
F6C
 10
253.969
 20
160.478
 30
0.000000
  70
    32
  0
VERTEX
  8
0
  5
F6D
 10
253.970
 20
160.483
 30
0.000000
  70
    32
  0
VERTEX
  8
0
  5
F6E
 10
253.972
 20
160.488
 30
0.000000
  70
    32
  0
VERTEX
  8
0
  5
F6F
 10
253.973
 20
160.492
 30
0.000000
  70
    32
  0
VERTEX
  8
0
  5
F70
 10
253.975
 20
160.497
 30
0.000000
  70
    32
  0
VERTEX
  8
0
  5
F71
 10
253.976
 20
160.502
 30
0.000000
  70
    32
  0
VERTEX
  8
0
  5
F72
 10
253.977
 20
160.506
 30
0.000000
  70
    32
  0
VERTEX
  8
0
  5
F73
 10
253.979
 20
160.511
 30
0.000000
  70
    32
  0
VERTEX
  8
0
  5
F74
 10
253.980
 20
160.515
 30
0.000000
  70
    32
  0
VERTEX
  8
0
  5
F75
 10
253.982
 20
160.520
 30
0.000000
  70
    32
  0
VERTEX
  8
0
  5
F76
 10
253.983
 20
160.524
 30
0.000000
  70
    32
  0
VERTEX
  8
0
  5
F77
 10
253.985
 20
160.528
 30
0.000000
  70
    32
  0
VERTEX
  8
0
  5
F78
 10
253.986
 20
160.533
 30
0.000000
  70
    32
  0
VERTEX
  8
0
  5
F79
 10
253.988
 20
160.537
 30
0.000000
  70
    32
  0
VERTEX
  8
0
  5
F7A
 10
253.989
 20
160.541
 30
0.000000
  70
    32
  0
VERTEX
  8
0
  5
F7B
 10
253.991
 20
160.545
 30
0.000000
  70
    32
  0
VERTEX
  8
0
  5
F7C
 10
253.992
 20
160.549
 30
0.000000
  70
    32
  0
VERTEX
  8
0
  5
F7D
 10
253.994
 20
160.553
 30
0.000000
  70
    32
  0
VERTEX
  8
0
  5
F7E
 10
253.996
 20
160.557
 30
0.000000
  70
    32
  0
VERTEX
  8
0
  5
F7F
 10
253.997
 20
160.561
 30
0.000000
  70
    32
  0
VERTEX
  8
0
  5
F80
 10
253.999
 20
160.565
 30
0.000000
  70
    32
  0
VERTEX
  8
0
  5
F81
 10
254.001
 20
160.569
 30
0.000000
  70
    32
  0
VERTEX
  8
0
  5
F82
 10
254.002
 20
160.572
 30
0.000000
  70
    32
  0
VERTEX
  8
0
  5
F83
 10
254.004
 20
160.576
 30
0.000000
  70
    32
  0
VERTEX
  8
0
  5
F84
 10
254.006
 20
160.580
 30
0.000000
  70
    32
  0
VERTEX
  8
0
  5
F85
 10
254.008
 20
160.583
 30
0.000000
  70
    32
  0
VERTEX
  8
0
  5
F86
 10
254.009
 20
160.587
 30
0.000000
  70
    32
  0
VERTEX
  8
0
  5
F87
 10
254.011
 20
160.590
 30
0.000000
  70
    32
  0
VERTEX
  8
0
  5
F88
 10
254.013
 20
160.593
 30
0.000000
  70
    32
  0
VERTEX
  8
0
  5
F89
 10
254.015
 20
160.597
 30
0.000000
  70
    32
  0
VERTEX
  8
0
  5
F8A
 10
254.016
 20
160.600
 30
0.000000
  70
    32
  0
VERTEX
  8
0
  5
F8B
 10
254.018
 20
160.603
 30
0.000000
  70
    32
  0
VERTEX
  8
0
  5
F8C
 10
254.020
 20
160.606
 30
0.000000
  70
    32
  0
VERTEX
  8
0
  5
F8D
 10
254.022
 20
160.609
 30
0.000000
  70
    32
  0
VERTEX
  8
0
  5
F8E
 10
254.024
 20
160.612
 30
0.000000
  70
    32
  0
VERTEX
  8
0
  5
F8F
 10
254.026
 20
160.615
 30
0.000000
  70
    32
  0
VERTEX
  8
0
  5
F90
 10
254.028
 20
160.618
 30
0.000000
  70
    32
  0
VERTEX
  8
0
  5
F91
 10
254.029
 20
160.620
 30
0.000000
  70
    32
  0
VERTEX
  8
0
  5
F92
 10
254.031
 20
160.623
 30
0.000000
  70
    32
  0
VERTEX
  8
0
  5
F93
 10
254.033
 20
160.626
 30
0.000000
  70
    32
  0
VERTEX
  8
0
  5
F94
 10
254.035
 20
160.628
 30
0.000000
  70
    32
  0
VERTEX
  8
0
  5
F95
 10
254.037
 20
160.631
 30
0.000000
  70
    32
  0
VERTEX
  8
0
  5
F96
 10
254.039
 20
160.633
 30
0.000000
  70
    32
  0
VERTEX
  8
0
  5
F97
 10
254.041
 20
160.635
 30
0.000000
  70
    32
  0
VERTEX
  8
0
  5
F98
 10
254.043
 20
160.637
 30
0.000000
  70
    32
  0
VERTEX
  8
0
  5
F99
 10
254.045
 20
160.640
 30
0.000000
  70
    32
  0
VERTEX
  8
0
  5
F9A
 10
254.047
 20
160.642
 30
0.000000
  70
    32
  0
VERTEX
  8
0
  5
F9B
 10
254.049
 20
160.644
 30
0.000000
  70
    32
  0
VERTEX
  8
0
  5
F9C
 10
254.051
 20
160.646
 30
0.000000
  70
    32
  0
VERTEX
  8
0
  5
F9D
 10
254.053
 20
160.648
 30
0.000000
  70
    32
  0
VERTEX
  8
0
  5
F9E
 10
254.055
 20
160.649
 30
0.000000
  70
    32
  0
VERTEX
  8
0
  5
F9F
 10
254.057
 20
160.651
 30
0.000000
  70
    32
  0
VERTEX
  8
0
  5
FA0
 10
254.059
 20
160.653
 30
0.000000
  70
    32
  0
VERTEX
  8
0
  5
FA1
 10
254.061
 20
160.655
 30
0.000000
  70
    32
  0
VERTEX
  8
0
  5
FA2
 10
254.063
 20
160.656
 30
0.000000
  70
    32
  0
VERTEX
  8
0
  5
FA3
 10
254.065
 20
160.658
 30
0.000000
  70
    32
  0
VERTEX
  8
0
  5
FA4
 10
254.067
 20
160.659
 30
0.000000
  70
    32
  0
VERTEX
  8
0
  5
FA5
 10
254.069
 20
160.660
 30
0.000000
  70
    32
  0
VERTEX
  8
0
  5
FA6
 10
254.071
 20
160.661
 30
0.000000
  70
    32
  0
VERTEX
  8
0
  5
FA7
 10
254.074
 20
160.663
 30
0.000000
  70
    32
  0
VERTEX
  8
0
  5
FA8
 10
254.076
 20
160.664
 30
0.000000
  70
    32
  0
VERTEX
  8
0
  5
FA9
 10
254.078
 20
160.665
 30
0.000000
  70
    32
  0
VERTEX
  8
0
  5
FAA
 10
254.080
 20
160.666
 30
0.000000
  70
    32
  0
VERTEX
  8
0
  5
FAB
 10
254.082
 20
160.667
 30
0.000000
  70
    32
  0
VERTEX
  8
0
  5
FAC
 10
254.084
 20
160.667
 30
0.000000
  70
    32
  0
VERTEX
  8
0
  5
FAD
 10
254.086
 20
160.668
 30
0.000000
  70
    32
  0
VERTEX
  8
0
  5
FAE
 10
254.088
 20
160.669
 30
0.000000
  70
    32
  0
VERTEX
  8
0
  5
FAF
 10
254.090
 20
160.669
 30
0.000000
  70
    32
  0
VERTEX
  8
0
  5
FB0
 10
254.092
 20
160.670
 30
0.000000
  70
    32
  0
VERTEX
  8
0
  5
FB1
 10
254.094
 20
160.670
 30
0.000000
  70
    32
  0
VERTEX
  8
0
  5
FB2
 10
254.097
 20
160.670
 30
0.000000
  70
    32
  0
VERTEX
  8
0
  5
FB3
 10
254.099
 20
160.671
 30
0.000000
  70
    32
  0
VERTEX
  8
0
  5
FB4
 10
254.101
 20
160.671
 30
0.000000
  70
    32
  0
VERTEX
  8
0
  5
FB5
 10
254.103
 20
160.671
 30
0.000000
  70
    32
  0
VERTEX
  8
0
  5
FB6
 10
254.105
 20
160.671
 30
0.000000
  70
    32
  0
SEQEND
  8
0
  5
FB7
  0
LINE
  5
AB4
  8
0
 10
257.359634178335
 20
165.18261903802829
 30
0.0
 11
256.859634178335
 21
145.6711037069193
 31
0.0
  0
LINE
  5
AB5
  8
0
 10
243.359634178335
 20
165.18261903802829
 30
0.0
 11
243.859634178335
 21
145.6711037069193
 31
0.0
  0
LINE
  5
ABD
  8
3
 10
156.15941264403321
 20
139.6711037069193
 30
0.0
 11
155.72641264403339
 21
140.42108170659631
 31
0.0
  0
LINE
  5
ABE
  8
0
 10
160.7264126440333
 20
92.571103706919416
 30
0.0
 11
155.7264126440333
 21
92.571103706919416
 31
0.0
  0
LINE
  5
ABF
  8
0
 10
156.62641264403339
 20
91.671103706919382
 30
0.0
 11
155.7264126440333
 21
92.571103706919359
 31
0.0
  0
LINE
  5
AC0
  8
0
 10
160.72641264403339
 20
92.571103706919359
 30
0.0
 11
159.82641264403341
 21
91.671103706919382
 31
0.0
  0
LINE
  5
AC1
  8
3
 10
160.29341264403359
 20
139.6711037069193
 30
0.0
 11
160.72641264403339
 21
140.42108170659631
 31
0.0
  0
LINE
  5
AC2
  8
0
 10
160.72641264403339
 20
139.6711037069193
 30
0.0
 11
155.72641264403339
 21
139.6711037069193
 31
0.0
  0
LINE
  5
AC3
  8
0
 10
159.82641264403341
 20
91.671103706919382
 30
0.0
 11
156.62641264403339
 21
91.671103706919382
 31
0.0
  0
LINE
  5
AC4
  8
0
 10
160.72641264403339
 20
141.67110370691941
 30
0.0
 11
160.72641264403359
 21
92.571103706919516
 31
0.0
  0
LINE
  5
AC5
  8
3
 10
160.29341264403359
 20
139.6711037069193
 30
0.0
 11
160.29341264403371
 21
92.138103706919679
 31
0.0
  0
LINE
  5
AC6
  8
3
 10
156.15941264403321
 20
139.6711037069193
 30
0.0
 11
156.1594126440333
 21
92.138103706919424
 31
0.0
  0
LINE
  5
AC7
  8
0
 10
155.72641264403339
 20
141.67110370691941
 30
0.0
 11
155.72641264403299
 21
92.5711037069197
 31
0.0
  0
LINE
  5
AD6
  8
0
 10
99.161858812319849
 20
139.6711037069193
 30
0.0
 11
94.161858812319849
 21
139.6711037069193
 31
0.0
  0
LINE
  5
AD7
  8
0
 10
99.161858812319849
 20
92.571103706919416
 30
0.0
 11
94.161858812319849
 21
92.571103706919416
 31
0.0
  0
LINE
  5
AD8
  8
0
 10
98.261858812319872
 20
91.671103706919382
 30
0.0
 11
95.061858812319826
 21
91.671103706919382
 31
0.0
  0
LINE
  5
AD9
  8
3
 10
94.594858812319686
 20
139.6711037069193
 30
0.0
 11
94.594858812319643
 21
92.138103706919594
 31
0.0
  0
LINE
  5
ADA
  8
0
 10
94.161858812319849
 20
141.67110370691941
 30
0.0
 11
94.161858812319778
 21
92.571103706919445
 31
0.0
  0
LINE
  5
ADB
  8
0
 10
95.061858812319826
 20
91.671103706919382
 30
0.0
 11
94.161858812319849
 21
92.571103706919359
 31
0.0
  0
LINE
  5
ADC
  8
3
 10
94.594858812319686
 20
139.6711037069193
 30
0.0
 11
94.161858812319906
 21
140.42108170659631
 31
0.0
  0
LINE
  5
ADD
  8
3
 10
98.728858812320084
 20
139.6711037069193
 30
0.0
 11
98.728858812319743
 21
92.138103706919253
 31
0.0
  0
LINE
  5
ADE
  8
0
 10
99.161858812319849
 20
141.67110370691941
 30
0.0
 11
99.161858812319764
 21
92.571103706919317
 31
0.0
  0
LINE
  5
ADF
  8
0
 10
99.161858812319849
 20
92.571103706919359
 30
0.0
 11
98.261858812319872
 21
91.671103706919382
 31
0.0
  0
LINE
  5
AE0
  8
3
 10
98.728858812320084
 20
139.6711037069193
 30
0.0
 11
99.161858812319849
 21
140.42108170659631
 31
0.0
  0
LINE
  5
AE1
  8
0
 10
252.859634178335
 20
139.6711037069193
 30
0.0
 11
247.859634178335
 21
139.6711037069193
 31
0.0
  0
LINE
  5
AE2
  8
0
 10
252.85963417833489
 20
92.571103706919416
 30
0.0
 11
247.859634178335
 21
92.571103706919416
 31
0.0
  0
LINE
  5
AE3
  8
0
 10
251.95963417833499
 20
91.671103706919382
 30
0.0
 11
248.75963417833501
 21
91.671103706919382
 31
0.0
  0
LINE
  5
AE4
  8
3
 10
248.29263417833479
 20
139.6711037069193
 30
0.0
 11
248.29263417833499
 21
92.138103706919296
 31
0.0
  0
LINE
  5
AE5
  8
0
 10
247.859634178335
 20
141.67110370691941
 30
0.0
 11
247.8596341783348
 21
92.571103706919516
 31
0.0
  0
LINE
  5
AE6
  8
0
 10
248.75963417833501
 20
91.671103706919382
 30
0.0
 11
247.859634178335
 21
92.571103706919359
 31
0.0
  0
LINE
  5
AE7
  8
3
 10
248.29263417833479
 20
139.6711037069193
 30
0.0
 11
247.859634178335
 21
140.42108170659631
 31
0.0
  0
LINE
  5
AE8
  8
3
 10
252.42663417833521
 20
139.6711037069193
 30
0.0
 11
252.42663417833521
 21
92.138103706919537
 31
0.0
  0
LINE
  5
AE9
  8
0
 10
252.859634178335
 20
141.67110370691941
 30
0.0
 11
252.85963417833489
 21
92.571103706919317
 31
0.0
  0
LINE
  5
AEA
  8
0
 10
252.859634178335
 20
92.571103706919359
 30
0.0
 11
251.95963417833499
 21
91.671103706919382
 31
0.0
  0
LINE
  5
AEB
  8
3
 10
252.42663417833521
 20
139.6711037069193
 30
0.0
 11
252.859634178335
 21
140.42108170659631
 31
0.0
  0
LINE
  5
B5B
  8
0
 10
100.66185881231991
 20
165.58930693719481
 30
0.0
 11
100.66185881231991
 21
164.46520300721559
 31
0.0
  0
LINE
  5
B5C
  8
0
 10
92.661858812319949
 20
165.58930693719489
 30
0.0
 11
92.66185881231992
 21
164.46520300721551
 31
0.0
  0
LINE
  5
B5F
  8
0
 10
99.418650425772029
 20
166.1711037069193
 30
0.0
 11
93.905067198867755
 21
166.1711037069193
 31
0.0
  0
CIRCLE
  5
B6B
  8
0
 10
158.23641264403341
 20
215.73502202255119
 30
0.0
 40
4.0
  0
ARC
  5
B6E
  8
0
 10
156.40575073802151
 20
216.79195516678249
 30
0.0
 40
0.6912500000000005
 50
309.68887794065949
 51
16.658241772777039
  0
ARC
  5
B6F
  8
0
 10
157.44641264403339
 20
217.1033421605307
 30
0.0
 40
0.3949999999999998
 50
43.341758227222279
 51
196.65824177277699
  0
ARC
  5
B70
  8
0
 10
158.23641264403341
 20
217.8488883110137
 30
0.0
 40
0.6912499999999989
 50
223.3417582272223
 51
316.65824177277773
  0
ARC
  5
B71
  8
0
 10
159.0264126440334
 20
217.1033421605307
 30
0.0
 40
0.3950000000000002
 50
343.3417582272229
 51
136.6582417727777
  0
ARC
  5
B72
  8
0
 10
156.40575073802151
 20
214.67808887832001
 30
0.0
 40
0.691250000000001
 50
343.3417582272229
 51
50.311122059331304
  0
ARC
  5
B73
  8
0
 10
157.44641264403339
 20
214.3667018845718
 30
0.0
 40
0.3950000000000001
 50
163.3417582272229
 51
316.65824177277773
  0
ARC
  5
B74
  8
0
 10
158.23641264403341
 20
213.6211557340888
 30
0.0
 40
0.6912500000000003
 50
43.341758227222279
 51
136.65824177277651
  0
ARC
  5
B75
  8
0
 10
159.0264126440334
 20
214.3667018845718
 30
0.0
 40
0.3949999999999998
 50
223.3417582272223
 51
16.658241772777039
  0
ARC
  5
B76
  8
0
 10
160.06707455004539
 20
214.67808887832001
 30
0.0
 40
0.6912500000000003
 50
129.6888779406687
 51
196.65824177277699
  0
ARC
  5
B77
  8
0
 10
160.06707455004539
 20
216.79195516678249
 30
0.0
 40
0.6912500000000011
 50
163.3417582272229
 51
230.31112205934281
  0
ARC
  5
B78
  8
0
 10
96.661858812319892
 20
158.66110370691931
 30
0.0
 40
8.0
 50
60.000000000000277
 51
69.842683784424523
  0
LINE
  5
B79
  8
0
 10
92.661858812319949
 20
165.58930693719489
 30
0.0
 11
100.66185881231991
 21
165.58930693719481
 31
0.0
  0
ARC
  5
B7A
  8
0
 10
96.661858812319892
 20
158.66110370691931
 30
0.0
 40
8.0
 50
110.15731621557541
 51
119.9999999999997
  0
LINE
  5
B7B
  8
0
 10
155.48641264403341
 20
215.21002202255119
 30
0.0
 11
156.8471957431675
 21
215.21002202255119
 31
0.0
  0
LINE
  5
B7C
  8
0
 10
155.48641264403341
 20
216.2600220225512
 30
0.0
 11
156.84719574316739
 21
216.2600220225512
 31
0.0
  0
LINE
  5
B7D
  8
0
 10
159.62562954489951
 20
216.2600220225512
 30
0.0
 11
160.98641264403341
 21
216.2600220225512
 31
0.0
  0
LINE
  5
B7E
  8
0
 10
159.6256295448994
 20
215.21002202255119
 30
0.0
 11
160.98641264403341
 21
215.21002202255119
 31
0.0
  0
ARC
  5
B7F
  8
0
 10
158.23641264403341
 20
215.73502202255119
 30
0.0
 40
2.7567916134521511
 50
355.97735839170269
 51
4.0226416083006269
  0
LINE
  5
B80
  8
0
 10
160.98641264403329
 20
216.2600220225512
 30
0.0
 11
160.98641264403341
 21
215.21002202255119
 31
0.0
  0
LINE
  5
B81
  8
0
 10
155.48641264403341
 20
216.2600220225512
 30
0.0
 11
155.48641264403341
 21
215.21002202255119
 31
0.0
  0
ARC
  5
B82
  8
0
 10
158.23641264403341
 20
215.73502202255119
 30
0.0
 40
2.7567916134521511
 50
10.9783913299381
 51
169.02160867006191
  0
ARC
  5
B83
  8
0
 10
158.23641264403341
 20
215.73502202255119
 30
0.0
 40
2.7567916134521511
 50
190.97839132993809
 51
349.02160867006188
  0
ARC
  5
B84
  8
0
 10
158.23641264403341
 20
215.73502202255119
 30
0.0
 40
2.7567916134521511
 50
175.9773583916961
 51
184.02264160830379
  0
ARC
  5
B86
  8
0
 10
158.22641264403339
 20
158.66110370691931
 30
0.0
 40
8.0
 50
110.15731621557541
 51
119.9999999999997
  0
LINE
  5
B87
  8
0
 10
154.2264126440335
 20
165.58930693719489
 30
0.0
 11
159.1966849238874
 21
165.58930693719481
 31
0.0
  0
ARC
  5
B88
  8
0
 10
158.22641264403339
 20
158.66110370691931
 30
0.0
 40
8.0
 50
69.728484327266742
 51
69.842683784424523
  0
LINE
  5
B89
  8
0
 10
160.9832042574856
 20
166.1711037069193
 30
0.0
 11
155.46962103058129
 21
166.1711037069193
 31
0.0
  0
LINE
  5
B8B
  8
0
 10
154.2264126440335
 20
165.58930693719489
 30
0.0
 11
154.22641264403339
 21
163.86769631867409
 31
0.0
  0
POLYLINE
  5
BA1
  8
0
 66
     1
 10
0.0
 20
0.0
 30
0.0
 70
     1
  0
VERTEX
  5
BA2
  8
0
 10
96.661858812286354
 20
163.66399223168341
 30
0.0
 42
0.0369961751365435
  0
VERTEX
  5
BB1
  8
0
 10
98.586076840679766
 20
163.80656478748099
 30
0.0
 42
0.0493901968538138
  0
VERTEX
  5
BA3
  8
0
 10
99.989149915724667
 20
164.15977707512161
 30
0.0
 42
0.0927145054771163
 70
     2
 50
19.785242157449328
  0
VERTEX
  5
BB2
  8
0
 10
101.12524637964169
 20
164.82576811656551
 30
0.0
 42
0.2172434185878763
 50
19.785242157449328
  0
VERTEX
  5
BA4
  8
0
 10
101.36735901675181
 20
165.35670756830109
 30
0.0
 42
0.2172434185878833
  0
VERTEX
  5
BAB
  8
0
 10
101.1252463796628
 20
165.8876470200463
 30
0.0
 42
0.0927145054771256
  0
VERTEX
  5
BA5
  8
0
 10
99.989149915772074
 20
166.5536380615352
 30
0.0
 42
0.049390196853799
 70
     2
 50
160.21475784028021
  0
VERTEX
  5
BAC
  8
0
 10
98.586076840741285
 20
166.90685034923141
 30
0.0
 42
0.0369961751365346
 50
160.21475784028021
  0
VERTEX
  5
BA6
  8
0
 10
96.661858812353415
 20
167.0494229051053
 30
0.0
 42
0.036996175136538
  0
VERTEX
  5
BAD
  8
0
 10
94.737640783959705
 20
166.9068503493076
 30
0.0
 42
0.0493901968537896
  0
VERTEX
  5
BA7
  8
0
 10
93.334567708915074
 20
166.55363806166699
 30
0.0
 42
0.0927145054771231
 70
     2
 50
199.78524215744929
  0
VERTEX
  5
BAE
  8
0
 10
92.198471244998004
 20
165.8876470202232
 30
0.0
 42
0.2172434185878753
 50
199.78524215744929
  0
VERTEX
  5
BA8
  8
0
 10
91.956358607887964
 20
165.35670756848751
 30
0.0
 42
0.2172434185878939
  0
VERTEX
  5
BAF
  8
0
 10
92.198471244976986
 20
164.82576811674241
 30
0.0
 42
0.0927145054771352
  0
VERTEX
  5
BA9
  8
0
 10
93.334567708867667
 20
164.15977707525349
 30
0.0
 42
0.0493901968538036
 70
     2
 50
340.2147578402803
  0
VERTEX
  5
BB0
  8
0
 10
94.737640783898527
 20
163.80656478755719
 30
0.0
 42
0.0369961751365357
 50
340.2147578402803
  0
SEQEND
  5
BAA
  8
0
  0
TEXT
  5
C9D
  8
0
 62
     3
 10
0.0
 20
0.0
 30
0.0
 40
10.0
  1
FKR5X50-OG
  7
STANDARD1
  0
ENDSEC
  0
EOF
