  0
SECTION
  2
HEADER
  9
$ACADVER
  1
AC1009
  9
$INSBASE
 10
0.0
 20
0.0
 30
0.0
  9
$EXTMIN
 10
0.0
 20
-2.960436562073669
 30
0.0
  9
$EXTMAX
 10
177.0
 20
196.49999999999989
 30
0.0
  9
$LIMMIN
 10
0.0
 20
0.0
  9
$LIMMAX
 10
187.5
 20
135.0
  9
$ORTHOMODE
 70
     1
  9
$REGENMODE
 70
     1
  9
$FILLMODE
 70
     1
  9
$QTEXTMODE
 70
     0
  9
$MIRRTEXT
 70
     0
  9
$DRAGMODE
 70
     2
  9
$LTSCALE
 40
5.0
  9
$OSMODE
 70
    37
  9
$ATTMODE
 70
     1
  9
$TEXTSIZE
 40
4.0
  9
$TRACEWID
 40
0.05
  9
$TEXTSTYLE
  7
STANDARD
  9
$CLAYER
  8
0
  9
$CELTYPE
  6
BYLAYER
  9
$CECOLOR
 62
   256
  9
$DIMSCALE
 40
0.5
  9
$DIMASZ
 40
3.0
  9
$DIMEXO
 40
2.0
  9
$DIMDLI
 40
0.38
  9
$DIMRND
 40
0.0
  9
$DIMDLE
 40
0.0
  9
$DIMEXE
 40
2.0
  9
$DIMTP
 40
0.0
  9
$DIMTM
 40
0.0
  9
$DIMTXT
 40
3.0
  9
$DIMCEN
 40
0.0
  9
$DIMTSZ
 40
0.0
  9
$DIMTOL
 70
     0
  9
$DIMLIM
 70
     0
  9
$DIMTIH
 70
     0
  9
$DIMTOH
 70
     0
  9
$DIMSE1
 70
     0
  9
$DIMSE2
 70
     0
  9
$DIMTAD
 70
     1
  9
$DIMZIN
 70
     0
  9
$DIMBLK
  1

  9
$DIMASO
 70
     0
  9
$DIMSHO
 70
     0
  9
$DIMPOST
  1

  9
$DIMAPOST
  1

  9
$DIMALT
 70
     0
  9
$DIMALTD
 70
     2
  9
$DIMALTF
 40
25.399999999999999
  9
$DIMLFAC
 40
1.0
  9
$DIMTOFL
 70
     0
  9
$DIMTVP
 40
1.6000000000000001
  9
$DIMTIX
 70
     1
  9
$DIMSOXD
 70
     0
  9
$DIMSAH
 70
     0
  9
$DIMBLK1
  1

  9
$DIMBLK2
  1

  9
$DIMSTYLE
  2
STANDARD
  9
$DIMCLRD
 70
     0
  9
$DIMCLRE
 70
     0
  9
$DIMCLRT
 70
     0
  9
$DIMTFAC
 40
1.0
  9
$DIMGAP
 40
0.09
  9
$LUNITS
 70
     2
  9
$LUPREC
 70
     4
  9
$SKETCHINC
 40
0.1
  9
$FILLETRAD
 40
1.25
  9
$AUNITS
 70
     0
  9
$AUPREC
 70
     0
  9
$MENU
  1
E:\r13\win\SUPPORT\ACAD
  9
$ELEVATION
 40
0.0
  9
$PELEVATION
 40
0.0
  9
$THICKNESS
 40
0.0
  9
$LIMCHECK
 70
     0
  9
$BLIPMODE
 70
     0
  9
$CHAMFERA
 40
0.0
  9
$CHAMFERB
 40
0.0
  9
$SKPOLY
 70
     0
  9
$TDCREATE
 40
2449840.6143865739
  9
$TDUPDATE
 40
2456805.7188693872
  9
$TDINDWG
 40
0.2502948032
  9
$TDUSRTIMER
 40
0.2502948032
  9
$USRTIMER
 70
     1
  9
$ANGBASE
 50
0.0
  9
$ANGDIR
 70
     0
  9
$PDMODE
 70
     0
  9
$PDSIZE
 40
0.0
  9
$PLINEWID
 40
0.0
  9
$COORDS
 70
     1
  9
$SPLFRAME
 70
     0
  9
$SPLINETYPE
 70
     6
  9
$SPLINESEGS
 70
     8
  9
$ATTDIA
 70
     0
  9
$ATTREQ
 70
     1
  9
$HANDLING
 70
     1
  9
$HANDSEED
  5
12FF
  9
$SURFTAB1
 70
     6
  9
$SURFTAB2
 70
     6
  9
$SURFTYPE
 70
     6
  9
$SURFU
 70
     6
  9
$SURFV
 70
     6
  9
$UCSNAME
  2

  9
$UCSORG
 10
0.0
 20
0.0
 30
0.0
  9
$UCSXDIR
 10
1.0
 20
0.0
 30
0.0
  9
$UCSYDIR
 10
0.0
 20
1.0
 30
0.0
  9
$PUCSNAME
  2

  9
$PUCSORG
 10
0.0
 20
0.0
 30
0.0
  9
$PUCSXDIR
 10
1.0
 20
0.0
 30
0.0
  9
$PUCSYDIR
 10
0.0
 20
1.0
 30
0.0
  9
$USERI1
 70
     0
  9
$USERI2
 70
     1
  9
$USERI3
 70
     1
  9
$USERI4
 70
     0
  9
$USERI5
 70
     0
  9
$USERR1
 40
0.0
  9
$USERR2
 40
0.0
  9
$USERR3
 40
0.0
  9
$USERR4
 40
0.0
  9
$USERR5
 40
0.0
  9
$WORLDVIEW
 70
     1
  9
$SHADEDGE
 70
     3
  9
$SHADEDIF
 70
    70
  9
$TILEMODE
 70
     1
  9
$MAXACTVP
 70
    16
  9
$PLIMCHECK
 70
     0
  9
$PEXTMIN
 10
1.0000000000000000E+020
 20
1.0000000000000000E+020
 30
1.0000000000000000E+020
  9
$PEXTMAX
 10
-1.0000000000000000E+020
 20
-1.0000000000000000E+020
 30
-1.0000000000000000E+020
  9
$PLIMMIN
 10
0.0
 20
0.0
  9
$PLIMMAX
 10
12.0
 20
9.0
  9
$UNITMODE
 70
     0
  9
$VISRETAIN
 70
     0
  9
$PLINEGEN
 70
     0
  9
$PSLTSCALE
 70
     0
  0
ENDSEC
  0
SECTION
  2
TABLES
  0
TABLE
  2
VPORT
 70
     1
  0
VPORT
  2
*ACTIVE
 70
     0
 10
0.0
 20
0.0
 11
1.0
 21
1.0
 12
235.63977746870651
 22
135.0
 13
0.0
 23
0.0
 14
5.0
 24
5.0
 15
5.0
 25
5.0
 16
0.0
 26
0.0
 36
1.0
 17
0.0
 27
0.0
 37
0.0
 40
270.0
 41
1.7454798331015291
 42
50.0
 43
0.0
 44
0.0
 50
0.0
 51
0.0
 71
     0
 72
   100
 73
     1
 74
     0
 75
     0
 76
     0
 77
     0
 78
     0
  0
ENDTAB
  0
TABLE
  2
LTYPE
 70
     3
  0
LTYPE
  2
CONTINUOUS
 70
     0
  3
Solid Line
 72
    65
 73
     0
 40
0.0
  0
LTYPE
  2
CENTER
 70
     0
  3
____ _ ____ _ ____ _ ____ _ ____ _ ____ _ ____
 72
    65
 73
     4
 40
2.0
 49
1.25
 49
-0.25
 49
0.25
 49
-0.25
  0
LTYPE
  2
PHANTOM2
 70
     0
  3
___ _ _ ___ _ _ ___ _ _ ___ _ _
 72
    65
 73
     6
 40
1.25
 49
0.625
 49
-0.125
 49
0.125
 49
-0.125
 49
0.125
 49
-0.125
  0
ENDTAB
  0
TABLE
  2
LAYER
 70
     3
  0
LAYER
  2
0
 70
     0
 62
     7
  6
CONTINUOUS
  0
LAYER
  2
1
 70
     0
 62
     1
  6
CENTER
  0
LAYER
  2
3
 70
     0
 62
     3
  6
CONTINUOUS
  0
ENDTAB
  0
TABLE
  2
STYLE
 70
     2
  0
STYLE
  2
STANDARD
 70
     0
 40
0.0
 41
1.0
 50
0.0
 71
     0
 42
4.0
  3
TXT
  4
BIGFONT
  0
STYLE
  2
STANDARD1
 70
     0
 40
0.0
 41
1.0
 50
0.0
 71
     0
 42
3.0
  3
txt
  4

  0
ENDTAB
  0
TABLE
  2
VIEW
 70
     1
  0
VIEW
  2
ALL
 70
     0
 40
179.66152299999999
 10
141.903918
 20
89.830760999999995
 41
0.0
 11
0.0
 21
0.0
 31
1.0
 12
0.0
 22
0.0
 32
0.0
 42
0.0
 43
0.0
 44
0.0
 50
0.0
 71
     0
  0
ENDTAB
  0
TABLE
  2
UCS
 70
     0
  0
ENDTAB
  0
TABLE
  2
APPID
 70
     5
  0
APPID
  2
ACAD
 70
     0
  0
APPID
  2
DCO15
 70
     0
  0
APPID
  2
ACAD_MLEADERVER
 70
     0
  0
APPID
  2
ACAD_EXEMPT_FROM_CAD_STANDARDS
 70
     0
  0
APPID
  2
ACAD_NAV_VCDISPLAY
 70
     0
  0
ENDTAB
  0
TABLE
  2
DIMSTYLE
 70
     1
  0
DIMSTYLE
  2
STANDARD
 70
     0
  3

  4

  5

  6

  7

 40
1.0
 41
0.18
 42
0.0625
 43
0.38
 44
0.18
 45
0.0
 46
0.0
 47
0.0
 48
0.0
140
0.18
141
0.09
142
0.0
143
25.399999999999999
144
1.0
145
0.0
146
1.0
147
0.09
 71
     0
 72
     0
 73
     1
 74
     1
 75
     0
 76
     0
 77
     0
 78
     0
170
     0
171
     2
172
     0
173
     0
174
     0
175
     0
176
     0
177
     0
178
     0
  0
ENDTAB
  0
ENDSEC
  0
SECTION
  2
BLOCKS
  0
BLOCK
  8
0
  2
$MODEL_SPACE
 70
     0
 10
0.0
 20
0.0
 30
0.0
  3
$MODEL_SPACE
  1

  0
ENDBLK
  5
1BD
  8
0
  0
BLOCK
 67
     1
  8
0
  2
$PAPER_SPACE
 70
     0
 10
0.0
 20
0.0
 30
0.0
  3
$PAPER_SPACE
  1

  0
ENDBLK
  5
1BB
 67
     1
  8
0
  0
ENDSEC
  0
SECTION
  2
ENTITIES
  0
CIRCLE
  5
5E2
  8
0
 10
100.0
 20
49.999999999999957
 30
0.0
 40
2.5
  0
CIRCLE
  5
5E3
  8
3
 10
100.0
 20
49.999999999999957
 30
0.0
 40
2.0670000000000068
  0
TEXT
  5
C72
  8
0
 62
     3
 10
0.0
 20
0.0
 30
0.0
 40
10.0
  1
FKR5X30-RE
  7
STANDARD1
  0
LINE
  5
DA2
  8
0
 10
55.000000000000028
 20
119.9999999999999
 30
0.0
 11
55.000000000000028
 21
123.9999999999999
 31
0.0
  0
LINE
  5
DA3
  8
0
 10
45.000000000000021
 20
123.9999999999999
 30
0.0
 11
45.000000000000021
 21
119.9999999999999
 31
0.0
  0
LINE
  5
DA4
  8
0
 10
45.000000000000021
 20
119.9999999999999
 30
0.0
 11
55.000000000000028
 21
119.9999999999999
 31
0.0
  0
LINE
  5
DA5
  8
1
 10
50.000000000000028
 20
155.867041419016
 30
0.0
 11
50.000000000000028
 21
85.0
 31
0.0
  0
LINE
  5
DA6
  8
0
 10
53.34506010687452
 20
150.99999999999989
 30
0.0
 11
46.65493989312543
 21
150.99999999999989
 31
0.0
  0
LINE
  5
DA7
  8
0
 10
56.500000000000028
 20
123.9999999999999
 30
0.0
 11
43.500000000000028
 21
123.9999999999999
 31
0.0
  0
LINE
  5
DA8
  8
0
 10
105.0
 20
119.9999999999999
 30
0.0
 11
105.0
 21
123.9999999999999
 31
0.0
  0
LINE
  5
DA9
  8
0
 10
95.000000000000028
 20
123.9999999999999
 30
0.0
 11
95.000000000000028
 21
119.9999999999999
 31
0.0
  0
LINE
  5
DAA
  8
0
 10
95.000000000000028
 20
119.9999999999999
 30
0.0
 11
105.0
 21
119.9999999999999
 31
0.0
  0
LINE
  5
DAB
  8
0
 10
140.0
 20
147.62467733431961
 30
0.0
 11
140.0
 21
148.49690253330931
 31
0.0
  0
LINE
  5
DAC
  8
0
 10
93.490000000000023
 20
138.83165672217609
 30
0.0
 11
93.490000000000023
 21
123.9999999999999
 31
0.0
  0
LINE
  5
DAD
  8
0
 10
106.48999999999999
 20
123.9999999999999
 30
0.0
 11
106.48999999999999
 21
134.4643235272197
 31
0.0
  0
LINE
  5
DAE
  8
0
 10
135.3040073535426
 20
142.11312414620579
 30
0.0
 11
125.63764766128079
 21
139.37782006470701
 31
0.0
  0
LINE
  5
DAF
  8
0
 10
122.914845190875
 20
138.99999999999989
 30
0.0
 11
117.9492213009176
 21
138.99999999999989
 31
0.0
  0
LINE
  5
DB0
  8
0
 10
106.48999999999999
 20
123.9999999999999
 30
0.0
 11
93.490000000000023
 21
123.9999999999999
 31
0.0
  0
LINE
  5
DB1
  8
1
 10
100.0
 20
150.17999999999989
 30
0.0
 11
100.0
 21
85.0
 31
0.0
  0
LINE
  5
DB2
  8
0
 10
173.9458345407819
 20
139.04351434073661
 30
0.0
 11
173.5357422034167
 21
142.17833594473339
 31
0.0
  0
LINE
  5
DB3
  8
0
 10
174.08151303112751
 20
149.09055092221371
 30
0.0
 11
174.08151303112751
 21
138.99999999999989
 31
0.0
  0
LINE
  5
DB4
  8
0
 10
165.91848696887249
 20
149.09055092221371
 30
0.0
 11
165.91848696887249
 21
138.99999999999989
 31
0.0
  0
LINE
  5
DB5
  8
1
 10
170.0
 20
155.867041419016
 30
0.0
 11
170.0
 21
85.0
 31
0.0
  0
LINE
  5
DB6
  8
0
 10
175.0
 20
119.9999999999999
 30
0.0
 11
175.0
 21
123.9999999999999
 31
0.0
  0
LINE
  5
DB7
  8
0
 10
165.0
 20
123.9999999999999
 30
0.0
 11
165.0
 21
119.9999999999999
 31
0.0
  0
LINE
  5
DB8
  8
0
 10
165.0
 20
119.9999999999999
 30
0.0
 11
175.0
 21
119.9999999999999
 31
0.0
  0
LINE
  5
DB9
  8
0
 10
176.5
 20
123.9999999999999
 30
0.0
 11
163.5
 21
123.9999999999999
 31
0.0
  0
LINE
  5
DBA
  8
0
 10
166.09320334571379
 20
139.34192715855991
 30
0.0
 11
173.90679665428621
 21
139.34192715855991
 31
0.0
  0
LINE
  5
DBB
  8
0
 10
174.0849353219825
 20
138.99999999999989
 30
0.0
 11
165.91848696887249
 21
138.99999999999861
 31
0.0
  0
LINE
  5
DBC
  8
0
 10
173.3450601068746
 20
150.99999999999989
 30
0.0
 11
166.6359478621612
 21
150.99999999999989
 31
0.0
  0
LINE
  5
DBD
  8
0
 10
166.4642577965833
 20
142.17833594473331
 30
0.0
 11
173.5357422034167
 21
142.17833594473331
 31
0.0
  0
LINE
  5
DBE
  8
0
 10
166.5
 20
150.8156337469874
 30
0.0
 11
166.5
 21
142.54162368067301
 31
0.0
  0
LINE
  5
DBF
  8
0
 10
173.5
 20
150.8156337469874
 30
0.0
 11
173.5
 21
142.54162368067301
 31
0.0
  0
LINE
  5
DC0
  8
0
 10
93.490000000000023
 20
181.9270833670715
 30
0.0
 11
93.490000000000023
 21
187.07291663292841
 31
0.0
  0
CIRCLE
  5
DC1
  8
0
 10
99.990000000000038
 20
49.999999999999957
 30
0.0
 40
6.5000000000000027
  0
LINE
  5
DC2
  8
1
 10
100.0
 20
196.49999999999989
 30
0.0
 11
100.0
 21
172.49999999999989
 31
0.0
  0
LINE
  5
DC3
  8
1
 10
145.0000030167453
 20
184.49999999999989
 30
0.0
 11
88.490000000000023
 21
184.49999999999989
 31
0.0
  0
LINE
  5
DC4
  8
1
 10
100.0
 20
61.999499102761682
 30
0.0
 11
100.0
 21
38.000500897238311
 31
0.0
  0
CIRCLE
  5
DC5
  8
0
 10
100.0
 20
49.999999999999957
 30
0.0
 40
5.0
  0
LINE
  5
DC6
  8
1
 10
88.490000000000023
 20
49.999999999999957
 30
0.0
 11
145.0000030167453
 21
49.999999999999957
 31
0.0
  0
ARC
  5
DC7
  8
0
 10
100.0
 20
184.49999999999989
 30
0.0
 40
7.0
 50
201.56518501524161
 51
308.53132429037731
  0
ARC
  5
DC8
  8
0
 10
100.0
 20
184.49999999999989
 30
0.0
 40
7.0
 50
51.468675709622708
 51
158.4348149847583
  0
ARC
  5
DC9
  8
0
 10
136.5
 20
184.49999999999989
 30
0.0
 40
3.5
 50
270.0
 51
90.0
  0
LINE
  5
DCA
  8
0
 10
120.79102075597309
 20
188.58151303112751
 30
0.0
 11
136.5
 21
187.99999999999989
 31
0.0
  0
LINE
  5
DCB
  8
0
 10
120.79102075597309
 20
180.4184869688724
 30
0.0
 11
136.5
 21
180.99999999999989
 31
0.0
  0
CIRCLE
  5
DCC
  8
0
 10
100.28237787243521
 20
184.49999999999989
 30
0.0
 40
4.6971000970094821
  0
ARC
  5
DCD
  8
0
 10
115.03573312769871
 20
218.01230495957029
 30
0.0
 40
30.0
 50
249.15519537343911
 51
281.1603006392001
  0
ARC
  5
DCE
  8
0
 10
115.03573312769871
 20
150.9876950404296
 30
0.0
 40
30.0
 50
78.83969936079987
 51
110.8448046265608
  0
LINE
  5
DCF
  8
0
 10
120.79102075597309
 20
54.081513031127507
 30
0.0
 11
136.5
 21
53.499999999999957
 31
0.0
  0
ARC
  5
DD0
  8
0
 10
136.5
 20
49.999999999999957
 30
0.0
 40
3.5
 50
270.0
 51
90.0
  0
ARC
  5
DD1
  8
0
 10
115.03573312769871
 20
83.512304959570343
 30
0.0
 40
30.0
 50
249.15519537343911
 51
281.1603006392001
  0
LINE
  5
DD2
  8
0
 10
120.79102075597309
 20
45.918486968872479
 30
0.0
 11
136.5
 21
46.499999999999957
 31
0.0
  0
ARC
  5
DD3
  8
0
 10
115.03573312769871
 20
16.487695040429649
 30
0.0
 40
30.0
 50
78.83969936079987
 51
110.8448046265608
  0
ARC
  5
DD4
  8
0
 10
100.0
 20
49.999999999999957
 30
0.0
 40
7.0
 50
201.56518501524161
 51
308.53132429037731
  0
ARC
  5
DD5
  8
0
 10
100.0
 20
49.999999999999957
 30
0.0
 40
7.0
 50
51.468675709622708
 51
158.4348149847583
  0
LINE
  5
DD6
  8
0
 10
93.490000000000023
 20
47.427083367071489
 30
0.0
 11
93.490000000000023
 21
52.572916632928433
 31
0.0
  0
ARC
  5
DD7
  8
0
 10
147.57299368282091
 20
1.3412543295592549
 30
0.0
 40
150.0
 50
93.915861512302882
 51
110.1986696099375
  0
ARC
  5
DD8
  8
0
 10
137.5
 20
148.49690253330931
 30
0.0
 40
2.5
 50
0.0
 51
93.915861512302882
  0
ARC
  5
DD9
  8
0
 10
96.990000000000052
 20
138.83165672217609
 30
0.0
 40
3.5
 50
110.198669609934
 51
180.0
  0
LINE
  5
DDA
  8
0
 10
55.484468234528812
 20
142.11641036295529
 30
0.0
 11
51.764532452211391
 21
142.11641036295529
 31
0.0
  0
LINE
  5
DDB
  8
0
 10
44.515531765471188
 20
142.11641036295529
 30
0.0
 11
48.235467547788659
 21
142.11641036295529
 31
0.0
  0
LINE
  5
DDC
  8
0
 10
54.084935321982492
 20
149.05774345796661
 30
0.0
 11
54.084935321982492
 21
146.58659012746801
 31
0.0
  0
ARC
  5
DDD
  8
0
 10
134.01247130529401
 20
147.96988093035861
 30
0.0
 40
5.9974715833129633
 50
282.43587149179001
 51
356.70033511174842
  0
ARC
  5
DDE
  8
0
 10
122.914845190875
 20
148.99999999999989
 30
0.0
 40
10.0
 50
270.0
 51
285.79999999999887
  0
ARC
  5
DDF
  8
0
 10
136.83723305228941
 20
82.704827335022912
 30
0.0
 40
60.0
 50
112.1950152906777
 51
120.3836235702161
  0
ARC
  5
DE0
  8
0
 10
117.9492213009176
 20
128.99999999999989
 30
0.0
 40
10.0
 50
90.0
 51
112.1950152906777
  0
LINE
  5
DE1
  8
0
 10
56.500000000000028
 20
123.9999999999999
 30
0.0
 11
57.000000000000021
 21
143.59739750817309
 31
0.0
  0
POLYLINE
  5
DE2
  8
0
 10
55.48446823452884
 20
142.11641036295538
 30
0.0
 66
     1
 70
     8
  0
VERTEX
  8
0
  5
1075
 10
55.4845
 20
142.116
 30
0.000000
  70
    32
  0
VERTEX
  8
0
  5
1076
 10
55.5287
 20
142.136
 30
0.000000
  70
    32
  0
VERTEX
  8
0
  5
1077
 10
55.5724
 20
142.155
 30
0.000000
  70
    32
  0
VERTEX
  8
0
  5
1078
 10
55.6154
 20
142.174
 30
0.000000
  70
    32
  0
VERTEX
  8
0
  5
1079
 10
55.6579
 20
142.194
 30
0.000000
  70
    32
  0
VERTEX
  8
0
  5
107A
 10
55.6998
 20
142.214
 30
0.000000
  70
    32
  0
VERTEX
  8
0
  5
107B
 10
55.7411
 20
142.234
 30
0.000000
  70
    32
  0
VERTEX
  8
0
  5
107C
 10
55.7818
 20
142.254
 30
0.000000
  70
    32
  0
VERTEX
  8
0
  5
107D
 10
55.8218
 20
142.274
 30
0.000000
  70
    32
  0
VERTEX
  8
0
  5
107E
 10
55.8613
 20
142.294
 30
0.000000
  70
    32
  0
VERTEX
  8
0
  5
107F
 10
55.9002
 20
142.315
 30
0.000000
  70
    32
  0
VERTEX
  8
0
  5
1080
 10
55.9384
 20
142.336
 30
0.000000
  70
    32
  0
VERTEX
  8
0
  5
1081
 10
55.9760
 20
142.356
 30
0.000000
  70
    32
  0
VERTEX
  8
0
  5
1082
 10
56.0130
 20
142.377
 30
0.000000
  70
    32
  0
VERTEX
  8
0
  5
1083
 10
56.0494
 20
142.398
 30
0.000000
  70
    32
  0
VERTEX
  8
0
  5
1084
 10
56.0851
 20
142.419
 30
0.000000
  70
    32
  0
VERTEX
  8
0
  5
1085
 10
56.1202
 20
142.441
 30
0.000000
  70
    32
  0
VERTEX
  8
0
  5
1086
 10
56.1547
 20
142.462
 30
0.000000
  70
    32
  0
VERTEX
  8
0
  5
1087
 10
56.1885
 20
142.484
 30
0.000000
  70
    32
  0
VERTEX
  8
0
  5
1088
 10
56.2216
 20
142.505
 30
0.000000
  70
    32
  0
VERTEX
  8
0
  5
1089
 10
56.2541
 20
142.527
 30
0.000000
  70
    32
  0
VERTEX
  8
0
  5
108A
 10
56.2860
 20
142.549
 30
0.000000
  70
    32
  0
VERTEX
  8
0
  5
108B
 10
56.3172
 20
142.571
 30
0.000000
  70
    32
  0
VERTEX
  8
0
  5
108C
 10
56.3477
 20
142.593
 30
0.000000
  70
    32
  0
VERTEX
  8
0
  5
108D
 10
56.3776
 20
142.615
 30
0.000000
  70
    32
  0
VERTEX
  8
0
  5
108E
 10
56.4068
 20
142.637
 30
0.000000
  70
    32
  0
VERTEX
  8
0
  5
108F
 10
56.4353
 20
142.660
 30
0.000000
  70
    32
  0
VERTEX
  8
0
  5
1090
 10
56.4632
 20
142.682
 30
0.000000
  70
    32
  0
VERTEX
  8
0
  5
1091
 10
56.4903
 20
142.705
 30
0.000000
  70
    32
  0
VERTEX
  8
0
  5
1092
 10
56.5168
 20
142.727
 30
0.000000
  70
    32
  0
VERTEX
  8
0
  5
1093
 10
56.5427
 20
142.750
 30
0.000000
  70
    32
  0
VERTEX
  8
0
  5
1094
 10
56.5678
 20
142.773
 30
0.000000
  70
    32
  0
VERTEX
  8
0
  5
1095
 10
56.5922
 20
142.796
 30
0.000000
  70
    32
  0
VERTEX
  8
0
  5
1096
 10
56.6160
 20
142.819
 30
0.000000
  70
    32
  0
VERTEX
  8
0
  5
1097
 10
56.6390
 20
142.842
 30
0.000000
  70
    32
  0
VERTEX
  8
0
  5
1098
 10
56.6614
 20
142.865
 30
0.000000
  70
    32
  0
VERTEX
  8
0
  5
1099
 10
56.6831
 20
142.888
 30
0.000000
  70
    32
  0
VERTEX
  8
0
  5
109A
 10
56.7040
 20
142.912
 30
0.000000
  70
    32
  0
VERTEX
  8
0
  5
109B
 10
56.7243
 20
142.935
 30
0.000000
  70
    32
  0
VERTEX
  8
0
  5
109C
 10
56.7438
 20
142.959
 30
0.000000
  70
    32
  0
VERTEX
  8
0
  5
109D
 10
56.7627
 20
142.982
 30
0.000000
  70
    32
  0
VERTEX
  8
0
  5
109E
 10
56.7808
 20
143.006
 30
0.000000
  70
    32
  0
VERTEX
  8
0
  5
109F
 10
56.7983
 20
143.029
 30
0.000000
  70
    32
  0
VERTEX
  8
0
  5
10A0
 10
56.8150
 20
143.053
 30
0.000000
  70
    32
  0
VERTEX
  8
0
  5
10A1
 10
56.8310
 20
143.077
 30
0.000000
  70
    32
  0
VERTEX
  8
0
  5
10A2
 10
56.8463
 20
143.101
 30
0.000000
  70
    32
  0
VERTEX
  8
0
  5
10A3
 10
56.8608
 20
143.125
 30
0.000000
  70
    32
  0
VERTEX
  8
0
  5
10A4
 10
56.8747
 20
143.148
 30
0.000000
  70
    32
  0
VERTEX
  8
0
  5
10A5
 10
56.8878
 20
143.172
 30
0.000000
  70
    32
  0
VERTEX
  8
0
  5
10A6
 10
56.9002
 20
143.196
 30
0.000000
  70
    32
  0
VERTEX
  8
0
  5
10A7
 10
56.9119
 20
143.221
 30
0.000000
  70
    32
  0
VERTEX
  8
0
  5
10A8
 10
56.9229
 20
143.245
 30
0.000000
  70
    32
  0
VERTEX
  8
0
  5
10A9
 10
56.9331
 20
143.269
 30
0.000000
  70
    32
  0
VERTEX
  8
0
  5
10AA
 10
56.9427
 20
143.293
 30
0.000000
  70
    32
  0
VERTEX
  8
0
  5
10AB
 10
56.9514
 20
143.317
 30
0.000000
  70
    32
  0
VERTEX
  8
0
  5
10AC
 10
56.9595
 20
143.341
 30
0.000000
  70
    32
  0
VERTEX
  8
0
  5
10AD
 10
56.9668
 20
143.366
 30
0.000000
  70
    32
  0
VERTEX
  8
0
  5
10AE
 10
56.9734
 20
143.390
 30
0.000000
  70
    32
  0
VERTEX
  8
0
  5
10AF
 10
56.9793
 20
143.414
 30
0.000000
  70
    32
  0
VERTEX
  8
0
  5
10B0
 10
56.9844
 20
143.439
 30
0.000000
  70
    32
  0
VERTEX
  8
0
  5
10B1
 10
56.9889
 20
143.463
 30
0.000000
  70
    32
  0
VERTEX
  8
0
  5
10B2
 10
56.9925
 20
143.487
 30
0.000000
  70
    32
  0
VERTEX
  8
0
  5
10B3
 10
56.9955
 20
143.512
 30
0.000000
  70
    32
  0
VERTEX
  8
0
  5
10B4
 10
56.9977
 20
143.536
 30
0.000000
  70
    32
  0
VERTEX
  8
0
  5
10B5
 10
56.9992
 20
143.560
 30
0.000000
  70
    32
  0
VERTEX
  8
0
  5
10B6
 10
56.9999
 20
143.585
 30
0.000000
  70
    32
  0
VERTEX
  8
0
  5
10B7
 10
56.9999
 20
143.609
 30
0.000000
  70
    32
  0
VERTEX
  8
0
  5
10B8
 10
56.9992
 20
143.634
 30
0.000000
  70
    32
  0
VERTEX
  8
0
  5
10B9
 10
56.9977
 20
143.658
 30
0.000000
  70
    32
  0
VERTEX
  8
0
  5
10BA
 10
56.9955
 20
143.682
 30
0.000000
  70
    32
  0
VERTEX
  8
0
  5
10BB
 10
56.9926
 20
143.707
 30
0.000000
  70
    32
  0
VERTEX
  8
0
  5
10BC
 10
56.9890
 20
143.731
 30
0.000000
  70
    32
  0
VERTEX
  8
0
  5
10BD
 10
56.9846
 20
143.755
 30
0.000000
  70
    32
  0
VERTEX
  8
0
  5
10BE
 10
56.9795
 20
143.780
 30
0.000000
  70
    32
  0
VERTEX
  8
0
  5
10BF
 10
56.9736
 20
143.804
 30
0.000000
  70
    32
  0
VERTEX
  8
0
  5
10C0
 10
56.9670
 20
143.828
 30
0.000000
  70
    32
  0
VERTEX
  8
0
  5
10C1
 10
56.9597
 20
143.853
 30
0.000000
  70
    32
  0
VERTEX
  8
0
  5
10C2
 10
56.9517
 20
143.877
 30
0.000000
  70
    32
  0
VERTEX
  8
0
  5
10C3
 10
56.9429
 20
143.901
 30
0.000000
  70
    32
  0
VERTEX
  8
0
  5
10C4
 10
56.9334
 20
143.925
 30
0.000000
  70
    32
  0
VERTEX
  8
0
  5
10C5
 10
56.9232
 20
143.949
 30
0.000000
  70
    32
  0
VERTEX
  8
0
  5
10C6
 10
56.9123
 20
143.974
 30
0.000000
  70
    32
  0
VERTEX
  8
0
  5
10C7
 10
56.9006
 20
143.998
 30
0.000000
  70
    32
  0
VERTEX
  8
0
  5
10C8
 10
56.8882
 20
144.022
 30
0.000000
  70
    32
  0
VERTEX
  8
0
  5
10C9
 10
56.8751
 20
144.046
 30
0.000000
  70
    32
  0
VERTEX
  8
0
  5
10CA
 10
56.8613
 20
144.070
 30
0.000000
  70
    32
  0
VERTEX
  8
0
  5
10CB
 10
56.8467
 20
144.093
 30
0.000000
  70
    32
  0
VERTEX
  8
0
  5
10CC
 10
56.8314
 20
144.117
 30
0.000000
  70
    32
  0
VERTEX
  8
0
  5
10CD
 10
56.8155
 20
144.141
 30
0.000000
  70
    32
  0
VERTEX
  8
0
  5
10CE
 10
56.7988
 20
144.165
 30
0.000000
  70
    32
  0
VERTEX
  8
0
  5
10CF
 10
56.7813
 20
144.188
 30
0.000000
  70
    32
  0
VERTEX
  8
0
  5
10D0
 10
56.7632
 20
144.212
 30
0.000000
  70
    32
  0
VERTEX
  8
0
  5
10D1
 10
56.7444
 20
144.236
 30
0.000000
  70
    32
  0
VERTEX
  8
0
  5
10D2
 10
56.7249
 20
144.259
 30
0.000000
  70
    32
  0
VERTEX
  8
0
  5
10D3
 10
56.7046
 20
144.282
 30
0.000000
  70
    32
  0
VERTEX
  8
0
  5
10D4
 10
56.6837
 20
144.306
 30
0.000000
  70
    32
  0
VERTEX
  8
0
  5
10D5
 10
56.6620
 20
144.329
 30
0.000000
  70
    32
  0
VERTEX
  8
0
  5
10D6
 10
56.6397
 20
144.352
 30
0.000000
  70
    32
  0
VERTEX
  8
0
  5
10D7
 10
56.6166
 20
144.375
 30
0.000000
  70
    32
  0
VERTEX
  8
0
  5
10D8
 10
56.5929
 20
144.398
 30
0.000000
  70
    32
  0
VERTEX
  8
0
  5
10D9
 10
56.5685
 20
144.421
 30
0.000000
  70
    32
  0
VERTEX
  8
0
  5
10DA
 10
56.5434
 20
144.444
 30
0.000000
  70
    32
  0
VERTEX
  8
0
  5
10DB
 10
56.5176
 20
144.467
 30
0.000000
  70
    32
  0
VERTEX
  8
0
  5
10DC
 10
56.4911
 20
144.490
 30
0.000000
  70
    32
  0
VERTEX
  8
0
  5
10DD
 10
56.4640
 20
144.512
 30
0.000000
  70
    32
  0
VERTEX
  8
0
  5
10DE
 10
56.4361
 20
144.535
 30
0.000000
  70
    32
  0
VERTEX
  8
0
  5
10DF
 10
56.4076
 20
144.557
 30
0.000000
  70
    32
  0
VERTEX
  8
0
  5
10E0
 10
56.3784
 20
144.579
 30
0.000000
  70
    32
  0
VERTEX
  8
0
  5
10E1
 10
56.3486
 20
144.601
 30
0.000000
  70
    32
  0
VERTEX
  8
0
  5
10E2
 10
56.3181
 20
144.623
 30
0.000000
  70
    32
  0
VERTEX
  8
0
  5
10E3
 10
56.2869
 20
144.645
 30
0.000000
  70
    32
  0
VERTEX
  8
0
  5
10E4
 10
56.2551
 20
144.667
 30
0.000000
  70
    32
  0
VERTEX
  8
0
  5
10E5
 10
56.2226
 20
144.689
 30
0.000000
  70
    32
  0
VERTEX
  8
0
  5
10E6
 10
56.1894
 20
144.711
 30
0.000000
  70
    32
  0
VERTEX
  8
0
  5
10E7
 10
56.1557
 20
144.732
 30
0.000000
  70
    32
  0
VERTEX
  8
0
  5
10E8
 10
56.1212
 20
144.754
 30
0.000000
  70
    32
  0
VERTEX
  8
0
  5
10E9
 10
56.0862
 20
144.775
 30
0.000000
  70
    32
  0
VERTEX
  8
0
  5
10EA
 10
56.0504
 20
144.796
 30
0.000000
  70
    32
  0
VERTEX
  8
0
  5
10EB
 10
56.0141
 20
144.817
 30
0.000000
  70
    32
  0
VERTEX
  8
0
  5
10EC
 10
55.9771
 20
144.838
 30
0.000000
  70
    32
  0
VERTEX
  8
0
  5
10ED
 10
55.9395
 20
144.859
 30
0.000000
  70
    32
  0
VERTEX
  8
0
  5
10EE
 10
55.9013
 20
144.879
 30
0.000000
  70
    32
  0
VERTEX
  8
0
  5
10EF
 10
55.8625
 20
144.900
 30
0.000000
  70
    32
  0
VERTEX
  8
0
  5
10F0
 10
55.8230
 20
144.920
 30
0.000000
  70
    32
  0
VERTEX
  8
0
  5
10F1
 10
55.7829
 20
144.940
 30
0.000000
  70
    32
  0
VERTEX
  8
0
  5
10F2
 10
55.7423
 20
144.960
 30
0.000000
  70
    32
  0
VERTEX
  8
0
  5
10F3
 10
55.7010
 20
144.980
 30
0.000000
  70
    32
  0
VERTEX
  8
0
  5
10F4
 10
55.6591
 20
145.000
 30
0.000000
  70
    32
  0
VERTEX
  8
0
  5
10F5
 10
55.6167
 20
145.020
 30
0.000000
  70
    32
  0
SEQEND
  8
0
  5
10F6
  0
LINE
  5
DE3
  8
0
 10
43.500000000000028
 20
123.9999999999999
 30
0.0
 11
43.000000000000028
 21
143.59739750817309
 31
0.0
  0
ARC
  5
DE4
  8
0
 10
55.099684645552507
 20
147.86451723790569
 30
0.0
 40
1.5
 50
135.62248582632091
 51
194.54190412830351
  0
ARC
  5
DE5
  8
0
 10
61.199037788941183
 20
152.07932973819919
 30
0.0
 40
9.0
 50
219.44968032693609
 51
231.6645676099055
  0
ARC
  5
DE6
  8
0
 10
58.323361328471918
 20
149.2594802294775
 30
0.0
 40
5.0
 50
200.75171325611521
 51
215.4330058269795
  0
LINE
  5
DE7
  8
0
 10
53.529845449553051
 20
150.87651390155489
 30
0.0
 11
53.79173927314551
 21
150.24402570066141
 31
0.0
  0
LINE
  5
DE8
  8
0
 10
53.79173927314551
 20
150.24402570066141
 30
0.0
 11
54.07858716789147
 21
149.10219762711711
 31
0.0
  0
ARC
  5
DE9
  8
0
 10
53.884614390804721
 20
149.0534681519583
 30
0.0
 40
0.2
 50
315.62248582632088
 51
14.10191193147274
  0
ARC
  5
DEA
  8
0
 10
53.34506010687452
 20
150.7999999999999
 30
0.0
 40
0.2
 50
22.492934975536748
 51
90.0
  0
LINE
  5
DEB
  8
0
 10
46.208260726854483
 20
150.24402570066141
 30
0.0
 11
45.921412832108523
 21
149.10219762711711
 31
0.0
  0
ARC
  5
DEC
  8
0
 10
41.676638671528082
 20
149.2594802294775
 30
0.0
 40
5.0
 50
324.56699417302048
 51
339.24828674388471
  0
LINE
  5
DED
  8
0
 10
45.915064678017501
 20
149.05774345796661
 30
0.0
 11
45.915064678017501
 21
146.58659012746801
 31
0.0
  0
ARC
  5
DEE
  8
0
 10
46.115385609195272
 20
149.0534681519583
 30
0.0
 40
0.2
 50
165.89808806852719
 51
224.37751417367909
  0
ARC
  5
DEF
  8
0
 10
44.900315354447493
 20
147.86451723790569
 30
0.0
 40
1.5
 50
345.4580958716964
 51
44.377514173679053
  0
LINE
  5
DF0
  8
0
 10
46.470154550446942
 20
150.87651390155489
 30
0.0
 11
46.208260726854483
 21
150.24402570066141
 31
0.0
  0
ARC
  5
DF1
  8
0
 10
46.65493989312543
 20
150.7999999999999
 30
0.0
 40
0.2
 50
90.0
 51
157.5070650244632
  0
ARC
  5
DF2
  8
0
 10
38.800962211058867
 20
152.07932973819919
 30
0.0
 40
9.0
 50
308.33543239009452
 51
320.55031967306388
  0
POLYLINE
  5
DF3
  8
0
 10
44.515531765471216
 20
142.11641036295538
 30
0.0
 66
     1
 70
     8
  0
VERTEX
  8
0
  5
10F7
 10
44.5155
 20
142.116
 30
0.000000
  70
    32
  0
VERTEX
  8
0
  5
10F8
 10
44.4713
 20
142.136
 30
0.000000
  70
    32
  0
VERTEX
  8
0
  5
10F9
 10
44.4276
 20
142.155
 30
0.000000
  70
    32
  0
VERTEX
  8
0
  5
10FA
 10
44.3846
 20
142.174
 30
0.000000
  70
    32
  0
VERTEX
  8
0
  5
10FB
 10
44.3421
 20
142.194
 30
0.000000
  70
    32
  0
VERTEX
  8
0
  5
10FC
 10
44.3002
 20
142.214
 30
0.000000
  70
    32
  0
VERTEX
  8
0
  5
10FD
 10
44.2589
 20
142.234
 30
0.000000
  70
    32
  0
VERTEX
  8
0
  5
10FE
 10
44.2182
 20
142.254
 30
0.000000
  70
    32
  0
VERTEX
  8
0
  5
10FF
 10
44.1782
 20
142.274
 30
0.000000
  70
    32
  0
VERTEX
  8
0
  5
1100
 10
44.1387
 20
142.294
 30
0.000000
  70
    32
  0
VERTEX
  8
0
  5
1101
 10
44.0998
 20
142.315
 30
0.000000
  70
    32
  0
VERTEX
  8
0
  5
1102
 10
44.0616
 20
142.336
 30
0.000000
  70
    32
  0
VERTEX
  8
0
  5
1103
 10
44.0240
 20
142.356
 30
0.000000
  70
    32
  0
VERTEX
  8
0
  5
1104
 10
43.9870
 20
142.377
 30
0.000000
  70
    32
  0
VERTEX
  8
0
  5
1105
 10
43.9506
 20
142.398
 30
0.000000
  70
    32
  0
VERTEX
  8
0
  5
1106
 10
43.9149
 20
142.419
 30
0.000000
  70
    32
  0
VERTEX
  8
0
  5
1107
 10
43.8798
 20
142.441
 30
0.000000
  70
    32
  0
VERTEX
  8
0
  5
1108
 10
43.8453
 20
142.462
 30
0.000000
  70
    32
  0
VERTEX
  8
0
  5
1109
 10
43.8115
 20
142.484
 30
0.000000
  70
    32
  0
VERTEX
  8
0
  5
110A
 10
43.7784
 20
142.505
 30
0.000000
  70
    32
  0
VERTEX
  8
0
  5
110B
 10
43.7459
 20
142.527
 30
0.000000
  70
    32
  0
VERTEX
  8
0
  5
110C
 10
43.7140
 20
142.549
 30
0.000000
  70
    32
  0
VERTEX
  8
0
  5
110D
 10
43.6828
 20
142.571
 30
0.000000
  70
    32
  0
VERTEX
  8
0
  5
110E
 10
43.6523
 20
142.593
 30
0.000000
  70
    32
  0
VERTEX
  8
0
  5
110F
 10
43.6224
 20
142.615
 30
0.000000
  70
    32
  0
VERTEX
  8
0
  5
1110
 10
43.5932
 20
142.637
 30
0.000000
  70
    32
  0
VERTEX
  8
0
  5
1111
 10
43.5647
 20
142.660
 30
0.000000
  70
    32
  0
VERTEX
  8
0
  5
1112
 10
43.5368
 20
142.682
 30
0.000000
  70
    32
  0
VERTEX
  8
0
  5
1113
 10
43.5097
 20
142.705
 30
0.000000
  70
    32
  0
VERTEX
  8
0
  5
1114
 10
43.4832
 20
142.727
 30
0.000000
  70
    32
  0
VERTEX
  8
0
  5
1115
 10
43.4573
 20
142.750
 30
0.000000
  70
    32
  0
VERTEX
  8
0
  5
1116
 10
43.4322
 20
142.773
 30
0.000000
  70
    32
  0
VERTEX
  8
0
  5
1117
 10
43.4078
 20
142.796
 30
0.000000
  70
    32
  0
VERTEX
  8
0
  5
1118
 10
43.3840
 20
142.819
 30
0.000000
  70
    32
  0
VERTEX
  8
0
  5
1119
 10
43.3610
 20
142.842
 30
0.000000
  70
    32
  0
VERTEX
  8
0
  5
111A
 10
43.3386
 20
142.865
 30
0.000000
  70
    32
  0
VERTEX
  8
0
  5
111B
 10
43.3169
 20
142.888
 30
0.000000
  70
    32
  0
VERTEX
  8
0
  5
111C
 10
43.2960
 20
142.912
 30
0.000000
  70
    32
  0
VERTEX
  8
0
  5
111D
 10
43.2757
 20
142.935
 30
0.000000
  70
    32
  0
VERTEX
  8
0
  5
111E
 10
43.2562
 20
142.959
 30
0.000000
  70
    32
  0
VERTEX
  8
0
  5
111F
 10
43.2373
 20
142.982
 30
0.000000
  70
    32
  0
VERTEX
  8
0
  5
1120
 10
43.2192
 20
143.006
 30
0.000000
  70
    32
  0
VERTEX
  8
0
  5
1121
 10
43.2017
 20
143.029
 30
0.000000
  70
    32
  0
VERTEX
  8
0
  5
1122
 10
43.1850
 20
143.053
 30
0.000000
  70
    32
  0
VERTEX
  8
0
  5
1123
 10
43.1690
 20
143.077
 30
0.000000
  70
    32
  0
VERTEX
  8
0
  5
1124
 10
43.1537
 20
143.101
 30
0.000000
  70
    32
  0
VERTEX
  8
0
  5
1125
 10
43.1392
 20
143.125
 30
0.000000
  70
    32
  0
VERTEX
  8
0
  5
1126
 10
43.1253
 20
143.148
 30
0.000000
  70
    32
  0
VERTEX
  8
0
  5
1127
 10
43.1122
 20
143.172
 30
0.000000
  70
    32
  0
VERTEX
  8
0
  5
1128
 10
43.0998
 20
143.196
 30
0.000000
  70
    32
  0
VERTEX
  8
0
  5
1129
 10
43.0881
 20
143.221
 30
0.000000
  70
    32
  0
VERTEX
  8
0
  5
112A
 10
43.0771
 20
143.245
 30
0.000000
  70
    32
  0
VERTEX
  8
0
  5
112B
 10
43.0669
 20
143.269
 30
0.000000
  70
    32
  0
VERTEX
  8
0
  5
112C
 10
43.0573
 20
143.293
 30
0.000000
  70
    32
  0
VERTEX
  8
0
  5
112D
 10
43.0486
 20
143.317
 30
0.000000
  70
    32
  0
VERTEX
  8
0
  5
112E
 10
43.0405
 20
143.341
 30
0.000000
  70
    32
  0
VERTEX
  8
0
  5
112F
 10
43.0332
 20
143.366
 30
0.000000
  70
    32
  0
VERTEX
  8
0
  5
1130
 10
43.0266
 20
143.390
 30
0.000000
  70
    32
  0
VERTEX
  8
0
  5
1131
 10
43.0207
 20
143.414
 30
0.000000
  70
    32
  0
VERTEX
  8
0
  5
1132
 10
43.0156
 20
143.439
 30
0.000000
  70
    32
  0
VERTEX
  8
0
  5
1133
 10
43.0111
 20
143.463
 30
0.000000
  70
    32
  0
VERTEX
  8
0
  5
1134
 10
43.0075
 20
143.487
 30
0.000000
  70
    32
  0
VERTEX
  8
0
  5
1135
 10
43.0045
 20
143.512
 30
0.000000
  70
    32
  0
VERTEX
  8
0
  5
1136
 10
43.0023
 20
143.536
 30
0.000000
  70
    32
  0
VERTEX
  8
0
  5
1137
 10
43.0008
 20
143.560
 30
0.000000
  70
    32
  0
VERTEX
  8
0
  5
1138
 10
43.0001
 20
143.585
 30
0.000000
  70
    32
  0
VERTEX
  8
0
  5
1139
 10
43.0001
 20
143.609
 30
0.000000
  70
    32
  0
VERTEX
  8
0
  5
113A
 10
43.0008
 20
143.634
 30
0.000000
  70
    32
  0
VERTEX
  8
0
  5
113B
 10
43.0023
 20
143.658
 30
0.000000
  70
    32
  0
VERTEX
  8
0
  5
113C
 10
43.0045
 20
143.682
 30
0.000000
  70
    32
  0
VERTEX
  8
0
  5
113D
 10
43.0074
 20
143.707
 30
0.000000
  70
    32
  0
VERTEX
  8
0
  5
113E
 10
43.0110
 20
143.731
 30
0.000000
  70
    32
  0
VERTEX
  8
0
  5
113F
 10
43.0154
 20
143.755
 30
0.000000
  70
    32
  0
VERTEX
  8
0
  5
1140
 10
43.0205
 20
143.780
 30
0.000000
  70
    32
  0
VERTEX
  8
0
  5
1141
 10
43.0264
 20
143.804
 30
0.000000
  70
    32
  0
VERTEX
  8
0
  5
1142
 10
43.0330
 20
143.828
 30
0.000000
  70
    32
  0
VERTEX
  8
0
  5
1143
 10
43.0403
 20
143.853
 30
0.000000
  70
    32
  0
VERTEX
  8
0
  5
1144
 10
43.0483
 20
143.877
 30
0.000000
  70
    32
  0
VERTEX
  8
0
  5
1145
 10
43.0571
 20
143.901
 30
0.000000
  70
    32
  0
VERTEX
  8
0
  5
1146
 10
43.0666
 20
143.925
 30
0.000000
  70
    32
  0
VERTEX
  8
0
  5
1147
 10
43.0768
 20
143.949
 30
0.000000
  70
    32
  0
VERTEX
  8
0
  5
1148
 10
43.0877
 20
143.974
 30
0.000000
  70
    32
  0
VERTEX
  8
0
  5
1149
 10
43.0994
 20
143.998
 30
0.000000
  70
    32
  0
VERTEX
  8
0
  5
114A
 10
43.1118
 20
144.022
 30
0.000000
  70
    32
  0
VERTEX
  8
0
  5
114B
 10
43.1249
 20
144.046
 30
0.000000
  70
    32
  0
VERTEX
  8
0
  5
114C
 10
43.1387
 20
144.070
 30
0.000000
  70
    32
  0
VERTEX
  8
0
  5
114D
 10
43.1533
 20
144.093
 30
0.000000
  70
    32
  0
VERTEX
  8
0
  5
114E
 10
43.1686
 20
144.117
 30
0.000000
  70
    32
  0
VERTEX
  8
0
  5
114F
 10
43.1845
 20
144.141
 30
0.000000
  70
    32
  0
VERTEX
  8
0
  5
1150
 10
43.2012
 20
144.165
 30
0.000000
  70
    32
  0
VERTEX
  8
0
  5
1151
 10
43.2187
 20
144.188
 30
0.000000
  70
    32
  0
VERTEX
  8
0
  5
1152
 10
43.2368
 20
144.212
 30
0.000000
  70
    32
  0
VERTEX
  8
0
  5
1153
 10
43.2556
 20
144.236
 30
0.000000
  70
    32
  0
VERTEX
  8
0
  5
1154
 10
43.2751
 20
144.259
 30
0.000000
  70
    32
  0
VERTEX
  8
0
  5
1155
 10
43.2954
 20
144.282
 30
0.000000
  70
    32
  0
VERTEX
  8
0
  5
1156
 10
43.3163
 20
144.306
 30
0.000000
  70
    32
  0
VERTEX
  8
0
  5
1157
 10
43.3380
 20
144.329
 30
0.000000
  70
    32
  0
VERTEX
  8
0
  5
1158
 10
43.3603
 20
144.352
 30
0.000000
  70
    32
  0
VERTEX
  8
0
  5
1159
 10
43.3834
 20
144.375
 30
0.000000
  70
    32
  0
VERTEX
  8
0
  5
115A
 10
43.4071
 20
144.398
 30
0.000000
  70
    32
  0
VERTEX
  8
0
  5
115B
 10
43.4315
 20
144.421
 30
0.000000
  70
    32
  0
VERTEX
  8
0
  5
115C
 10
43.4566
 20
144.444
 30
0.000000
  70
    32
  0
VERTEX
  8
0
  5
115D
 10
43.4824
 20
144.467
 30
0.000000
  70
    32
  0
VERTEX
  8
0
  5
115E
 10
43.5089
 20
144.490
 30
0.000000
  70
    32
  0
VERTEX
  8
0
  5
115F
 10
43.5360
 20
144.512
 30
0.000000
  70
    32
  0
VERTEX
  8
0
  5
1160
 10
43.5639
 20
144.535
 30
0.000000
  70
    32
  0
VERTEX
  8
0
  5
1161
 10
43.5924
 20
144.557
 30
0.000000
  70
    32
  0
VERTEX
  8
0
  5
1162
 10
43.6216
 20
144.579
 30
0.000000
  70
    32
  0
VERTEX
  8
0
  5
1163
 10
43.6514
 20
144.601
 30
0.000000
  70
    32
  0
VERTEX
  8
0
  5
1164
 10
43.6819
 20
144.623
 30
0.000000
  70
    32
  0
VERTEX
  8
0
  5
1165
 10
43.7131
 20
144.645
 30
0.000000
  70
    32
  0
VERTEX
  8
0
  5
1166
 10
43.7449
 20
144.667
 30
0.000000
  70
    32
  0
VERTEX
  8
0
  5
1167
 10
43.7774
 20
144.689
 30
0.000000
  70
    32
  0
VERTEX
  8
0
  5
1168
 10
43.8106
 20
144.711
 30
0.000000
  70
    32
  0
VERTEX
  8
0
  5
1169
 10
43.8443
 20
144.732
 30
0.000000
  70
    32
  0
VERTEX
  8
0
  5
116A
 10
43.8788
 20
144.754
 30
0.000000
  70
    32
  0
VERTEX
  8
0
  5
116B
 10
43.9138
 20
144.775
 30
0.000000
  70
    32
  0
VERTEX
  8
0
  5
116C
 10
43.9496
 20
144.796
 30
0.000000
  70
    32
  0
VERTEX
  8
0
  5
116D
 10
43.9859
 20
144.817
 30
0.000000
  70
    32
  0
VERTEX
  8
0
  5
116E
 10
44.0229
 20
144.838
 30
0.000000
  70
    32
  0
VERTEX
  8
0
  5
116F
 10
44.0605
 20
144.859
 30
0.000000
  70
    32
  0
VERTEX
  8
0
  5
1170
 10
44.0987
 20
144.879
 30
0.000000
  70
    32
  0
VERTEX
  8
0
  5
1171
 10
44.1375
 20
144.900
 30
0.000000
  70
    32
  0
VERTEX
  8
0
  5
1172
 10
44.1770
 20
144.920
 30
0.000000
  70
    32
  0
VERTEX
  8
0
  5
1173
 10
44.2171
 20
144.940
 30
0.000000
  70
    32
  0
VERTEX
  8
0
  5
1174
 10
44.2577
 20
144.960
 30
0.000000
  70
    32
  0
VERTEX
  8
0
  5
1175
 10
44.2990
 20
144.980
 30
0.000000
  70
    32
  0
VERTEX
  8
0
  5
1176
 10
44.3409
 20
145.000
 30
0.000000
  70
    32
  0
VERTEX
  8
0
  5
1177
 10
44.3833
 20
145.020
 30
0.000000
  70
    32
  0
SEQEND
  8
0
  5
1178
  0
LINE
  5
DF4
  8
0
 10
173.5057920778186
 20
142.46987237250559
 30
0.0
 11
173.4854579208625
 21
142.72176856723411
 31
0.0
  0
ARC
  5
DF5
  8
0
 10
170.0
 20
149.98240772410429
 30
0.0
 40
1.0
 50
235.7681785130147
 51
304.23182148698533
  0
LINE
  5
DF6
  8
0
 10
166.20826072685449
 20
150.24402570066141
 30
0.0
 11
165.92141283210859
 21
149.10219762711711
 31
0.0
  0
LINE
  5
DF7
  8
0
 10
166.47015455044701
 20
150.87651390155489
 30
0.0
 11
166.20826072685449
 21
150.24402570066141
 31
0.0
  0
LINE
  5
DF8
  8
0
 10
173.79173927314551
 20
150.24402570066141
 30
0.0
 11
174.07858716789141
 21
149.10219762711711
 31
0.0
  0
ARC
  5
DF9
  8
0
 10
173.3450601068746
 20
150.7999999999999
 30
0.0
 40
0.2
 50
22.49293497553673
 51
90.0
  0
LINE
  5
DFA
  8
0
 10
173.52984544955299
 20
150.87651390155489
 30
0.0
 11
173.79173927314551
 21
150.24402570066141
 31
0.0
  0
ARC
  5
DFB
  8
0
 10
173.38203395988521
 20
150.60171249806999
 30
0.0
 40
0.4
 50
95.303685279422737
 51
111.73075130857239
  0
LINE
  5
DFC
  8
0
 10
173.23393580780149
 20
150.97328609421129
 30
0.0
 11
170.5737362033565
 21
149.16325567981531
 31
0.0
  0
LINE
  5
DFD
  8
0
 10
166.76606419219851
 20
150.97328609421129
 30
0.0
 11
169.4262637966435
 21
149.16325567981531
 31
0.0
  0
ARC
  5
DFE
  8
0
 10
166.61796604011479
 20
150.60171249806999
 30
0.0
 40
0.4
 50
68.269248691427563
 51
84.696314720577249
  0
ARC
  5
DFF
  8
0
 10
166.6549398931254
 20
150.7999999999999
 30
0.0
 40
0.2
 50
90.0
 51
157.5070650244632
  0
POLYLINE
  5
E00
  8
0
 10
170.59327588173477
 20
147.26340291689985
 30
0.0
 66
     1
 70
     8
  0
VERTEX
  8
0
  5
1179
 10
170.593
 20
147.263
 30
0.000000
  70
    32
  0
VERTEX
  8
0
  5
117A
 10
170.586
 20
147.274
 30
0.000000
  70
    32
  0
VERTEX
  8
0
  5
117B
 10
170.578
 20
147.285
 30
0.000000
  70
    32
  0
VERTEX
  8
0
  5
117C
 10
170.571
 20
147.295
 30
0.000000
  70
    32
  0
VERTEX
  8
0
  5
117D
 10
170.563
 20
147.305
 30
0.000000
  70
    32
  0
VERTEX
  8
0
  5
117E
 10
170.555
 20
147.315
 30
0.000000
  70
    32
  0
VERTEX
  8
0
  5
117F
 10
170.547
 20
147.325
 30
0.000000
  70
    32
  0
VERTEX
  8
0
  5
1180
 10
170.539
 20
147.335
 30
0.000000
  70
    32
  0
VERTEX
  8
0
  5
1181
 10
170.531
 20
147.345
 30
0.000000
  70
    32
  0
VERTEX
  8
0
  5
1182
 10
170.523
 20
147.355
 30
0.000000
  70
    32
  0
VERTEX
  8
0
  5
1183
 10
170.515
 20
147.364
 30
0.000000
  70
    32
  0
VERTEX
  8
0
  5
1184
 10
170.506
 20
147.373
 30
0.000000
  70
    32
  0
VERTEX
  8
0
  5
1185
 10
170.498
 20
147.382
 30
0.000000
  70
    32
  0
VERTEX
  8
0
  5
1186
 10
170.490
 20
147.391
 30
0.000000
  70
    32
  0
VERTEX
  8
0
  5
1187
 10
170.481
 20
147.400
 30
0.000000
  70
    32
  0
VERTEX
  8
0
  5
1188
 10
170.473
 20
147.409
 30
0.000000
  70
    32
  0
VERTEX
  8
0
  5
1189
 10
170.464
 20
147.417
 30
0.000000
  70
    32
  0
VERTEX
  8
0
  5
118A
 10
170.455
 20
147.426
 30
0.000000
  70
    32
  0
VERTEX
  8
0
  5
118B
 10
170.447
 20
147.434
 30
0.000000
  70
    32
  0
VERTEX
  8
0
  5
118C
 10
170.438
 20
147.442
 30
0.000000
  70
    32
  0
VERTEX
  8
0
  5
118D
 10
170.429
 20
147.450
 30
0.000000
  70
    32
  0
VERTEX
  8
0
  5
118E
 10
170.420
 20
147.457
 30
0.000000
  70
    32
  0
VERTEX
  8
0
  5
118F
 10
170.411
 20
147.465
 30
0.000000
  70
    32
  0
VERTEX
  8
0
  5
1190
 10
170.402
 20
147.472
 30
0.000000
  70
    32
  0
VERTEX
  8
0
  5
1191
 10
170.393
 20
147.479
 30
0.000000
  70
    32
  0
VERTEX
  8
0
  5
1192
 10
170.384
 20
147.486
 30
0.000000
  70
    32
  0
VERTEX
  8
0
  5
1193
 10
170.375
 20
147.493
 30
0.000000
  70
    32
  0
VERTEX
  8
0
  5
1194
 10
170.366
 20
147.500
 30
0.000000
  70
    32
  0
VERTEX
  8
0
  5
1195
 10
170.356
 20
147.507
 30
0.000000
  70
    32
  0
VERTEX
  8
0
  5
1196
 10
170.347
 20
147.513
 30
0.000000
  70
    32
  0
VERTEX
  8
0
  5
1197
 10
170.338
 20
147.519
 30
0.000000
  70
    32
  0
VERTEX
  8
0
  5
1198
 10
170.328
 20
147.525
 30
0.000000
  70
    32
  0
VERTEX
  8
0
  5
1199
 10
170.319
 20
147.531
 30
0.000000
  70
    32
  0
VERTEX
  8
0
  5
119A
 10
170.309
 20
147.537
 30
0.000000
  70
    32
  0
VERTEX
  8
0
  5
119B
 10
170.300
 20
147.542
 30
0.000000
  70
    32
  0
VERTEX
  8
0
  5
119C
 10
170.290
 20
147.548
 30
0.000000
  70
    32
  0
VERTEX
  8
0
  5
119D
 10
170.280
 20
147.553
 30
0.000000
  70
    32
  0
VERTEX
  8
0
  5
119E
 10
170.271
 20
147.558
 30
0.000000
  70
    32
  0
VERTEX
  8
0
  5
119F
 10
170.261
 20
147.563
 30
0.000000
  70
    32
  0
VERTEX
  8
0
  5
11A0
 10
170.251
 20
147.567
 30
0.000000
  70
    32
  0
VERTEX
  8
0
  5
11A1
 10
170.242
 20
147.572
 30
0.000000
  70
    32
  0
VERTEX
  8
0
  5
11A2
 10
170.232
 20
147.576
 30
0.000000
  70
    32
  0
VERTEX
  8
0
  5
11A3
 10
170.222
 20
147.580
 30
0.000000
  70
    32
  0
VERTEX
  8
0
  5
11A4
 10
170.212
 20
147.584
 30
0.000000
  70
    32
  0
VERTEX
  8
0
  5
11A5
 10
170.202
 20
147.588
 30
0.000000
  70
    32
  0
VERTEX
  8
0
  5
11A6
 10
170.192
 20
147.591
 30
0.000000
  70
    32
  0
VERTEX
  8
0
  5
11A7
 10
170.182
 20
147.595
 30
0.000000
  70
    32
  0
VERTEX
  8
0
  5
11A8
 10
170.172
 20
147.598
 30
0.000000
  70
    32
  0
VERTEX
  8
0
  5
11A9
 10
170.162
 20
147.601
 30
0.000000
  70
    32
  0
VERTEX
  8
0
  5
11AA
 10
170.152
 20
147.604
 30
0.000000
  70
    32
  0
VERTEX
  8
0
  5
11AB
 10
170.142
 20
147.607
 30
0.000000
  70
    32
  0
VERTEX
  8
0
  5
11AC
 10
170.132
 20
147.609
 30
0.000000
  70
    32
  0
VERTEX
  8
0
  5
11AD
 10
170.122
 20
147.611
 30
0.000000
  70
    32
  0
VERTEX
  8
0
  5
11AE
 10
170.112
 20
147.613
 30
0.000000
  70
    32
  0
VERTEX
  8
0
  5
11AF
 10
170.102
 20
147.615
 30
0.000000
  70
    32
  0
VERTEX
  8
0
  5
11B0
 10
170.092
 20
147.617
 30
0.000000
  70
    32
  0
VERTEX
  8
0
  5
11B1
 10
170.081
 20
147.619
 30
0.000000
  70
    32
  0
VERTEX
  8
0
  5
11B2
 10
170.071
 20
147.620
 30
0.000000
  70
    32
  0
VERTEX
  8
0
  5
11B3
 10
170.061
 20
147.621
 30
0.000000
  70
    32
  0
VERTEX
  8
0
  5
11B4
 10
170.051
 20
147.622
 30
0.000000
  70
    32
  0
VERTEX
  8
0
  5
11B5
 10
170.041
 20
147.623
 30
0.000000
  70
    32
  0
VERTEX
  8
0
  5
11B6
 10
170.031
 20
147.624
 30
0.000000
  70
    32
  0
VERTEX
  8
0
  5
11B7
 10
170.020
 20
147.624
 30
0.000000
  70
    32
  0
VERTEX
  8
0
  5
11B8
 10
170.010
 20
147.625
 30
0.000000
  70
    32
  0
VERTEX
  8
0
  5
11B9
 10
170.000
 20
147.625
 30
0.000000
  70
    32
  0
VERTEX
  8
0
  5
11BA
 10
169.990
 20
147.625
 30
0.000000
  70
    32
  0
VERTEX
  8
0
  5
11BB
 10
169.980
 20
147.624
 30
0.000000
  70
    32
  0
VERTEX
  8
0
  5
11BC
 10
169.969
 20
147.624
 30
0.000000
  70
    32
  0
VERTEX
  8
0
  5
11BD
 10
169.959
 20
147.623
 30
0.000000
  70
    32
  0
VERTEX
  8
0
  5
11BE
 10
169.949
 20
147.622
 30
0.000000
  70
    32
  0
VERTEX
  8
0
  5
11BF
 10
169.939
 20
147.621
 30
0.000000
  70
    32
  0
VERTEX
  8
0
  5
11C0
 10
169.929
 20
147.620
 30
0.000000
  70
    32
  0
VERTEX
  8
0
  5
11C1
 10
169.919
 20
147.619
 30
0.000000
  70
    32
  0
VERTEX
  8
0
  5
11C2
 10
169.908
 20
147.617
 30
0.000000
  70
    32
  0
VERTEX
  8
0
  5
11C3
 10
169.898
 20
147.615
 30
0.000000
  70
    32
  0
VERTEX
  8
0
  5
11C4
 10
169.888
 20
147.613
 30
0.000000
  70
    32
  0
VERTEX
  8
0
  5
11C5
 10
169.878
 20
147.611
 30
0.000000
  70
    32
  0
VERTEX
  8
0
  5
11C6
 10
169.868
 20
147.609
 30
0.000000
  70
    32
  0
VERTEX
  8
0
  5
11C7
 10
169.858
 20
147.607
 30
0.000000
  70
    32
  0
VERTEX
  8
0
  5
11C8
 10
169.848
 20
147.604
 30
0.000000
  70
    32
  0
VERTEX
  8
0
  5
11C9
 10
169.838
 20
147.601
 30
0.000000
  70
    32
  0
VERTEX
  8
0
  5
11CA
 10
169.828
 20
147.598
 30
0.000000
  70
    32
  0
VERTEX
  8
0
  5
11CB
 10
169.818
 20
147.595
 30
0.000000
  70
    32
  0
VERTEX
  8
0
  5
11CC
 10
169.808
 20
147.591
 30
0.000000
  70
    32
  0
VERTEX
  8
0
  5
11CD
 10
169.798
 20
147.588
 30
0.000000
  70
    32
  0
VERTEX
  8
0
  5
11CE
 10
169.788
 20
147.584
 30
0.000000
  70
    32
  0
VERTEX
  8
0
  5
11CF
 10
169.778
 20
147.580
 30
0.000000
  70
    32
  0
VERTEX
  8
0
  5
11D0
 10
169.768
 20
147.576
 30
0.000000
  70
    32
  0
VERTEX
  8
0
  5
11D1
 10
169.758
 20
147.572
 30
0.000000
  70
    32
  0
VERTEX
  8
0
  5
11D2
 10
169.749
 20
147.567
 30
0.000000
  70
    32
  0
VERTEX
  8
0
  5
11D3
 10
169.739
 20
147.563
 30
0.000000
  70
    32
  0
VERTEX
  8
0
  5
11D4
 10
169.729
 20
147.558
 30
0.000000
  70
    32
  0
VERTEX
  8
0
  5
11D5
 10
169.720
 20
147.553
 30
0.000000
  70
    32
  0
VERTEX
  8
0
  5
11D6
 10
169.710
 20
147.548
 30
0.000000
  70
    32
  0
VERTEX
  8
0
  5
11D7
 10
169.700
 20
147.542
 30
0.000000
  70
    32
  0
VERTEX
  8
0
  5
11D8
 10
169.691
 20
147.537
 30
0.000000
  70
    32
  0
VERTEX
  8
0
  5
11D9
 10
169.681
 20
147.531
 30
0.000000
  70
    32
  0
VERTEX
  8
0
  5
11DA
 10
169.672
 20
147.525
 30
0.000000
  70
    32
  0
VERTEX
  8
0
  5
11DB
 10
169.662
 20
147.519
 30
0.000000
  70
    32
  0
VERTEX
  8
0
  5
11DC
 10
169.653
 20
147.513
 30
0.000000
  70
    32
  0
VERTEX
  8
0
  5
11DD
 10
169.644
 20
147.507
 30
0.000000
  70
    32
  0
VERTEX
  8
0
  5
11DE
 10
169.634
 20
147.500
 30
0.000000
  70
    32
  0
VERTEX
  8
0
  5
11DF
 10
169.625
 20
147.493
 30
0.000000
  70
    32
  0
VERTEX
  8
0
  5
11E0
 10
169.616
 20
147.486
 30
0.000000
  70
    32
  0
VERTEX
  8
0
  5
11E1
 10
169.607
 20
147.479
 30
0.000000
  70
    32
  0
VERTEX
  8
0
  5
11E2
 10
169.598
 20
147.472
 30
0.000000
  70
    32
  0
VERTEX
  8
0
  5
11E3
 10
169.589
 20
147.465
 30
0.000000
  70
    32
  0
VERTEX
  8
0
  5
11E4
 10
169.580
 20
147.457
 30
0.000000
  70
    32
  0
VERTEX
  8
0
  5
11E5
 10
169.571
 20
147.450
 30
0.000000
  70
    32
  0
VERTEX
  8
0
  5
11E6
 10
169.562
 20
147.442
 30
0.000000
  70
    32
  0
VERTEX
  8
0
  5
11E7
 10
169.553
 20
147.434
 30
0.000000
  70
    32
  0
VERTEX
  8
0
  5
11E8
 10
169.545
 20
147.426
 30
0.000000
  70
    32
  0
VERTEX
  8
0
  5
11E9
 10
169.536
 20
147.417
 30
0.000000
  70
    32
  0
VERTEX
  8
0
  5
11EA
 10
169.527
 20
147.409
 30
0.000000
  70
    32
  0
VERTEX
  8
0
  5
11EB
 10
169.519
 20
147.400
 30
0.000000
  70
    32
  0
VERTEX
  8
0
  5
11EC
 10
169.510
 20
147.391
 30
0.000000
  70
    32
  0
VERTEX
  8
0
  5
11ED
 10
169.502
 20
147.382
 30
0.000000
  70
    32
  0
VERTEX
  8
0
  5
11EE
 10
169.494
 20
147.373
 30
0.000000
  70
    32
  0
VERTEX
  8
0
  5
11EF
 10
169.485
 20
147.364
 30
0.000000
  70
    32
  0
VERTEX
  8
0
  5
11F0
 10
169.477
 20
147.355
 30
0.000000
  70
    32
  0
VERTEX
  8
0
  5
11F1
 10
169.469
 20
147.345
 30
0.000000
  70
    32
  0
VERTEX
  8
0
  5
11F2
 10
169.461
 20
147.335
 30
0.000000
  70
    32
  0
VERTEX
  8
0
  5
11F3
 10
169.453
 20
147.325
 30
0.000000
  70
    32
  0
VERTEX
  8
0
  5
11F4
 10
169.445
 20
147.315
 30
0.000000
  70
    32
  0
VERTEX
  8
0
  5
11F5
 10
169.437
 20
147.305
 30
0.000000
  70
    32
  0
VERTEX
  8
0
  5
11F6
 10
169.429
 20
147.295
 30
0.000000
  70
    32
  0
VERTEX
  8
0
  5
11F7
 10
169.422
 20
147.285
 30
0.000000
  70
    32
  0
VERTEX
  8
0
  5
11F8
 10
169.414
 20
147.274
 30
0.000000
  70
    32
  0
VERTEX
  8
0
  5
11F9
 10
169.407
 20
147.263
 30
0.000000
  70
    32
  0
SEQEND
  8
0
  5
11FA
  0
ARC
  5
E01
  8
0
 10
155.4908714928437
 20
134.15167604076311
 30
0.0
 40
20.0
 50
26.540009007946999
 51
40.964124611726056
  0
ARC
  5
E02
  8
0
 10
172.48870029340139
 20
142.64130595418891
 30
0.0
 40
1.0
 50
4.6151572348120826
 51
26.540009007946999
  0
LINE
  5
E03
  8
0
 10
173.5057920778186
 20
142.46987237250559
 30
0.0
 11
173.5357422034167
 21
142.17833594473339
 31
0.0
  0
ARC
  5
E04
  8
0
 10
184.50912850715619
 20
134.15167604076311
 30
0.0
 40
20.0
 50
139.0358753885011
 51
153.45999099205301
  0
LINE
  5
E05
  8
0
 10
166.4942079221814
 20
142.46987237250559
 30
0.0
 11
166.4642577965833
 21
142.17833594473339
 31
0.0
  0
LINE
  5
E06
  8
0
 10
166.4942079221814
 20
142.46987237250559
 30
0.0
 11
166.5145420791375
 21
142.72176856723411
 31
0.0
  0
ARC
  5
E07
  8
0
 10
167.51129970659861
 20
142.64130595418891
 30
0.0
 40
1.0
 50
153.45999099205301
 51
175.3848427651879
  0
ARC
  5
E08
  8
0
 10
173.99541211861629
 20
139.0499999999999
 30
0.0
 40
0.05
 50
187.45301871040849
 51
270.00000000001631
  0
ARC
  5
E09
  8
0
 10
166.00458788138371
 20
139.0499999999999
 30
0.0
 40
0.05
 50
269.9999999999838
 51
352.54698128959137
  0
LINE
  5
E0A
  8
0
 10
166.0541654592181
 20
139.04351434073661
 30
0.0
 11
166.4642577965833
 21
142.17833594473339
 31
0.0
  0
LINE
  5
E0B
  8
0
 10
174.08151303112751
 20
146.45831975679329
 30
0.0
 11
175.4741300527069
 21
145.0085693012756
 31
0.0
  0
LINE
  5
E0C
  8
0
 10
175.47413005270681
 20
145.00856930127571
 30
0.0
 11
176.26556777584031
 21
144.65023824231909
 31
0.0
  0
ARC
  5
E0D
  8
0
 10
175.75
 20
143.51151533110891
 30
0.0
 40
1.25
 50
0.0
 51
65.640901373420107
  0
LINE
  5
E0E
  8
0
 10
165.91848696887249
 20
146.45831975679329
 30
0.0
 11
164.5258699472931
 21
145.0085693012756
 31
0.0
  0
ARC
  5
E0F
  8
0
 10
164.25
 20
143.51151533110891
 30
0.0
 40
1.25
 50
114.35909862657989
 51
180.0
  0
LINE
  5
E10
  8
0
 10
164.5258699472933
 20
145.00856930127571
 30
0.0
 11
163.73443222415969
 21
144.65023824231909
 31
0.0
  0
POLYLINE
  5
E11
  8
0
 10
166.42699909606574
 20
138.49815851957203
 30
0.0
 66
     1
 70
     8
  0
VERTEX
  8
0
  5
11FB
 10
166.427
 20
138.498
 30
0.000000
  70
    32
  0
VERTEX
  8
0
  5
11FC
 10
166.427
 20
138.504
 30
0.000000
  70
    32
  0
VERTEX
  8
0
  5
11FD
 10
166.427
 20
138.510
 30
0.000000
  70
    32
  0
VERTEX
  8
0
  5
11FE
 10
166.427
 20
138.517
 30
0.000000
  70
    32
  0
VERTEX
  8
0
  5
11FF
 10
166.427
 20
138.523
 30
0.000000
  70
    32
  0
VERTEX
  8
0
  5
1200
 10
166.427
 20
138.529
 30
0.000000
  70
    32
  0
VERTEX
  8
0
  5
1201
 10
166.427
 20
138.535
 30
0.000000
  70
    32
  0
VERTEX
  8
0
  5
1202
 10
166.426
 20
138.541
 30
0.000000
  70
    32
  0
VERTEX
  8
0
  5
1203
 10
166.426
 20
138.547
 30
0.000000
  70
    32
  0
VERTEX
  8
0
  5
1204
 10
166.426
 20
138.553
 30
0.000000
  70
    32
  0
VERTEX
  8
0
  5
1205
 10
166.426
 20
138.560
 30
0.000000
  70
    32
  0
VERTEX
  8
0
  5
1206
 10
166.425
 20
138.566
 30
0.000000
  70
    32
  0
VERTEX
  8
0
  5
1207
 10
166.425
 20
138.572
 30
0.000000
  70
    32
  0
VERTEX
  8
0
  5
1208
 10
166.425
 20
138.578
 30
0.000000
  70
    32
  0
VERTEX
  8
0
  5
1209
 10
166.424
 20
138.584
 30
0.000000
  70
    32
  0
VERTEX
  8
0
  5
120A
 10
166.424
 20
138.590
 30
0.000000
  70
    32
  0
VERTEX
  8
0
  5
120B
 10
166.424
 20
138.596
 30
0.000000
  70
    32
  0
VERTEX
  8
0
  5
120C
 10
166.423
 20
138.602
 30
0.000000
  70
    32
  0
VERTEX
  8
0
  5
120D
 10
166.423
 20
138.608
 30
0.000000
  70
    32
  0
VERTEX
  8
0
  5
120E
 10
166.422
 20
138.614
 30
0.000000
  70
    32
  0
VERTEX
  8
0
  5
120F
 10
166.422
 20
138.620
 30
0.000000
  70
    32
  0
VERTEX
  8
0
  5
1210
 10
166.421
 20
138.626
 30
0.000000
  70
    32
  0
VERTEX
  8
0
  5
1211
 10
166.421
 20
138.632
 30
0.000000
  70
    32
  0
VERTEX
  8
0
  5
1212
 10
166.420
 20
138.638
 30
0.000000
  70
    32
  0
VERTEX
  8
0
  5
1213
 10
166.420
 20
138.644
 30
0.000000
  70
    32
  0
VERTEX
  8
0
  5
1214
 10
166.419
 20
138.650
 30
0.000000
  70
    32
  0
VERTEX
  8
0
  5
1215
 10
166.418
 20
138.656
 30
0.000000
  70
    32
  0
VERTEX
  8
0
  5
1216
 10
166.418
 20
138.661
 30
0.000000
  70
    32
  0
VERTEX
  8
0
  5
1217
 10
166.417
 20
138.667
 30
0.000000
  70
    32
  0
VERTEX
  8
0
  5
1218
 10
166.416
 20
138.673
 30
0.000000
  70
    32
  0
VERTEX
  8
0
  5
1219
 10
166.415
 20
138.679
 30
0.000000
  70
    32
  0
VERTEX
  8
0
  5
121A
 10
166.415
 20
138.685
 30
0.000000
  70
    32
  0
VERTEX
  8
0
  5
121B
 10
166.414
 20
138.690
 30
0.000000
  70
    32
  0
VERTEX
  8
0
  5
121C
 10
166.413
 20
138.696
 30
0.000000
  70
    32
  0
VERTEX
  8
0
  5
121D
 10
166.412
 20
138.702
 30
0.000000
  70
    32
  0
VERTEX
  8
0
  5
121E
 10
166.411
 20
138.707
 30
0.000000
  70
    32
  0
VERTEX
  8
0
  5
121F
 10
166.410
 20
138.713
 30
0.000000
  70
    32
  0
VERTEX
  8
0
  5
1220
 10
166.410
 20
138.718
 30
0.000000
  70
    32
  0
VERTEX
  8
0
  5
1221
 10
166.409
 20
138.724
 30
0.000000
  70
    32
  0
VERTEX
  8
0
  5
1222
 10
166.408
 20
138.729
 30
0.000000
  70
    32
  0
VERTEX
  8
0
  5
1223
 10
166.407
 20
138.735
 30
0.000000
  70
    32
  0
VERTEX
  8
0
  5
1224
 10
166.406
 20
138.740
 30
0.000000
  70
    32
  0
VERTEX
  8
0
  5
1225
 10
166.405
 20
138.746
 30
0.000000
  70
    32
  0
VERTEX
  8
0
  5
1226
 10
166.404
 20
138.751
 30
0.000000
  70
    32
  0
VERTEX
  8
0
  5
1227
 10
166.402
 20
138.756
 30
0.000000
  70
    32
  0
VERTEX
  8
0
  5
1228
 10
166.401
 20
138.761
 30
0.000000
  70
    32
  0
VERTEX
  8
0
  5
1229
 10
166.400
 20
138.767
 30
0.000000
  70
    32
  0
VERTEX
  8
0
  5
122A
 10
166.399
 20
138.772
 30
0.000000
  70
    32
  0
VERTEX
  8
0
  5
122B
 10
166.398
 20
138.777
 30
0.000000
  70
    32
  0
VERTEX
  8
0
  5
122C
 10
166.397
 20
138.782
 30
0.000000
  70
    32
  0
VERTEX
  8
0
  5
122D
 10
166.396
 20
138.787
 30
0.000000
  70
    32
  0
VERTEX
  8
0
  5
122E
 10
166.394
 20
138.792
 30
0.000000
  70
    32
  0
VERTEX
  8
0
  5
122F
 10
166.393
 20
138.797
 30
0.000000
  70
    32
  0
VERTEX
  8
0
  5
1230
 10
166.392
 20
138.802
 30
0.000000
  70
    32
  0
VERTEX
  8
0
  5
1231
 10
166.390
 20
138.807
 30
0.000000
  70
    32
  0
VERTEX
  8
0
  5
1232
 10
166.389
 20
138.812
 30
0.000000
  70
    32
  0
VERTEX
  8
0
  5
1233
 10
166.388
 20
138.817
 30
0.000000
  70
    32
  0
VERTEX
  8
0
  5
1234
 10
166.386
 20
138.821
 30
0.000000
  70
    32
  0
VERTEX
  8
0
  5
1235
 10
166.385
 20
138.826
 30
0.000000
  70
    32
  0
VERTEX
  8
0
  5
1236
 10
166.384
 20
138.831
 30
0.000000
  70
    32
  0
VERTEX
  8
0
  5
1237
 10
166.382
 20
138.835
 30
0.000000
  70
    32
  0
VERTEX
  8
0
  5
1238
 10
166.381
 20
138.840
 30
0.000000
  70
    32
  0
VERTEX
  8
0
  5
1239
 10
166.379
 20
138.844
 30
0.000000
  70
    32
  0
VERTEX
  8
0
  5
123A
 10
166.378
 20
138.849
 30
0.000000
  70
    32
  0
VERTEX
  8
0
  5
123B
 10
166.376
 20
138.853
 30
0.000000
  70
    32
  0
VERTEX
  8
0
  5
123C
 10
166.375
 20
138.857
 30
0.000000
  70
    32
  0
VERTEX
  8
0
  5
123D
 10
166.373
 20
138.862
 30
0.000000
  70
    32
  0
VERTEX
  8
0
  5
123E
 10
166.372
 20
138.866
 30
0.000000
  70
    32
  0
VERTEX
  8
0
  5
123F
 10
166.370
 20
138.870
 30
0.000000
  70
    32
  0
VERTEX
  8
0
  5
1240
 10
166.369
 20
138.874
 30
0.000000
  70
    32
  0
VERTEX
  8
0
  5
1241
 10
166.367
 20
138.878
 30
0.000000
  70
    32
  0
VERTEX
  8
0
  5
1242
 10
166.366
 20
138.882
 30
0.000000
  70
    32
  0
VERTEX
  8
0
  5
1243
 10
166.364
 20
138.886
 30
0.000000
  70
    32
  0
VERTEX
  8
0
  5
1244
 10
166.362
 20
138.890
 30
0.000000
  70
    32
  0
VERTEX
  8
0
  5
1245
 10
166.361
 20
138.894
 30
0.000000
  70
    32
  0
VERTEX
  8
0
  5
1246
 10
166.359
 20
138.898
 30
0.000000
  70
    32
  0
VERTEX
  8
0
  5
1247
 10
166.357
 20
138.901
 30
0.000000
  70
    32
  0
VERTEX
  8
0
  5
1248
 10
166.356
 20
138.905
 30
0.000000
  70
    32
  0
VERTEX
  8
0
  5
1249
 10
166.354
 20
138.908
 30
0.000000
  70
    32
  0
VERTEX
  8
0
  5
124A
 10
166.352
 20
138.912
 30
0.000000
  70
    32
  0
VERTEX
  8
0
  5
124B
 10
166.350
 20
138.915
 30
0.000000
  70
    32
  0
VERTEX
  8
0
  5
124C
 10
166.349
 20
138.919
 30
0.000000
  70
    32
  0
VERTEX
  8
0
  5
124D
 10
166.347
 20
138.922
 30
0.000000
  70
    32
  0
VERTEX
  8
0
  5
124E
 10
166.345
 20
138.925
 30
0.000000
  70
    32
  0
VERTEX
  8
0
  5
124F
 10
166.343
 20
138.929
 30
0.000000
  70
    32
  0
VERTEX
  8
0
  5
1250
 10
166.341
 20
138.932
 30
0.000000
  70
    32
  0
VERTEX
  8
0
  5
1251
 10
166.340
 20
138.935
 30
0.000000
  70
    32
  0
VERTEX
  8
0
  5
1252
 10
166.338
 20
138.938
 30
0.000000
  70
    32
  0
VERTEX
  8
0
  5
1253
 10
166.336
 20
138.941
 30
0.000000
  70
    32
  0
VERTEX
  8
0
  5
1254
 10
166.334
 20
138.944
 30
0.000000
  70
    32
  0
VERTEX
  8
0
  5
1255
 10
166.332
 20
138.946
 30
0.000000
  70
    32
  0
VERTEX
  8
0
  5
1256
 10
166.330
 20
138.949
 30
0.000000
  70
    32
  0
VERTEX
  8
0
  5
1257
 10
166.328
 20
138.952
 30
0.000000
  70
    32
  0
VERTEX
  8
0
  5
1258
 10
166.326
 20
138.954
 30
0.000000
  70
    32
  0
VERTEX
  8
0
  5
1259
 10
166.324
 20
138.957
 30
0.000000
  70
    32
  0
VERTEX
  8
0
  5
125A
 10
166.322
 20
138.959
 30
0.000000
  70
    32
  0
VERTEX
  8
0
  5
125B
 10
166.321
 20
138.962
 30
0.000000
  70
    32
  0
VERTEX
  8
0
  5
125C
 10
166.319
 20
138.964
 30
0.000000
  70
    32
  0
VERTEX
  8
0
  5
125D
 10
166.317
 20
138.966
 30
0.000000
  70
    32
  0
VERTEX
  8
0
  5
125E
 10
166.315
 20
138.969
 30
0.000000
  70
    32
  0
VERTEX
  8
0
  5
125F
 10
166.313
 20
138.971
 30
0.000000
  70
    32
  0
VERTEX
  8
0
  5
1260
 10
166.311
 20
138.973
 30
0.000000
  70
    32
  0
VERTEX
  8
0
  5
1261
 10
166.309
 20
138.975
 30
0.000000
  70
    32
  0
VERTEX
  8
0
  5
1262
 10
166.307
 20
138.977
 30
0.000000
  70
    32
  0
VERTEX
  8
0
  5
1263
 10
166.305
 20
138.978
 30
0.000000
  70
    32
  0
VERTEX
  8
0
  5
1264
 10
166.303
 20
138.980
 30
0.000000
  70
    32
  0
VERTEX
  8
0
  5
1265
 10
166.301
 20
138.982
 30
0.000000
  70
    32
  0
VERTEX
  8
0
  5
1266
 10
166.299
 20
138.983
 30
0.000000
  70
    32
  0
VERTEX
  8
0
  5
1267
 10
166.296
 20
138.985
 30
0.000000
  70
    32
  0
VERTEX
  8
0
  5
1268
 10
166.294
 20
138.986
 30
0.000000
  70
    32
  0
VERTEX
  8
0
  5
1269
 10
166.292
 20
138.988
 30
0.000000
  70
    32
  0
VERTEX
  8
0
  5
126A
 10
166.290
 20
138.989
 30
0.000000
  70
    32
  0
VERTEX
  8
0
  5
126B
 10
166.288
 20
138.990
 30
0.000000
  70
    32
  0
VERTEX
  8
0
  5
126C
 10
166.286
 20
138.992
 30
0.000000
  70
    32
  0
VERTEX
  8
0
  5
126D
 10
166.284
 20
138.993
 30
0.000000
  70
    32
  0
VERTEX
  8
0
  5
126E
 10
166.282
 20
138.994
 30
0.000000
  70
    32
  0
VERTEX
  8
0
  5
126F
 10
166.280
 20
138.995
 30
0.000000
  70
    32
  0
VERTEX
  8
0
  5
1270
 10
166.278
 20
138.995
 30
0.000000
  70
    32
  0
VERTEX
  8
0
  5
1271
 10
166.276
 20
138.996
 30
0.000000
  70
    32
  0
VERTEX
  8
0
  5
1272
 10
166.274
 20
138.997
 30
0.000000
  70
    32
  0
VERTEX
  8
0
  5
1273
 10
166.271
 20
138.998
 30
0.000000
  70
    32
  0
VERTEX
  8
0
  5
1274
 10
166.269
 20
138.998
 30
0.000000
  70
    32
  0
VERTEX
  8
0
  5
1275
 10
166.267
 20
138.999
 30
0.000000
  70
    32
  0
VERTEX
  8
0
  5
1276
 10
166.265
 20
138.999
 30
0.000000
  70
    32
  0
VERTEX
  8
0
  5
1277
 10
166.263
 20
138.999
 30
0.000000
  70
    32
  0
VERTEX
  8
0
  5
1278
 10
166.261
 20
139.000
 30
0.000000
  70
    32
  0
VERTEX
  8
0
  5
1279
 10
166.259
 20
139.000
 30
0.000000
  70
    32
  0
VERTEX
  8
0
  5
127A
 10
166.257
 20
139.000
 30
0.000000
  70
    32
  0
VERTEX
  8
0
  5
127B
 10
166.255
 20
139.000
 30
0.000000
  70
    32
  0
SEQEND
  8
0
  5
127C
  0
ARC
  5
E12
  8
0
 10
156.4602028125143
 20
139.3123891613003
 30
0.0
 40
10.0
 50
331.23365111884527
 51
355.32963180574433
  0
ARC
  5
E13
  8
0
 10
183.53979718748559
 20
139.3123891613003
 30
0.0
 40
10.0
 50
184.67036819425559
 51
208.76634888115461
  0
POLYLINE
  5
E14
  8
0
 10
173.57300090393426
 20
138.49815851957203
 30
0.0
 66
     1
 70
     8
  0
VERTEX
  8
0
  5
127D
 10
173.573
 20
138.498
 30
0.000000
  70
    32
  0
VERTEX
  8
0
  5
127E
 10
173.573
 20
138.504
 30
0.000000
  70
    32
  0
VERTEX
  8
0
  5
127F
 10
173.573
 20
138.510
 30
0.000000
  70
    32
  0
VERTEX
  8
0
  5
1280
 10
173.573
 20
138.517
 30
0.000000
  70
    32
  0
VERTEX
  8
0
  5
1281
 10
173.573
 20
138.523
 30
0.000000
  70
    32
  0
VERTEX
  8
0
  5
1282
 10
173.573
 20
138.529
 30
0.000000
  70
    32
  0
VERTEX
  8
0
  5
1283
 10
173.573
 20
138.535
 30
0.000000
  70
    32
  0
VERTEX
  8
0
  5
1284
 10
173.574
 20
138.541
 30
0.000000
  70
    32
  0
VERTEX
  8
0
  5
1285
 10
173.574
 20
138.547
 30
0.000000
  70
    32
  0
VERTEX
  8
0
  5
1286
 10
173.574
 20
138.553
 30
0.000000
  70
    32
  0
VERTEX
  8
0
  5
1287
 10
173.574
 20
138.560
 30
0.000000
  70
    32
  0
VERTEX
  8
0
  5
1288
 10
173.575
 20
138.566
 30
0.000000
  70
    32
  0
VERTEX
  8
0
  5
1289
 10
173.575
 20
138.572
 30
0.000000
  70
    32
  0
VERTEX
  8
0
  5
128A
 10
173.575
 20
138.578
 30
0.000000
  70
    32
  0
VERTEX
  8
0
  5
128B
 10
173.576
 20
138.584
 30
0.000000
  70
    32
  0
VERTEX
  8
0
  5
128C
 10
173.576
 20
138.590
 30
0.000000
  70
    32
  0
VERTEX
  8
0
  5
128D
 10
173.576
 20
138.596
 30
0.000000
  70
    32
  0
VERTEX
  8
0
  5
128E
 10
173.577
 20
138.602
 30
0.000000
  70
    32
  0
VERTEX
  8
0
  5
128F
 10
173.577
 20
138.608
 30
0.000000
  70
    32
  0
VERTEX
  8
0
  5
1290
 10
173.578
 20
138.614
 30
0.000000
  70
    32
  0
VERTEX
  8
0
  5
1291
 10
173.578
 20
138.620
 30
0.000000
  70
    32
  0
VERTEX
  8
0
  5
1292
 10
173.579
 20
138.626
 30
0.000000
  70
    32
  0
VERTEX
  8
0
  5
1293
 10
173.579
 20
138.632
 30
0.000000
  70
    32
  0
VERTEX
  8
0
  5
1294
 10
173.580
 20
138.638
 30
0.000000
  70
    32
  0
VERTEX
  8
0
  5
1295
 10
173.580
 20
138.644
 30
0.000000
  70
    32
  0
VERTEX
  8
0
  5
1296
 10
173.581
 20
138.650
 30
0.000000
  70
    32
  0
VERTEX
  8
0
  5
1297
 10
173.582
 20
138.656
 30
0.000000
  70
    32
  0
VERTEX
  8
0
  5
1298
 10
173.582
 20
138.661
 30
0.000000
  70
    32
  0
VERTEX
  8
0
  5
1299
 10
173.583
 20
138.667
 30
0.000000
  70
    32
  0
VERTEX
  8
0
  5
129A
 10
173.584
 20
138.673
 30
0.000000
  70
    32
  0
VERTEX
  8
0
  5
129B
 10
173.585
 20
138.679
 30
0.000000
  70
    32
  0
VERTEX
  8
0
  5
129C
 10
173.585
 20
138.685
 30
0.000000
  70
    32
  0
VERTEX
  8
0
  5
129D
 10
173.586
 20
138.690
 30
0.000000
  70
    32
  0
VERTEX
  8
0
  5
129E
 10
173.587
 20
138.696
 30
0.000000
  70
    32
  0
VERTEX
  8
0
  5
129F
 10
173.588
 20
138.702
 30
0.000000
  70
    32
  0
VERTEX
  8
0
  5
12A0
 10
173.589
 20
138.707
 30
0.000000
  70
    32
  0
VERTEX
  8
0
  5
12A1
 10
173.590
 20
138.713
 30
0.000000
  70
    32
  0
VERTEX
  8
0
  5
12A2
 10
173.590
 20
138.718
 30
0.000000
  70
    32
  0
VERTEX
  8
0
  5
12A3
 10
173.591
 20
138.724
 30
0.000000
  70
    32
  0
VERTEX
  8
0
  5
12A4
 10
173.592
 20
138.729
 30
0.000000
  70
    32
  0
VERTEX
  8
0
  5
12A5
 10
173.593
 20
138.735
 30
0.000000
  70
    32
  0
VERTEX
  8
0
  5
12A6
 10
173.594
 20
138.740
 30
0.000000
  70
    32
  0
VERTEX
  8
0
  5
12A7
 10
173.595
 20
138.746
 30
0.000000
  70
    32
  0
VERTEX
  8
0
  5
12A8
 10
173.596
 20
138.751
 30
0.000000
  70
    32
  0
VERTEX
  8
0
  5
12A9
 10
173.598
 20
138.756
 30
0.000000
  70
    32
  0
VERTEX
  8
0
  5
12AA
 10
173.599
 20
138.761
 30
0.000000
  70
    32
  0
VERTEX
  8
0
  5
12AB
 10
173.600
 20
138.767
 30
0.000000
  70
    32
  0
VERTEX
  8
0
  5
12AC
 10
173.601
 20
138.772
 30
0.000000
  70
    32
  0
VERTEX
  8
0
  5
12AD
 10
173.602
 20
138.777
 30
0.000000
  70
    32
  0
VERTEX
  8
0
  5
12AE
 10
173.603
 20
138.782
 30
0.000000
  70
    32
  0
VERTEX
  8
0
  5
12AF
 10
173.604
 20
138.787
 30
0.000000
  70
    32
  0
VERTEX
  8
0
  5
12B0
 10
173.606
 20
138.792
 30
0.000000
  70
    32
  0
VERTEX
  8
0
  5
12B1
 10
173.607
 20
138.797
 30
0.000000
  70
    32
  0
VERTEX
  8
0
  5
12B2
 10
173.608
 20
138.802
 30
0.000000
  70
    32
  0
VERTEX
  8
0
  5
12B3
 10
173.610
 20
138.807
 30
0.000000
  70
    32
  0
VERTEX
  8
0
  5
12B4
 10
173.611
 20
138.812
 30
0.000000
  70
    32
  0
VERTEX
  8
0
  5
12B5
 10
173.612
 20
138.817
 30
0.000000
  70
    32
  0
VERTEX
  8
0
  5
12B6
 10
173.614
 20
138.821
 30
0.000000
  70
    32
  0
VERTEX
  8
0
  5
12B7
 10
173.615
 20
138.826
 30
0.000000
  70
    32
  0
VERTEX
  8
0
  5
12B8
 10
173.616
 20
138.831
 30
0.000000
  70
    32
  0
VERTEX
  8
0
  5
12B9
 10
173.618
 20
138.835
 30
0.000000
  70
    32
  0
VERTEX
  8
0
  5
12BA
 10
173.619
 20
138.840
 30
0.000000
  70
    32
  0
VERTEX
  8
0
  5
12BB
 10
173.621
 20
138.844
 30
0.000000
  70
    32
  0
VERTEX
  8
0
  5
12BC
 10
173.622
 20
138.849
 30
0.000000
  70
    32
  0
VERTEX
  8
0
  5
12BD
 10
173.624
 20
138.853
 30
0.000000
  70
    32
  0
VERTEX
  8
0
  5
12BE
 10
173.625
 20
138.857
 30
0.000000
  70
    32
  0
VERTEX
  8
0
  5
12BF
 10
173.627
 20
138.862
 30
0.000000
  70
    32
  0
VERTEX
  8
0
  5
12C0
 10
173.628
 20
138.866
 30
0.000000
  70
    32
  0
VERTEX
  8
0
  5
12C1
 10
173.630
 20
138.870
 30
0.000000
  70
    32
  0
VERTEX
  8
0
  5
12C2
 10
173.631
 20
138.874
 30
0.000000
  70
    32
  0
VERTEX
  8
0
  5
12C3
 10
173.633
 20
138.878
 30
0.000000
  70
    32
  0
VERTEX
  8
0
  5
12C4
 10
173.634
 20
138.882
 30
0.000000
  70
    32
  0
VERTEX
  8
0
  5
12C5
 10
173.636
 20
138.886
 30
0.000000
  70
    32
  0
VERTEX
  8
0
  5
12C6
 10
173.638
 20
138.890
 30
0.000000
  70
    32
  0
VERTEX
  8
0
  5
12C7
 10
173.639
 20
138.894
 30
0.000000
  70
    32
  0
VERTEX
  8
0
  5
12C8
 10
173.641
 20
138.898
 30
0.000000
  70
    32
  0
VERTEX
  8
0
  5
12C9
 10
173.643
 20
138.901
 30
0.000000
  70
    32
  0
VERTEX
  8
0
  5
12CA
 10
173.644
 20
138.905
 30
0.000000
  70
    32
  0
VERTEX
  8
0
  5
12CB
 10
173.646
 20
138.908
 30
0.000000
  70
    32
  0
VERTEX
  8
0
  5
12CC
 10
173.648
 20
138.912
 30
0.000000
  70
    32
  0
VERTEX
  8
0
  5
12CD
 10
173.650
 20
138.915
 30
0.000000
  70
    32
  0
VERTEX
  8
0
  5
12CE
 10
173.651
 20
138.919
 30
0.000000
  70
    32
  0
VERTEX
  8
0
  5
12CF
 10
173.653
 20
138.922
 30
0.000000
  70
    32
  0
VERTEX
  8
0
  5
12D0
 10
173.655
 20
138.925
 30
0.000000
  70
    32
  0
VERTEX
  8
0
  5
12D1
 10
173.657
 20
138.929
 30
0.000000
  70
    32
  0
VERTEX
  8
0
  5
12D2
 10
173.659
 20
138.932
 30
0.000000
  70
    32
  0
VERTEX
  8
0
  5
12D3
 10
173.660
 20
138.935
 30
0.000000
  70
    32
  0
VERTEX
  8
0
  5
12D4
 10
173.662
 20
138.938
 30
0.000000
  70
    32
  0
VERTEX
  8
0
  5
12D5
 10
173.664
 20
138.941
 30
0.000000
  70
    32
  0
VERTEX
  8
0
  5
12D6
 10
173.666
 20
138.944
 30
0.000000
  70
    32
  0
VERTEX
  8
0
  5
12D7
 10
173.668
 20
138.946
 30
0.000000
  70
    32
  0
VERTEX
  8
0
  5
12D8
 10
173.670
 20
138.949
 30
0.000000
  70
    32
  0
VERTEX
  8
0
  5
12D9
 10
173.672
 20
138.952
 30
0.000000
  70
    32
  0
VERTEX
  8
0
  5
12DA
 10
173.674
 20
138.954
 30
0.000000
  70
    32
  0
VERTEX
  8
0
  5
12DB
 10
173.676
 20
138.957
 30
0.000000
  70
    32
  0
VERTEX
  8
0
  5
12DC
 10
173.678
 20
138.959
 30
0.000000
  70
    32
  0
VERTEX
  8
0
  5
12DD
 10
173.679
 20
138.962
 30
0.000000
  70
    32
  0
VERTEX
  8
0
  5
12DE
 10
173.681
 20
138.964
 30
0.000000
  70
    32
  0
VERTEX
  8
0
  5
12DF
 10
173.683
 20
138.966
 30
0.000000
  70
    32
  0
VERTEX
  8
0
  5
12E0
 10
173.685
 20
138.969
 30
0.000000
  70
    32
  0
VERTEX
  8
0
  5
12E1
 10
173.687
 20
138.971
 30
0.000000
  70
    32
  0
VERTEX
  8
0
  5
12E2
 10
173.689
 20
138.973
 30
0.000000
  70
    32
  0
VERTEX
  8
0
  5
12E3
 10
173.691
 20
138.975
 30
0.000000
  70
    32
  0
VERTEX
  8
0
  5
12E4
 10
173.693
 20
138.977
 30
0.000000
  70
    32
  0
VERTEX
  8
0
  5
12E5
 10
173.695
 20
138.978
 30
0.000000
  70
    32
  0
VERTEX
  8
0
  5
12E6
 10
173.697
 20
138.980
 30
0.000000
  70
    32
  0
VERTEX
  8
0
  5
12E7
 10
173.699
 20
138.982
 30
0.000000
  70
    32
  0
VERTEX
  8
0
  5
12E8
 10
173.701
 20
138.983
 30
0.000000
  70
    32
  0
VERTEX
  8
0
  5
12E9
 10
173.704
 20
138.985
 30
0.000000
  70
    32
  0
VERTEX
  8
0
  5
12EA
 10
173.706
 20
138.986
 30
0.000000
  70
    32
  0
VERTEX
  8
0
  5
12EB
 10
173.708
 20
138.988
 30
0.000000
  70
    32
  0
VERTEX
  8
0
  5
12EC
 10
173.710
 20
138.989
 30
0.000000
  70
    32
  0
VERTEX
  8
0
  5
12ED
 10
173.712
 20
138.990
 30
0.000000
  70
    32
  0
VERTEX
  8
0
  5
12EE
 10
173.714
 20
138.992
 30
0.000000
  70
    32
  0
VERTEX
  8
0
  5
12EF
 10
173.716
 20
138.993
 30
0.000000
  70
    32
  0
VERTEX
  8
0
  5
12F0
 10
173.718
 20
138.994
 30
0.000000
  70
    32
  0
VERTEX
  8
0
  5
12F1
 10
173.720
 20
138.995
 30
0.000000
  70
    32
  0
VERTEX
  8
0
  5
12F2
 10
173.722
 20
138.995
 30
0.000000
  70
    32
  0
VERTEX
  8
0
  5
12F3
 10
173.724
 20
138.996
 30
0.000000
  70
    32
  0
VERTEX
  8
0
  5
12F4
 10
173.726
 20
138.997
 30
0.000000
  70
    32
  0
VERTEX
  8
0
  5
12F5
 10
173.729
 20
138.998
 30
0.000000
  70
    32
  0
VERTEX
  8
0
  5
12F6
 10
173.731
 20
138.998
 30
0.000000
  70
    32
  0
VERTEX
  8
0
  5
12F7
 10
173.733
 20
138.999
 30
0.000000
  70
    32
  0
VERTEX
  8
0
  5
12F8
 10
173.735
 20
138.999
 30
0.000000
  70
    32
  0
VERTEX
  8
0
  5
12F9
 10
173.737
 20
138.999
 30
0.000000
  70
    32
  0
VERTEX
  8
0
  5
12FA
 10
173.739
 20
139.000
 30
0.000000
  70
    32
  0
VERTEX
  8
0
  5
12FB
 10
173.741
 20
139.000
 30
0.000000
  70
    32
  0
VERTEX
  8
0
  5
12FC
 10
173.743
 20
139.000
 30
0.000000
  70
    32
  0
VERTEX
  8
0
  5
12FD
 10
173.745
 20
139.000
 30
0.000000
  70
    32
  0
SEQEND
  8
0
  5
12FE
  0
LINE
  5
E15
  8
0
 10
177.0
 20
143.51151533110891
 30
0.0
 11
176.5
 21
123.9999999999999
 31
0.0
  0
LINE
  5
E16
  8
0
 10
163.0
 20
143.51151533110891
 30
0.0
 11
163.5
 21
123.9999999999999
 31
0.0
  0
LINE
  5
E17
  8
0
 10
53.999999999999972
 20
143.91820323027551
 30
0.0
 11
53.999999999999972
 21
142.79409930029621
 31
0.0
  0
LINE
  5
E18
  8
0
 10
46.000000000000078
 20
143.91820323027551
 30
0.0
 11
46.000000000000028
 21
142.79409930029621
 31
0.0
  0
LINE
  5
E19
  8
0
 10
52.756791613452123
 20
144.49999999999989
 30
0.0
 11
47.24320838654787
 21
144.49999999999989
 31
0.0
  0
CIRCLE
  5
E1A
  8
0
 10
100.0
 20
184.49999999999989
 30
0.0
 40
4.0
  0
ARC
  5
E1B
  8
0
 10
98.169338093988117
 20
185.55693314423121
 30
0.0
 40
0.6912500000000005
 50
309.68887794065978
 51
16.658241772777071
  0
ARC
  5
E1C
  8
0
 10
99.210000000000065
 20
185.8683201379794
 30
0.0
 40
0.3949999999999998
 50
43.341758227225121
 51
196.65824177277699
  0
ARC
  5
E1D
  8
0
 10
100.0000000000001
 20
186.61386628846239
 30
0.0
 40
0.6912499999999989
 50
223.34175822722511
 51
316.65824177277477
  0
ARC
  5
E1E
  8
0
 10
100.79000000000001
 20
185.8683201379794
 30
0.0
 40
0.3950000000000002
 50
343.3417582272229
 51
136.65824177277489
  0
ARC
  5
E1F
  8
0
 10
98.169338093988117
 20
183.44306685576879
 30
0.0
 40
0.691250000000001
 50
343.3417582272229
 51
50.311122059331638
  0
ARC
  5
E20
  8
0
 10
99.210000000000065
 20
183.13167986202049
 30
0.0
 40
0.3950000000000001
 50
163.3417582272229
 51
316.65824177277477
  0
ARC
  5
E21
  8
0
 10
100.0000000000001
 20
182.38613371153761
 30
0.0
 40
0.6912500000000003
 50
43.341758227225121
 51
136.6582417727748
  0
ARC
  5
E22
  8
0
 10
100.79000000000001
 20
183.13167986202049
 30
0.0
 40
0.3949999999999998
 50
223.34175822722511
 51
16.658241772777071
  0
ARC
  5
E23
  8
0
 10
101.830661906012
 20
183.44306685576879
 30
0.0
 40
0.6912500000000003
 50
129.68887794066831
 51
196.65824177277699
  0
ARC
  5
E24
  8
0
 10
101.830661906012
 20
185.55693314423121
 30
0.0
 40
0.6912500000000011
 50
163.3417582272229
 51
230.31112205934019
  0
ARC
  5
E25
  8
0
 10
49.999999999999972
 20
136.9899999999999
 30
0.0
 40
8.0
 50
59.999999999999993
 51
69.842683784424523
  0
LINE
  5
E26
  8
0
 10
46.000000000000078
 20
143.91820323027551
 30
0.0
 11
53.999999999999972
 21
143.91820323027551
 31
0.0
  0
ARC
  5
E27
  8
0
 10
49.999999999999972
 20
136.9899999999999
 30
0.0
 40
8.0
 50
110.15731621557541
 51
120.0
  0
LINE
  5
E28
  8
0
 10
97.250000000000028
 20
183.97499999999999
 30
0.0
 11
98.610783099134125
 21
183.97499999999999
 31
0.0
  0
LINE
  5
E29
  8
0
 10
97.250000000000028
 20
185.02499999999989
 30
0.0
 11
98.610783099134025
 21
185.02499999999989
 31
0.0
  0
LINE
  5
E2A
  8
0
 10
101.3892169008661
 20
185.02499999999989
 30
0.0
 11
102.75
 21
185.02499999999989
 31
0.0
  0
LINE
  5
E2B
  8
0
 10
101.389216900866
 20
183.97499999999999
 30
0.0
 11
102.75
 21
183.97499999999999
 31
0.0
  0
ARC
  5
E2C
  8
0
 10
100.0
 20
184.49999999999989
 30
0.0
 40
2.7567916134521511
 50
355.97735839170451
 51
4.0226416082991108
  0
LINE
  5
E2D
  8
0
 10
102.75
 20
185.02499999999989
 30
0.0
 11
102.75
 21
183.97499999999999
 31
0.0
  0
LINE
  5
E2E
  8
0
 10
97.250000000000085
 20
185.02499999999989
 30
0.0
 11
97.250000000000085
 21
183.97499999999999
 31
0.0
  0
ARC
  5
E2F
  8
0
 10
100.0
 20
184.49999999999989
 30
0.0
 40
2.7567916134521511
 50
10.978391329939759
 51
169.02160867006
  0
ARC
  5
E30
  8
0
 10
100.0
 20
184.49999999999989
 30
0.0
 40
2.7567916134521511
 50
190.97839132993971
 51
349.02160867006012
  0
ARC
  5
E31
  8
0
 10
100.0
 20
184.49999999999989
 30
0.0
 40
2.7567916134521511
 50
175.97735839169761
 51
184.02264160830231
  0
ARC
  5
E32
  8
0
 10
100.0
 20
136.9899999999999
 30
0.0
 40
8.0
 50
110.15731621557541
 51
120.0
  0
LINE
  5
E33
  8
0
 10
96.000000000000156
 20
143.91820323027551
 30
0.0
 11
100.970272279854
 21
143.91820323027551
 31
0.0
  0
ARC
  5
E34
  8
0
 10
100.0
 20
136.9899999999999
 30
0.0
 40
8.0
 50
69.728484327266528
 51
69.842683784424523
  0
LINE
  5
E35
  8
0
 10
102.75679161345219
 20
144.49999999999989
 30
0.0
 11
97.243208386547877
 21
144.49999999999989
 31
0.0
  0
LINE
  5
E36
  8
0
 10
96.000000000000156
 20
143.91820323027551
 30
0.0
 11
96.000000000000028
 21
142.19659261175471
 31
0.0
  0
POLYLINE
  5
E37
  8
0
 66
     1
 10
0.0
 20
0.0
 30
0.0
 70
     1
  0
VERTEX
  5
E38
  8
0
 10
54.7055002044319
 20
143.6856038614749
 30
0.0
 42
0.2172434185878571
  0
VERTEX
  5
E39
  8
0
 10
54.463387567332369
 20
144.21654331321531
 30
0.0
 42
0.0927145054771177
  0
VERTEX
  5
E3A
  8
0
 10
53.3272911034285
 20
144.8825343546817
 30
0.0
 42
0.0493901968537925
 70
     2
 50
160.21475784141541
  0
VERTEX
  5
E3B
  8
0
 10
51.924218028390811
 20
145.23574664235011
 30
0.0
 42
0.0369961751365321
 50
160.21475784141541
  0
VERTEX
  5
E3C
  8
0
 10
50.000000000000028
 20
145.37831919818589
 30
0.0
 42
0.0369961751365343
  0
VERTEX
  5
E3D
  8
0
 10
48.075781971609302
 20
145.23574664235011
 30
0.0
 42
0.049390196853802
  0
VERTEX
  5
E3E
  8
0
 10
46.672708896571493
 20
144.8825343546817
 30
0.0
 42
0.0927145054771286
 70
     2
 50
199.78524215858459
  0
VERTEX
  5
E3F
  8
0
 10
45.536612432667617
 20
144.21654331321531
 30
0.0
 42
0.2172434185878735
 50
199.78524215858459
  0
VERTEX
  5
E40
  8
0
 10
45.2944997955681
 20
143.6856038614749
 30
0.0
 42
0.2172434185878687
  0
VERTEX
  5
E41
  8
0
 10
45.536612432667617
 20
143.15466440973449
 30
0.0
 42
0.0927145054771203
  0
VERTEX
  5
E42
  8
0
 10
46.672708896571493
 20
142.48867336826811
 30
0.0
 42
0.0493901968538118
 70
     2
 50
340.21475784141541
  0
VERTEX
  5
E43
  8
0
 10
48.075781971609352
 20
142.1354610805997
 30
0.0
 42
0.0369961751365391
 50
340.21475784141541
  0
VERTEX
  5
E44
  8
0
 10
50.000000000000028
 20
141.992888524764
 30
0.0
 42
0.0369961751365416
  0
VERTEX
  5
E45
  8
0
 10
51.924218028390698
 20
142.1354610805997
 30
0.0
 42
0.0493901968538115
  0
VERTEX
  5
E46
  8
0
 10
53.3272911034285
 20
142.48867336826811
 30
0.0
 42
0.092714505477122
 70
     2
 50
19.78524215858458
  0
VERTEX
  5
E47
  8
0
 10
54.463387567332369
 20
143.15466440973449
 30
0.0
 42
0.2172434185878745
 50
19.78524215858458
  0
SEQEND
  5
E48
  8
0
  0
LINE
  5
E74
  8
3
 10
47.932999999999851
 20
117.9999999999999
 30
0.0
 11
47.500000000000021
 21
118.7499779996769
 31
0.0
  0
LINE
  5
E75
  8
0
 10
52.499999999999972
 20
90.900000000000034
 30
0.0
 11
47.499999999999972
 21
90.900000000000034
 31
0.0
  0
LINE
  5
E76
  8
0
 10
48.399999999999999
 20
90.0
 30
0.0
 11
47.499999999999972
 21
90.899999999999977
 31
0.0
  0
LINE
  5
E77
  8
0
 10
52.500000000000028
 20
90.899999999999977
 30
0.0
 11
51.600000000000001
 21
90.0
 31
0.0
  0
LINE
  5
E78
  8
3
 10
52.067000000000199
 20
117.9999999999999
 30
0.0
 11
52.500000000000028
 21
118.7499779996769
 31
0.0
  0
LINE
  5
E79
  8
0
 10
52.500000000000028
 20
117.9999999999999
 30
0.0
 11
47.500000000000021
 21
117.9999999999999
 31
0.0
  0
LINE
  5
E7A
  8
0
 10
51.600000000000001
 20
90.0
 30
0.0
 11
48.399999999999999
 21
90.0
 31
0.0
  0
LINE
  5
E7B
  8
0
 10
52.500000000000028
 20
120.0
 30
0.0
 11
52.500000000000028
 21
90.899999999999977
 31
0.0
  0
LINE
  5
E7C
  8
3
 10
52.067000000000199
 20
117.9999999999999
 30
0.0
 11
52.067000000000199
 21
90.467000000000198
 31
0.0
  0
LINE
  5
E7D
  8
3
 10
47.932999999999787
 20
117.9999999999999
 30
0.0
 11
47.932999999999787
 21
90.467000000000155
 31
0.0
  0
LINE
  5
E7E
  8
0
 10
47.500000000000021
 20
120.0
 30
0.0
 11
47.499999999999972
 21
90.899999999999977
 31
0.0
  0
LINE
  5
E7F
  8
3
 10
97.932999999999865
 20
117.9999999999999
 30
0.0
 11
97.500000000000028
 21
118.7499779996769
 31
0.0
  0
LINE
  5
E80
  8
0
 10
102.4999999999999
 20
90.900000000000034
 30
0.0
 11
97.499999999999986
 21
90.900000000000034
 31
0.0
  0
LINE
  5
E81
  8
0
 10
98.400000000000006
 20
90.0
 30
0.0
 11
97.499999999999986
 21
90.899999999999977
 31
0.0
  0
LINE
  5
E82
  8
0
 10
102.5
 20
90.899999999999977
 30
0.0
 11
101.59999999999999
 21
90.0
 31
0.0
  0
LINE
  5
E83
  8
3
 10
102.06700000000021
 20
117.9999999999999
 30
0.0
 11
102.5
 21
118.7499779996769
 31
0.0
  0
LINE
  5
E84
  8
0
 10
102.5
 20
117.9999999999999
 30
0.0
 11
97.500000000000028
 21
117.9999999999999
 31
0.0
  0
LINE
  5
E85
  8
0
 10
101.59999999999999
 20
90.0
 30
0.0
 11
98.400000000000006
 21
90.0
 31
0.0
  0
LINE
  5
E86
  8
0
 10
102.5
 20
120.0
 30
0.0
 11
102.5
 21
90.899999999999977
 31
0.0
  0
LINE
  5
E87
  8
3
 10
102.06700000000021
 20
117.9999999999999
 30
0.0
 11
102.06700000000021
 21
90.467000000000198
 31
0.0
  0
LINE
  5
E88
  8
3
 10
97.932999999999794
 20
117.9999999999999
 30
0.0
 11
97.932999999999794
 21
90.467000000000155
 31
0.0
  0
LINE
  5
E89
  8
0
 10
97.500000000000028
 20
120.0
 30
0.0
 11
97.499999999999986
 21
90.899999999999977
 31
0.0
  0
LINE
  5
E8A
  8
3
 10
167.93299999999979
 20
117.9999999999999
 30
0.0
 11
167.5
 21
118.7499779996769
 31
0.0
  0
LINE
  5
E8B
  8
0
 10
172.5
 20
90.900000000000034
 30
0.0
 11
167.5
 21
90.900000000000034
 31
0.0
  0
LINE
  5
E8C
  8
0
 10
168.40000000000001
 20
90.0
 30
0.0
 11
167.5
 21
90.899999999999977
 31
0.0
  0
LINE
  5
E8D
  8
0
 10
172.5
 20
90.899999999999977
 30
0.0
 11
171.59999999999991
 21
90.0
 31
0.0
  0
LINE
  5
E8E
  8
3
 10
172.06700000000021
 20
117.9999999999999
 30
0.0
 11
172.5
 21
118.7499779996769
 31
0.0
  0
LINE
  5
E8F
  8
0
 10
172.5
 20
117.9999999999999
 30
0.0
 11
167.5
 21
117.9999999999999
 31
0.0
  0
LINE
  5
E90
  8
0
 10
171.59999999999991
 20
90.0
 30
0.0
 11
168.40000000000001
 21
90.0
 31
0.0
  0
LINE
  5
E91
  8
0
 10
172.5
 20
120.0
 30
0.0
 11
172.5
 21
90.899999999999977
 31
0.0
  0
LINE
  5
E92
  8
3
 10
172.06700000000021
 20
117.9999999999999
 30
0.0
 11
172.06700000000021
 21
90.467000000000198
 31
0.0
  0
LINE
  5
E93
  8
3
 10
167.93299999999979
 20
117.9999999999999
 30
0.0
 11
167.93299999999979
 21
90.467000000000155
 31
0.0
  0
LINE
  5
E94
  8
0
 10
167.5
 20
120.0
 30
0.0
 11
167.5
 21
90.899999999999977
 31
0.0
  0
ENDSEC
  0
EOF
