  0
SECTION
  2
HEADER
  9
$ACADVER
  1
AC1009
  9
$INSBASE
 10
0.0
 20
0.0
 30
0.0
  9
$EXTMIN
 10
0.0
 20
-2.960436562073669
 30
0.0
  9
$EXTMAX
 10
178.7052537881078
 20
150.13457632800669
 30
0.0
  9
$LIMMIN
 10
0.0
 20
0.0
  9
$LIMMAX
 10
187.5
 20
135.0
  9
$ORTHOMODE
 70
     1
  9
$REGENMODE
 70
     1
  9
$FILLMODE
 70
     1
  9
$QTEXTMODE
 70
     0
  9
$MIRRTEXT
 70
     0
  9
$DRAGMODE
 70
     2
  9
$LTSCALE
 40
5.0
  9
$OSMODE
 70
    55
  9
$ATTMODE
 70
     1
  9
$TEXTSIZE
 40
4.0
  9
$TRACEWID
 40
0.05
  9
$TEXTSTYLE
  7
STANDARD
  9
$CLAYER
  8
0
  9
$CELTYPE
  6
BYLAYER
  9
$CECOLOR
 62
   256
  9
$DIMSCALE
 40
0.5
  9
$DIMASZ
 40
3.0
  9
$DIMEXO
 40
2.0
  9
$DIMDLI
 40
0.38
  9
$DIMRND
 40
0.0
  9
$DIMDLE
 40
0.0
  9
$DIMEXE
 40
2.0
  9
$DIMTP
 40
0.0
  9
$DIMTM
 40
0.0
  9
$DIMTXT
 40
3.0
  9
$DIMCEN
 40
0.0
  9
$DIMTSZ
 40
0.0
  9
$DIMTOL
 70
     0
  9
$DIMLIM
 70
     0
  9
$DIMTIH
 70
     0
  9
$DIMTOH
 70
     0
  9
$DIMSE1
 70
     0
  9
$DIMSE2
 70
     0
  9
$DIMTAD
 70
     1
  9
$DIMZIN
 70
     0
  9
$DIMBLK
  1

  9
$DIMASO
 70
     0
  9
$DIMSHO
 70
     0
  9
$DIMPOST
  1

  9
$DIMAPOST
  1

  9
$DIMALT
 70
     0
  9
$DIMALTD
 70
     2
  9
$DIMALTF
 40
25.399999999999999
  9
$DIMLFAC
 40
1.0
  9
$DIMTOFL
 70
     0
  9
$DIMTVP
 40
1.6000000000000001
  9
$DIMTIX
 70
     1
  9
$DIMSOXD
 70
     0
  9
$DIMSAH
 70
     0
  9
$DIMBLK1
  1

  9
$DIMBLK2
  1

  9
$DIMSTYLE
  2
STANDARD
  9
$DIMCLRD
 70
     0
  9
$DIMCLRE
 70
     0
  9
$DIMCLRT
 70
     0
  9
$DIMTFAC
 40
1.0
  9
$DIMGAP
 40
0.09
  9
$LUNITS
 70
     2
  9
$LUPREC
 70
     4
  9
$SKETCHINC
 40
0.1
  9
$FILLETRAD
 40
1.25
  9
$AUNITS
 70
     0
  9
$AUPREC
 70
     0
  9
$MENU
  1
E:\r13\win\SUPPORT\ACAD
  9
$ELEVATION
 40
0.0
  9
$PELEVATION
 40
0.0
  9
$THICKNESS
 40
0.0
  9
$LIMCHECK
 70
     0
  9
$BLIPMODE
 70
     0
  9
$CHAMFERA
 40
0.0
  9
$CHAMFERB
 40
0.0
  9
$SKPOLY
 70
     0
  9
$TDCREATE
 40
2449840.6143865739
  9
$TDUPDATE
 40
2456598.6464027548
  9
$TDINDWG
 40
0.2331027894
  9
$TDUSRTIMER
 40
0.2331027894
  9
$USRTIMER
 70
     1
  9
$ANGBASE
 50
0.0
  9
$ANGDIR
 70
     0
  9
$PDMODE
 70
     0
  9
$PDSIZE
 40
0.0
  9
$PLINEWID
 40
0.0
  9
$COORDS
 70
     1
  9
$SPLFRAME
 70
     0
  9
$SPLINETYPE
 70
     6
  9
$SPLINESEGS
 70
     8
  9
$ATTDIA
 70
     0
  9
$ATTREQ
 70
     1
  9
$HANDLING
 70
     1
  9
$HANDSEED
  5
FAF
  9
$SURFTAB1
 70
     6
  9
$SURFTAB2
 70
     6
  9
$SURFTYPE
 70
     6
  9
$SURFU
 70
     6
  9
$SURFV
 70
     6
  9
$UCSNAME
  2

  9
$UCSORG
 10
0.0
 20
0.0
 30
0.0
  9
$UCSXDIR
 10
1.0
 20
0.0
 30
0.0
  9
$UCSYDIR
 10
0.0
 20
1.0
 30
0.0
  9
$PUCSNAME
  2

  9
$PUCSORG
 10
0.0
 20
0.0
 30
0.0
  9
$PUCSXDIR
 10
1.0
 20
0.0
 30
0.0
  9
$PUCSYDIR
 10
0.0
 20
1.0
 30
0.0
  9
$USERI1
 70
     0
  9
$USERI2
 70
     1
  9
$USERI3
 70
     1
  9
$USERI4
 70
     0
  9
$USERI5
 70
     0
  9
$USERR1
 40
0.0
  9
$USERR2
 40
0.0
  9
$USERR3
 40
0.0
  9
$USERR4
 40
0.0
  9
$USERR5
 40
0.0
  9
$WORLDVIEW
 70
     1
  9
$SHADEDGE
 70
     3
  9
$SHADEDIF
 70
    70
  9
$TILEMODE
 70
     1
  9
$MAXACTVP
 70
    16
  9
$PLIMCHECK
 70
     0
  9
$PEXTMIN
 10
1.0000000000000000E+020
 20
1.0000000000000000E+020
 30
1.0000000000000000E+020
  9
$PEXTMAX
 10
-1.0000000000000000E+020
 20
-1.0000000000000000E+020
 30
-1.0000000000000000E+020
  9
$PLIMMIN
 10
0.0
 20
0.0
  9
$PLIMMAX
 10
12.0
 20
9.0
  9
$UNITMODE
 70
     0
  9
$VISRETAIN
 70
     0
  9
$PLINEGEN
 70
     0
  9
$PSLTSCALE
 70
     0
  0
ENDSEC
  0
SECTION
  2
TABLES
  0
TABLE
  2
VPORT
 70
     1
  0
VPORT
  2
*ACTIVE
 70
     0
 10
0.0
 20
0.0
 11
1.0
 21
1.0
 12
93.747139195326184
 22
96.807326195753888
 13
0.0
 23
0.0
 14
5.0
 24
5.0
 15
5.0
 25
5.0
 16
0.0
 26
0.0
 36
1.0
 17
0.0
 27
0.0
 37
0.0
 40
201.31706310110599
 41
1.7807262569832401
 42
50.0
 43
0.0
 44
0.0
 50
0.0
 51
0.0
 71
     0
 72
   100
 73
     1
 74
     0
 75
     0
 76
     0
 77
     0
 78
     0
  0
ENDTAB
  0
TABLE
  2
LTYPE
 70
     4
  0
LTYPE
  2
CONTINUOUS
 70
     0
  3
Solid Line
 72
    65
 73
     0
 40
0.0
  0
LTYPE
  2
CENTER
 70
     0
  3
____ _ ____ _ ____ _ ____ _ ____ _ ____ _ ____
 72
    65
 73
     4
 40
2.0
 49
1.25
 49
-0.25
 49
0.25
 49
-0.25
  0
LTYPE
  2
HIDDEN
 70
     0
  3
_ _ _ _ _ _ _ _ _ _ _ _ _ _ _ _ _ _ _ _ _ _ _
 72
    65
 73
     2
 40
0.375
 49
0.25
 49
-0.125
  0
LTYPE
  2
PHANTOM2
 70
     0
  3
___ _ _ ___ _ _ ___ _ _ ___ _ _
 72
    65
 73
     6
 40
1.25
 49
0.625
 49
-0.125
 49
0.125
 49
-0.125
 49
0.125
 49
-0.125
  0
ENDTAB
  0
TABLE
  2
LAYER
 70
     4
  0
LAYER
  2
0
 70
     0
 62
     7
  6
CONTINUOUS
  0
LAYER
  2
1
 70
     0
 62
     1
  6
CENTER
  0
LAYER
  2
2
 70
     0
 62
     2
  6
HIDDEN
  0
LAYER
  2
3
 70
     0
 62
     3
  6
CONTINUOUS
  0
ENDTAB
  0
TABLE
  2
STYLE
 70
     2
  0
STYLE
  2
STANDARD
 70
     0
 40
0.0
 41
1.0
 50
0.0
 71
     0
 42
4.0
  3
TXT
  4
BIGFONT
  0
STYLE
  2
STANDARD1
 70
     0
 40
0.0
 41
1.0
 50
0.0
 71
     0
 42
3.0
  3
txt
  4

  0
ENDTAB
  0
TABLE
  2
VIEW
 70
     1
  0
VIEW
  2
ALL
 70
     0
 40
179.66152299999999
 10
141.903918
 20
89.830760999999995
 41
0.0
 11
0.0
 21
0.0
 31
1.0
 12
0.0
 22
0.0
 32
0.0
 42
0.0
 43
0.0
 44
0.0
 50
0.0
 71
     0
  0
ENDTAB
  0
TABLE
  2
UCS
 70
     0
  0
ENDTAB
  0
TABLE
  2
APPID
 70
     4
  0
APPID
  2
ACAD
 70
     0
  0
APPID
  2
DCO15
 70
     0
  0
APPID
  2
ACAD_MLEADERVER
 70
     0
  0
APPID
  2
ACAD_NAV_VCDISPLAY
 70
     0
  0
ENDTAB
  0
TABLE
  2
DIMSTYLE
 70
     1
  0
DIMSTYLE
  2
STANDARD
 70
     0
  3

  4

  5

  6

  7

 40
1.0
 41
0.18
 42
0.0625
 43
0.38
 44
0.18
 45
0.0
 46
0.0
 47
0.0
 48
0.0
140
0.18
141
0.09
142
0.0
143
25.399999999999999
144
1.0
145
0.0
146
1.0
147
0.09
 71
     0
 72
     0
 73
     1
 74
     1
 75
     0
 76
     0
 77
     0
 78
     0
170
     0
171
     2
172
     0
173
     0
174
     0
175
     0
176
     0
177
     0
178
     0
  0
ENDTAB
  0
ENDSEC
  0
SECTION
  2
BLOCKS
  0
BLOCK
  8
0
  2
$MODEL_SPACE
 70
     0
 10
0.0
 20
0.0
 30
0.0
  3
$MODEL_SPACE
  1

  0
ENDBLK
  5
1BD
  8
0
  0
BLOCK
 67
     1
  8
0
  2
$PAPER_SPACE
 70
     0
 10
0.0
 20
0.0
 30
0.0
  3
$PAPER_SPACE
  1

  0
ENDBLK
  5
1BB
 67
     1
  8
0
  0
ENDSEC
  0
SECTION
  2
ENTITIES
  0
LINE
  5
502
  8
0
 10
43.007478422092703
 20
76.070658012374849
 30
0.0
 11
43.007478422092703
 21
80.070658012374864
 31
0.0
  0
LINE
  5
503
  8
0
 10
33.00747842209271
 20
80.070658012374864
 30
0.0
 11
33.00747842209271
 21
76.070658012374849
 31
0.0
  0
LINE
  5
50B
  8
0
 10
33.00747842209271
 20
76.070658012374849
 30
0.0
 11
43.007478422092703
 21
76.070658012374849
 31
0.0
  0
LINE
  5
511
  8
1
 10
38.007478422092703
 20
111.9376994313909
 30
0.0
 11
38.007478422092703
 21
71.070658012374849
 31
0.0
  0
LINE
  5
512
  8
0
 10
41.352538528967237
 20
107.07065801237481
 30
0.0
 11
34.662418315218162
 21
107.07065801237481
 31
0.0
  0
LINE
  5
52F
  8
0
 10
44.507478422092703
 20
80.070658012374864
 30
0.0
 11
31.507478422092699
 21
80.070658012374864
 31
0.0
  0
LINE
  5
535
  8
0
 10
94.572032253806242
 20
76.070658012374849
 30
0.0
 11
94.572032253806242
 21
80.070658012374864
 31
0.0
  0
LINE
  5
536
  8
0
 10
84.572032253806242
 20
80.070658012374864
 30
0.0
 11
84.572032253806242
 21
76.070658012374849
 31
0.0
  0
LINE
  5
53E
  8
0
 10
84.572032253806242
 20
76.070658012374849
 30
0.0
 11
94.572032253806242
 21
76.070658012374849
 31
0.0
  0
LINE
  5
544
  8
0
 10
129.57203225380621
 20
103.69533534669441
 30
0.0
 11
129.57203225380621
 21
104.5675605456842
 31
0.0
  0
LINE
  5
545
  8
0
 10
83.062032253806237
 20
94.902314734550998
 30
0.0
 11
83.062032253806265
 21
80.070658012374864
 31
0.0
  0
LINE
  5
546
  8
0
 10
96.062032253806251
 20
80.070658012374864
 30
0.0
 11
96.062032253806251
 21
90.534981539594568
 31
0.0
  0
LINE
  5
549
  8
0
 10
124.8760396073488
 20
98.183782158580684
 30
0.0
 11
115.20967991508699
 21
95.448478077081987
 31
0.0
  0
LINE
  5
554
  8
0
 10
112.4868774446812
 20
95.070658012374864
 30
0.0
 11
107.5212535547237
 21
95.070658012374864
 31
0.0
  0
LINE
  5
555
  8
0
 10
96.062032253806251
 20
80.070658012374864
 30
0.0
 11
83.062032253806265
 21
80.070658012374864
 31
0.0
  0
LINE
  5
55A
  8
1
 10
89.572032253806242
 20
106.2506580123748
 30
0.0
 11
89.572032253806242
 21
71.070658012374849
 31
0.0
  0
LINE
  5
55E
  8
0
 10
175.6510883288897
 20
95.114172353111456
 30
0.0
 11
175.24099599152461
 21
98.248993957108311
 31
0.0
  0
LINE
  5
55F
  8
0
 10
175.78676681923531
 20
105.1612089345886
 30
0.0
 11
175.78676681923531
 21
95.070658012374864
 31
0.0
  0
LINE
  5
561
  8
0
 10
167.62374075698031
 20
105.1612089345886
 30
0.0
 11
167.62374075698031
 21
95.070658012374864
 31
0.0
  0
LINE
  5
563
  8
1
 10
171.7052537881078
 20
111.9376994313909
 30
0.0
 11
171.7052537881078
 21
71.070658012374849
 31
0.0
  0
LINE
  5
564
  8
0
 10
176.7052537881078
 20
76.070658012374849
 30
0.0
 11
176.7052537881078
 21
80.070658012374864
 31
0.0
  0
LINE
  5
565
  8
0
 10
166.7052537881078
 20
80.070658012374864
 30
0.0
 11
166.7052537881078
 21
76.070658012374849
 31
0.0
  0
LINE
  5
56A
  8
0
 10
166.7052537881078
 20
76.070658012374849
 30
0.0
 11
176.7052537881078
 21
76.070658012374849
 31
0.0
  0
LINE
  5
574
  8
0
 10
178.2052537881078
 20
80.070658012374864
 30
0.0
 11
165.2052537881078
 21
80.070658012374864
 31
0.0
  0
LINE
  5
575
  8
0
 10
167.79845713382161
 20
95.412585170934804
 30
0.0
 11
175.61205044239401
 21
95.412585170934804
 31
0.0
  0
LINE
  5
576
  8
0
 10
175.7901891100903
 20
95.070658012374864
 30
0.0
 11
167.62374075698031
 21
95.070658012373542
 31
0.0
  0
LINE
  5
583
  8
0
 10
175.05031389498239
 20
107.07065801237481
 30
0.0
 11
168.341201650269
 21
107.07065801237481
 31
0.0
  0
LINE
  5
586
  8
0
 10
168.16951158469101
 20
98.248993957108297
 30
0.0
 11
175.24099599152461
 21
98.248993957108297
 31
0.0
  0
LINE
  5
587
  8
0
 10
168.2052537881078
 20
106.88629175936229
 30
0.0
 11
168.2052537881078
 21
98.612281693047962
 31
0.0
  0
LINE
  5
591
  8
0
 10
175.2052537881078
 20
106.88629175936229
 30
0.0
 11
175.2052537881078
 21
98.612281693047962
 31
0.0
  0
LINE
  5
59A
  8
0
 10
83.072032253806228
 20
135.56165969507819
 30
0.0
 11
83.072032253806228
 21
140.70749296093521
 31
0.0
  0
CIRCLE
  5
5B6
  8
0
 10
89.572032253806242
 20
38.082721559807638
 30
0.0
 40
6.5000000000000027
  0
LINE
  5
5C6
  8
1
 10
89.582032253806247
 20
150.13457632800669
 30
0.0
 11
89.582032253806247
 21
126.1345763280067
 31
0.0
  0
LINE
  5
5C7
  8
1
 10
134.5820352705515
 20
138.13457632800669
 30
0.0
 11
78.072032253806242
 21
138.13457632800669
 31
0.0
  0
LINE
  5
5CB
  8
1
 10
89.582032253806247
 20
50.082220662569327
 30
0.0
 11
89.582032253806247
 21
26.083222457045949
 31
0.0
  0
CIRCLE
  5
5CD
  8
0
 10
89.582032253806247
 20
38.082721559807638
 30
0.0
 40
4.989999999999994
  0
CIRCLE
  5
5E2
  8
3
 10
89.582032253806247
 20
38.082721559807638
 30
0.0
 40
2.5
  0
CIRCLE
  5
5E3
  8
0
 10
89.582032253806247
 20
38.082721559807638
 30
0.0
 40
2.1000000000000001
  0
LINE
  5
5E5
  8
1
 10
78.072032253806242
 20
38.082721559807638
 30
0.0
 11
134.5820352705515
 21
38.082721559807638
 31
0.0
  0
LINE
  5
604
  8
2
 10
40.107478422092427
 20
77.070658012374395
 30
0.0
 11
40.107478422092427
 21
87.070658012374849
 31
0.0
  0
LINE
  5
605
  8
2
 10
38.007478422092689
 20
88.283093577672915
 30
0.0
 11
40.107478422092427
 21
87.070658012374849
 31
0.0
  0
LINE
  5
606
  8
2
 10
40.50747842209249
 20
76.670658012374304
 30
0.0
 11
40.50747842209249
 21
85.070658012374835
 31
0.0
  0
LINE
  5
607
  8
2
 10
40.107478422092427
 20
77.070658012374395
 30
0.0
 11
41.107478422091972
 21
76.070658012374849
 31
0.0
  0
LINE
  5
608
  8
2
 10
40.107478422092427
 20
85.763478335402496
 30
0.0
 11
40.50747842209249
 21
85.070658012374835
 31
0.0
  0
LINE
  5
609
  8
2
 10
38.007478422092689
 20
88.283093577672915
 30
0.0
 11
35.90747842209295
 21
87.070658012374849
 31
0.0
  0
LINE
  5
60A
  8
2
 10
35.90747842209295
 20
85.763478335402496
 30
0.0
 11
35.507478422092888
 21
85.070658012374835
 31
0.0
  0
LINE
  5
60B
  8
2
 10
40.107478422092427
 20
87.070658012374849
 30
0.0
 11
35.90747842209295
 21
87.070658012374849
 31
0.0
  0
LINE
  5
60C
  8
2
 10
40.50747842209249
 20
85.070658012374864
 30
0.0
 11
35.507478422092888
 21
85.070658012374864
 31
0.0
  0
LINE
  5
60D
  8
2
 10
35.90747842209295
 20
77.070658012374395
 30
0.0
 11
40.107478422092427
 21
77.070658012374395
 31
0.0
  0
LINE
  5
60E
  8
2
 10
35.90747842209295
 20
77.070658012374395
 30
0.0
 11
34.907478422093412
 21
76.070658012374849
 31
0.0
  0
LINE
  5
60F
  8
2
 10
35.507478422092888
 20
76.670658012374304
 30
0.0
 11
35.507478422092888
 21
85.070658012374835
 31
0.0
  0
LINE
  5
610
  8
2
 10
35.90747842209295
 20
77.070658012374395
 30
0.0
 11
35.90747842209295
 21
87.070658012374849
 31
0.0
  0
LINE
  5
612
  8
2
 10
91.672032253805966
 20
77.070658012374395
 30
0.0
 11
91.672032253805966
 21
87.070658012374849
 31
0.0
  0
LINE
  5
613
  8
2
 10
92.072032253806015
 20
76.670658012374304
 30
0.0
 11
92.072032253806015
 21
85.070658012374835
 31
0.0
  0
LINE
  5
614
  8
2
 10
87.072032253806427
 20
76.670658012374304
 30
0.0
 11
87.072032253806427
 21
85.070658012374835
 31
0.0
  0
LINE
  5
615
  8
2
 10
87.472032253806489
 20
77.070658012374395
 30
0.0
 11
87.472032253806489
 21
87.070658012374849
 31
0.0
  0
LINE
  5
616
  8
2
 10
87.472032253806489
 20
77.070658012374395
 30
0.0
 11
91.672032253805966
 21
77.070658012374395
 31
0.0
  0
LINE
  5
617
  8
2
 10
87.472032253806489
 20
77.070658012374395
 30
0.0
 11
86.472032253806944
 21
76.070658012374849
 31
0.0
  0
LINE
  5
618
  8
2
 10
91.672032253805966
 20
77.070658012374395
 30
0.0
 11
92.672032253805511
 21
76.070658012374849
 31
0.0
  0
LINE
  5
619
  8
2
 10
89.572032253806213
 20
88.283093577672915
 30
0.0
 11
91.672032253805966
 21
87.070658012374849
 31
0.0
  0
LINE
  5
61A
  8
2
 10
91.672032253805966
 20
87.070658012374849
 30
0.0
 11
87.472032253806489
 21
87.070658012374849
 31
0.0
  0
LINE
  5
61B
  8
2
 10
92.072032253806015
 20
85.070658012374864
 30
0.0
 11
87.072032253806427
 21
85.070658012374864
 31
0.0
  0
LINE
  5
61C
  8
2
 10
87.472032253806489
 20
85.763478335402496
 30
0.0
 11
87.072032253806427
 21
85.070658012374835
 31
0.0
  0
LINE
  5
61D
  8
2
 10
89.572032253806213
 20
88.283093577672915
 30
0.0
 11
87.472032253806489
 21
87.070658012374849
 31
0.0
  0
LINE
  5
61E
  8
2
 10
91.672032253805966
 20
85.763478335402496
 30
0.0
 11
92.072032253806015
 21
85.070658012374835
 31
0.0
  0
LINE
  5
61F
  8
2
 10
169.60525378810809
 20
77.070658012374395
 30
0.0
 11
169.60525378810809
 21
87.070658012374849
 31
0.0
  0
LINE
  5
620
  8
2
 10
169.205253788108
 20
76.670658012374304
 30
0.0
 11
169.205253788108
 21
85.070658012374835
 31
0.0
  0
LINE
  5
621
  8
2
 10
174.2052537881076
 20
76.670658012374304
 30
0.0
 11
174.2052537881076
 21
85.070658012374835
 31
0.0
  0
LINE
  5
622
  8
2
 10
173.80525378810751
 20
77.070658012374395
 30
0.0
 11
173.80525378810751
 21
87.070658012374849
 31
0.0
  0
LINE
  5
623
  8
2
 10
169.60525378810809
 20
77.070658012374395
 30
0.0
 11
173.80525378810751
 21
77.070658012374395
 31
0.0
  0
LINE
  5
624
  8
2
 10
169.60525378810809
 20
77.070658012374395
 30
0.0
 11
168.60525378810851
 21
76.070658012374849
 31
0.0
  0
LINE
  5
625
  8
2
 10
173.80525378810751
 20
77.070658012374395
 30
0.0
 11
174.80525378810711
 21
76.070658012374849
 31
0.0
  0
LINE
  5
626
  8
2
 10
174.2052537881076
 20
85.070658012374864
 30
0.0
 11
169.205253788108
 21
85.070658012374864
 31
0.0
  0
LINE
  5
627
  8
2
 10
173.80525378810751
 20
87.070658012374849
 30
0.0
 11
169.60525378810809
 21
87.070658012374849
 31
0.0
  0
LINE
  5
628
  8
2
 10
171.7052537881078
 20
88.283093577672915
 30
0.0
 11
173.80525378810751
 21
87.070658012374849
 31
0.0
  0
LINE
  5
629
  8
2
 10
169.60525378810809
 20
85.763478335402496
 30
0.0
 11
169.205253788108
 21
85.070658012374835
 31
0.0
  0
LINE
  5
62A
  8
2
 10
171.7052537881078
 20
88.283093577672915
 30
0.0
 11
169.60525378810809
 21
87.070658012374849
 31
0.0
  0
LINE
  5
62B
  8
2
 10
173.80525378810751
 20
85.763478335402496
 30
0.0
 11
174.2052537881076
 21
85.070658012374835
 31
0.0
  0
ARC
  5
62F
  8
0
 10
89.582032253806247
 20
138.13457632800669
 30
0.0
 40
7.0
 50
201.56518501524261
 51
308.53132429037919
  0
ARC
  5
630
  8
0
 10
89.582032253806247
 20
138.13457632800669
 30
0.0
 40
7.0
 50
51.468675709620783
 51
158.43481498475739
  0
ARC
  5
633
  8
0
 10
126.0820322538062
 20
138.13457632800669
 30
0.0
 40
3.5
 50
270.0
 51
90.0
  0
LINE
  5
636
  8
0
 10
110.3730530097794
 20
142.2160893591342
 30
0.0
 11
126.2109774642738
 21
141.63220025471711
 31
0.0
  0
LINE
  5
637
  8
0
 10
110.3730530097794
 20
134.0530632968792
 30
0.0
 11
126.0820322538062
 21
134.63457632800669
 31
0.0
  0
CIRCLE
  5
642
  8
0
 10
89.864410126241424
 20
138.13457632800669
 30
0.0
 40
4.6971000970094821
  0
ARC
  5
6CE
  8
0
 10
104.6177653815049
 20
171.646881287577
 30
0.0
 40
30.0
 50
249.1551953734386
 51
281.16030063920113
  0
ARC
  5
6D0
  8
0
 10
104.6177653815049
 20
104.6222713684363
 30
0.0
 40
30.0
 50
78.839699360798974
 51
110.8448046265614
  0
LINE
  5
6E7
  8
0
 10
110.3730530097793
 20
42.164234590935159
 30
0.0
 11
126.2109774642738
 21
41.580345486518077
 31
0.0
  0
ARC
  5
6E8
  8
0
 10
126.0820322538062
 20
38.082721559807631
 30
0.0
 40
3.5
 50
270.0
 51
90.0
  0
ARC
  5
6E9
  8
0
 10
104.6177653815049
 20
71.595026519377981
 30
0.0
 40
30.0
 50
249.1551953734386
 51
281.16030063920113
  0
LINE
  5
6EA
  8
0
 10
110.3730530097793
 20
34.001208528680117
 30
0.0
 11
126.0820322538062
 21
34.582721559807617
 31
0.0
  0
ARC
  5
6EB
  8
0
 10
104.6177653815049
 20
4.5704166002373077
 30
0.0
 40
30.0
 50
78.839699360798974
 51
110.8448046265614
  0
ARC
  5
6EC
  8
0
 10
89.582032253806233
 20
38.082721559807638
 30
0.0
 40
7.0
 50
201.56518501524261
 51
308.53132429037919
  0
ARC
  5
6ED
  8
0
 10
89.582032253806233
 20
38.082721559807638
 30
0.0
 40
7.0
 50
51.468675709620783
 51
158.43481498475739
  0
LINE
  5
6EE
  8
0
 10
83.072032253806228
 20
35.50980492687917
 30
0.0
 11
83.072032253806228
 21
40.65563819273612
 31
0.0
  0
ARC
  5
6F3
  8
0
 10
137.14502593662721
 20
-42.588087658065831
 30
0.0
 40
150.0
 50
93.915861512303536
 51
110.1986696099367
  0
ARC
  5
701
  8
0
 10
127.0720322538062
 20
104.5675605456842
 30
0.0
 40
2.5
 50
0.0
 51
93.915861512302882
  0
ARC
  5
702
  8
0
 10
86.562032253806251
 20
94.902314734550998
 30
0.0
 40
3.5
 50
110.198669609936
 51
180.0
  0
LINE
  5
703
  8
0
 10
43.491946656621522
 20
98.187068375330284
 30
0.0
 11
39.772010874304073
 21
98.187068375330284
 31
0.0
  0
LINE
  5
713
  8
0
 10
32.523010187563877
 20
98.187068375330284
 30
0.0
 11
36.242945969881333
 21
98.187068375330284
 31
0.0
  0
LINE
  5
716
  8
0
 10
42.092413744075166
 20
105.1284014703415
 30
0.0
 11
42.092413744075166
 21
102.65724813984301
 31
0.0
  0
ARC
  5
719
  8
0
 10
123.5831317264655
 20
104.0428255285814
 30
0.0
 40
6.0
 50
282.44396201272468
 51
356.51437909834618
  0
ARC
  5
71E
  8
0
 10
112.4868774446812
 20
105.07065801237481
 30
0.0
 40
10.0
 50
270.0
 51
285.80000000000001
  0
ARC
  5
726
  8
0
 10
126.4092653060957
 20
38.77548534739784
 30
0.0
 40
60.0
 50
112.1950152906777
 51
120.38362357021521
  0
ARC
  5
728
  8
0
 10
107.5212535547237
 20
85.070658012374864
 30
0.0
 40
10.0
 50
90.0
 51
112.1950152906778
  0
LINE
  5
72C
  8
0
 10
44.507478422092703
 20
80.070658012374864
 30
0.0
 11
45.007478422092703
 21
99.668055520547995
 31
0.0
  0
POLYLINE
  5
72D
  8
0
 10
43.491946656621515
 20
98.187068375330284
 30
0.0
 66
     1
 70
     8
  0
VERTEX
  8
0
  5
D25
 10
43.4919
 20
98.1871
 30
0.000000
  70
    32
  0
VERTEX
  8
0
  5
D26
 10
43.5362
 20
98.2063
 30
0.000000
  70
    32
  0
VERTEX
  8
0
  5
D27
 10
43.5798
 20
98.2256
 30
0.000000
  70
    32
  0
VERTEX
  8
0
  5
D28
 10
43.6229
 20
98.2451
 30
0.000000
  70
    32
  0
VERTEX
  8
0
  5
D29
 10
43.6654
 20
98.2647
 30
0.000000
  70
    32
  0
VERTEX
  8
0
  5
D2A
 10
43.7073
 20
98.2845
 30
0.000000
  70
    32
  0
VERTEX
  8
0
  5
D2B
 10
43.7486
 20
98.3045
 30
0.000000
  70
    32
  0
VERTEX
  8
0
  5
D2C
 10
43.7892
 20
98.3245
 30
0.000000
  70
    32
  0
VERTEX
  8
0
  5
D2D
 10
43.8293
 20
98.3448
 30
0.000000
  70
    32
  0
VERTEX
  8
0
  5
D2E
 10
43.8688
 20
98.3651
 30
0.000000
  70
    32
  0
VERTEX
  8
0
  5
D2F
 10
43.9077
 20
98.3856
 30
0.000000
  70
    32
  0
VERTEX
  8
0
  5
D30
 10
43.9459
 20
98.4062
 30
0.000000
  70
    32
  0
VERTEX
  8
0
  5
D31
 10
43.9835
 20
98.4270
 30
0.000000
  70
    32
  0
VERTEX
  8
0
  5
D32
 10
44.0205
 20
98.4479
 30
0.000000
  70
    32
  0
VERTEX
  8
0
  5
D33
 10
44.0569
 20
98.4689
 30
0.000000
  70
    32
  0
VERTEX
  8
0
  5
D34
 10
44.0926
 20
98.4900
 30
0.000000
  70
    32
  0
VERTEX
  8
0
  5
D35
 10
44.1277
 20
98.5113
 30
0.000000
  70
    32
  0
VERTEX
  8
0
  5
D36
 10
44.1622
 20
98.5327
 30
0.000000
  70
    32
  0
VERTEX
  8
0
  5
D37
 10
44.1960
 20
98.5542
 30
0.000000
  70
    32
  0
VERTEX
  8
0
  5
D38
 10
44.2291
 20
98.5758
 30
0.000000
  70
    32
  0
VERTEX
  8
0
  5
D39
 10
44.2616
 20
98.5976
 30
0.000000
  70
    32
  0
VERTEX
  8
0
  5
D3A
 10
44.2935
 20
98.6194
 30
0.000000
  70
    32
  0
VERTEX
  8
0
  5
D3B
 10
44.3247
 20
98.6414
 30
0.000000
  70
    32
  0
VERTEX
  8
0
  5
D3C
 10
44.3552
 20
98.6634
 30
0.000000
  70
    32
  0
VERTEX
  8
0
  5
D3D
 10
44.3851
 20
98.6856
 30
0.000000
  70
    32
  0
VERTEX
  8
0
  5
D3E
 10
44.4143
 20
98.7079
 30
0.000000
  70
    32
  0
VERTEX
  8
0
  5
D3F
 10
44.4428
 20
98.7303
 30
0.000000
  70
    32
  0
VERTEX
  8
0
  5
D40
 10
44.4706
 20
98.7527
 30
0.000000
  70
    32
  0
VERTEX
  8
0
  5
D41
 10
44.4978
 20
98.7753
 30
0.000000
  70
    32
  0
VERTEX
  8
0
  5
D42
 10
44.5243
 20
98.7980
 30
0.000000
  70
    32
  0
VERTEX
  8
0
  5
D43
 10
44.5501
 20
98.8207
 30
0.000000
  70
    32
  0
VERTEX
  8
0
  5
D44
 10
44.5753
 20
98.8436
 30
0.000000
  70
    32
  0
VERTEX
  8
0
  5
D45
 10
44.5997
 20
98.8665
 30
0.000000
  70
    32
  0
VERTEX
  8
0
  5
D46
 10
44.6234
 20
98.8895
 30
0.000000
  70
    32
  0
VERTEX
  8
0
  5
D47
 10
44.6465
 20
98.9126
 30
0.000000
  70
    32
  0
VERTEX
  8
0
  5
D48
 10
44.6689
 20
98.9358
 30
0.000000
  70
    32
  0
VERTEX
  8
0
  5
D49
 10
44.6905
 20
98.9590
 30
0.000000
  70
    32
  0
VERTEX
  8
0
  5
D4A
 10
44.7115
 20
98.9823
 30
0.000000
  70
    32
  0
VERTEX
  8
0
  5
D4B
 10
44.7318
 20
99.0057
 30
0.000000
  70
    32
  0
VERTEX
  8
0
  5
D4C
 10
44.7513
 20
99.0292
 30
0.000000
  70
    32
  0
VERTEX
  8
0
  5
D4D
 10
44.7702
 20
99.0527
 30
0.000000
  70
    32
  0
VERTEX
  8
0
  5
D4E
 10
44.7883
 20
99.0763
 30
0.000000
  70
    32
  0
VERTEX
  8
0
  5
D4F
 10
44.8057
 20
99.1000
 30
0.000000
  70
    32
  0
VERTEX
  8
0
  5
D50
 10
44.8225
 20
99.1237
 30
0.000000
  70
    32
  0
VERTEX
  8
0
  5
D51
 10
44.8385
 20
99.1475
 30
0.000000
  70
    32
  0
VERTEX
  8
0
  5
D52
 10
44.8538
 20
99.1713
 30
0.000000
  70
    32
  0
VERTEX
  8
0
  5
D53
 10
44.8683
 20
99.1952
 30
0.000000
  70
    32
  0
VERTEX
  8
0
  5
D54
 10
44.8822
 20
99.2191
 30
0.000000
  70
    32
  0
VERTEX
  8
0
  5
D55
 10
44.8953
 20
99.2431
 30
0.000000
  70
    32
  0
VERTEX
  8
0
  5
D56
 10
44.9077
 20
99.2671
 30
0.000000
  70
    32
  0
VERTEX
  8
0
  5
D57
 10
44.9194
 20
99.2912
 30
0.000000
  70
    32
  0
VERTEX
  8
0
  5
D58
 10
44.9304
 20
99.3153
 30
0.000000
  70
    32
  0
VERTEX
  8
0
  5
D59
 10
44.9406
 20
99.3395
 30
0.000000
  70
    32
  0
VERTEX
  8
0
  5
D5A
 10
44.9501
 20
99.3636
 30
0.000000
  70
    32
  0
VERTEX
  8
0
  5
D5B
 10
44.9589
 20
99.3878
 30
0.000000
  70
    32
  0
VERTEX
  8
0
  5
D5C
 10
44.9670
 20
99.4121
 30
0.000000
  70
    32
  0
VERTEX
  8
0
  5
D5D
 10
44.9743
 20
99.4363
 30
0.000000
  70
    32
  0
VERTEX
  8
0
  5
D5E
 10
44.9809
 20
99.4606
 30
0.000000
  70
    32
  0
VERTEX
  8
0
  5
D5F
 10
44.9868
 20
99.4849
 30
0.000000
  70
    32
  0
VERTEX
  8
0
  5
D60
 10
44.9919
 20
99.5093
 30
0.000000
  70
    32
  0
VERTEX
  8
0
  5
D61
 10
44.9963
 20
99.5336
 30
0.000000
  70
    32
  0
VERTEX
  8
0
  5
D62
 10
45.0000
 20
99.5580
 30
0.000000
  70
    32
  0
VERTEX
  8
0
  5
D63
 10
45.0030
 20
99.5823
 30
0.000000
  70
    32
  0
VERTEX
  8
0
  5
D64
 10
45.0052
 20
99.6067
 30
0.000000
  70
    32
  0
VERTEX
  8
0
  5
D65
 10
45.0066
 20
99.6311
 30
0.000000
  70
    32
  0
VERTEX
  8
0
  5
D66
 10
45.0074
 20
99.6555
 30
0.000000
  70
    32
  0
VERTEX
  8
0
  5
D67
 10
45.0074
 20
99.6799
 30
0.000000
  70
    32
  0
VERTEX
  8
0
  5
D68
 10
45.0067
 20
99.7043
 30
0.000000
  70
    32
  0
VERTEX
  8
0
  5
D69
 10
45.0052
 20
99.7287
 30
0.000000
  70
    32
  0
VERTEX
  8
0
  5
D6A
 10
45.0030
 20
99.7531
 30
0.000000
  70
    32
  0
VERTEX
  8
0
  5
D6B
 10
45.0001
 20
99.7774
 30
0.000000
  70
    32
  0
VERTEX
  8
0
  5
D6C
 10
44.9964
 20
99.8018
 30
0.000000
  70
    32
  0
VERTEX
  8
0
  5
D6D
 10
44.9921
 20
99.8261
 30
0.000000
  70
    32
  0
VERTEX
  8
0
  5
D6E
 10
44.9869
 20
99.8505
 30
0.000000
  70
    32
  0
VERTEX
  8
0
  5
D6F
 10
44.9811
 20
99.8748
 30
0.000000
  70
    32
  0
VERTEX
  8
0
  5
D70
 10
44.9745
 20
99.8991
 30
0.000000
  70
    32
  0
VERTEX
  8
0
  5
D71
 10
44.9672
 20
99.9233
 30
0.000000
  70
    32
  0
VERTEX
  8
0
  5
D72
 10
44.9592
 20
99.9476
 30
0.000000
  70
    32
  0
VERTEX
  8
0
  5
D73
 10
44.9504
 20
99.9718
 30
0.000000
  70
    32
  0
VERTEX
  8
0
  5
D74
 10
44.9409
 20
99.9960
 30
0.000000
  70
    32
  0
VERTEX
  8
0
  5
D75
 10
44.9307
 20
100.020
 30
0.000000
  70
    32
  0
VERTEX
  8
0
  5
D76
 10
44.9197
 20
100.044
 30
0.000000
  70
    32
  0
VERTEX
  8
0
  5
D77
 10
44.9081
 20
100.068
 30
0.000000
  70
    32
  0
VERTEX
  8
0
  5
D78
 10
44.8957
 20
100.092
 30
0.000000
  70
    32
  0
VERTEX
  8
0
  5
D79
 10
44.8826
 20
100.116
 30
0.000000
  70
    32
  0
VERTEX
  8
0
  5
D7A
 10
44.8687
 20
100.140
 30
0.000000
  70
    32
  0
VERTEX
  8
0
  5
D7B
 10
44.8542
 20
100.164
 30
0.000000
  70
    32
  0
VERTEX
  8
0
  5
D7C
 10
44.8389
 20
100.188
 30
0.000000
  70
    32
  0
VERTEX
  8
0
  5
D7D
 10
44.8229
 20
100.212
 30
0.000000
  70
    32
  0
VERTEX
  8
0
  5
D7E
 10
44.8062
 20
100.235
 30
0.000000
  70
    32
  0
VERTEX
  8
0
  5
D7F
 10
44.7888
 20
100.259
 30
0.000000
  70
    32
  0
VERTEX
  8
0
  5
D80
 10
44.7707
 20
100.283
 30
0.000000
  70
    32
  0
VERTEX
  8
0
  5
D81
 10
44.7519
 20
100.306
 30
0.000000
  70
    32
  0
VERTEX
  8
0
  5
D82
 10
44.7323
 20
100.330
 30
0.000000
  70
    32
  0
VERTEX
  8
0
  5
D83
 10
44.7121
 20
100.353
 30
0.000000
  70
    32
  0
VERTEX
  8
0
  5
D84
 10
44.6911
 20
100.376
 30
0.000000
  70
    32
  0
VERTEX
  8
0
  5
D85
 10
44.6695
 20
100.400
 30
0.000000
  70
    32
  0
VERTEX
  8
0
  5
D86
 10
44.6472
 20
100.423
 30
0.000000
  70
    32
  0
VERTEX
  8
0
  5
D87
 10
44.6241
 20
100.446
 30
0.000000
  70
    32
  0
VERTEX
  8
0
  5
D88
 10
44.6004
 20
100.469
 30
0.000000
  70
    32
  0
VERTEX
  8
0
  5
D89
 10
44.5760
 20
100.492
 30
0.000000
  70
    32
  0
VERTEX
  8
0
  5
D8A
 10
44.5509
 20
100.515
 30
0.000000
  70
    32
  0
VERTEX
  8
0
  5
D8B
 10
44.5251
 20
100.537
 30
0.000000
  70
    32
  0
VERTEX
  8
0
  5
D8C
 10
44.4986
 20
100.560
 30
0.000000
  70
    32
  0
VERTEX
  8
0
  5
D8D
 10
44.4714
 20
100.583
 30
0.000000
  70
    32
  0
VERTEX
  8
0
  5
D8E
 10
44.4436
 20
100.605
 30
0.000000
  70
    32
  0
VERTEX
  8
0
  5
D8F
 10
44.4151
 20
100.628
 30
0.000000
  70
    32
  0
VERTEX
  8
0
  5
D90
 10
44.3859
 20
100.650
 30
0.000000
  70
    32
  0
VERTEX
  8
0
  5
D91
 10
44.3561
 20
100.672
 30
0.000000
  70
    32
  0
VERTEX
  8
0
  5
D92
 10
44.3256
 20
100.694
 30
0.000000
  70
    32
  0
VERTEX
  8
0
  5
D93
 10
44.2944
 20
100.716
 30
0.000000
  70
    32
  0
VERTEX
  8
0
  5
D94
 10
44.2626
 20
100.738
 30
0.000000
  70
    32
  0
VERTEX
  8
0
  5
D95
 10
44.2301
 20
100.760
 30
0.000000
  70
    32
  0
VERTEX
  8
0
  5
D96
 10
44.1969
 20
100.781
 30
0.000000
  70
    32
  0
VERTEX
  8
0
  5
D97
 10
44.1631
 20
100.803
 30
0.000000
  70
    32
  0
VERTEX
  8
0
  5
D98
 10
44.1287
 20
100.824
 30
0.000000
  70
    32
  0
VERTEX
  8
0
  5
D99
 10
44.0936
 20
100.845
 30
0.000000
  70
    32
  0
VERTEX
  8
0
  5
D9A
 10
44.0579
 20
100.867
 30
0.000000
  70
    32
  0
VERTEX
  8
0
  5
D9B
 10
44.0216
 20
100.888
 30
0.000000
  70
    32
  0
VERTEX
  8
0
  5
D9C
 10
43.9846
 20
100.909
 30
0.000000
  70
    32
  0
VERTEX
  8
0
  5
D9D
 10
43.9470
 20
100.929
 30
0.000000
  70
    32
  0
VERTEX
  8
0
  5
D9E
 10
43.9088
 20
100.950
 30
0.000000
  70
    32
  0
VERTEX
  8
0
  5
D9F
 10
43.8699
 20
100.970
 30
0.000000
  70
    32
  0
VERTEX
  8
0
  5
DA0
 10
43.8305
 20
100.991
 30
0.000000
  70
    32
  0
VERTEX
  8
0
  5
DA1
 10
43.7904
 20
101.011
 30
0.000000
  70
    32
  0
VERTEX
  8
0
  5
DA2
 10
43.7497
 20
101.031
 30
0.000000
  70
    32
  0
VERTEX
  8
0
  5
DA3
 10
43.7085
 20
101.051
 30
0.000000
  70
    32
  0
VERTEX
  8
0
  5
DA4
 10
43.6666
 20
101.071
 30
0.000000
  70
    32
  0
VERTEX
  8
0
  5
DA5
 10
43.6241
 20
101.090
 30
0.000000
  70
    32
  0
SEQEND
  8
0
  5
DA6
  0
LINE
  5
72F
  8
0
 10
31.507478422092699
 20
80.070658012374864
 30
0.0
 11
31.007478422092699
 21
99.668055520547995
 31
0.0
  0
ARC
  5
734
  8
0
 10
43.107163067645217
 20
103.93517525028059
 30
0.0
 40
1.5
 50
135.62248582632071
 51
194.54190412830249
  0
ARC
  5
76A
  8
0
 10
49.206516211033851
 20
108.1499877505741
 30
0.0
 40
9.0
 50
219.44968032693691
 51
231.6645676099084
  0
ARC
  5
76B
  8
0
 10
46.330839750564628
 20
105.3301382418524
 30
0.0
 40
5.0
 50
200.75171325611291
 51
215.43300582698109
  0
LINE
  5
771
  8
0
 10
41.537323871645768
 20
106.94717191392991
 30
0.0
 11
41.799217695238191
 21
106.3146837130363
 31
0.0
  0
LINE
  5
772
  8
0
 10
41.799217695238191
 20
106.3146837130363
 30
0.0
 11
42.08606558998418
 21
105.172855639492
 31
0.0
  0
ARC
  5
775
  8
0
 10
41.892092812897417
 20
105.12412616433321
 30
0.0
 40
0.2
 50
315.62248582632043
 51
14.10191193147306
  0
ARC
  5
776
  8
0
 10
41.352538528967237
 20
106.8706580123748
 30
0.0
 40
0.2
 50
22.492934975536091
 51
90.0
  0
LINE
  5
786
  8
0
 10
34.215739148947208
 20
106.3146837130363
 30
0.0
 11
33.928891254201218
 21
105.172855639492
 31
0.0
  0
ARC
  5
787
  8
0
 10
29.684117093620781
 20
105.3301382418524
 30
0.0
 40
5.0
 50
324.56699417301888
 51
339.24828674388721
  0
LINE
  5
788
  8
0
 10
33.922543100110218
 20
105.1284014703415
 30
0.0
 11
33.922543100110218
 21
102.65724813984301
 31
0.0
  0
ARC
  5
789
  8
0
 10
34.122864031287982
 20
105.12412616433321
 30
0.0
 40
0.2
 50
165.8980880685269
 51
224.37751417367971
  0
ARC
  5
78A
  8
0
 10
32.907793776540181
 20
103.93517525028059
 30
0.0
 40
1.5
 50
345.45809587169748
 51
44.377514173679231
  0
LINE
  5
78B
  8
0
 10
34.477632972539631
 20
106.94717191392991
 30
0.0
 11
34.215739148947208
 21
106.3146837130363
 31
0.0
  0
ARC
  5
78C
  8
0
 10
34.662418315218162
 20
106.8706580123748
 30
0.0
 40
0.2
 50
90.0
 51
157.50706502446391
  0
ARC
  5
78D
  8
0
 10
26.808440633151552
 20
108.1499877505741
 30
0.0
 40
9.0
 50
308.33543239009163
 51
320.55031967306309
  0
POLYLINE
  5
78E
  8
0
 10
32.523010187563891
 20
98.187068375330284
 30
0.0
 66
     1
 70
     8
  0
VERTEX
  8
0
  5
DA7
 10
32.5230
 20
98.1871
 30
0.000000
  70
    32
  0
VERTEX
  8
0
  5
DA8
 10
32.4788
 20
98.2063
 30
0.000000
  70
    32
  0
VERTEX
  8
0
  5
DA9
 10
32.4351
 20
98.2256
 30
0.000000
  70
    32
  0
VERTEX
  8
0
  5
DAA
 10
32.3921
 20
98.2451
 30
0.000000
  70
    32
  0
VERTEX
  8
0
  5
DAB
 10
32.3496
 20
98.2647
 30
0.000000
  70
    32
  0
VERTEX
  8
0
  5
DAC
 10
32.3077
 20
98.2845
 30
0.000000
  70
    32
  0
VERTEX
  8
0
  5
DAD
 10
32.2664
 20
98.3045
 30
0.000000
  70
    32
  0
VERTEX
  8
0
  5
DAE
 10
32.2257
 20
98.3245
 30
0.000000
  70
    32
  0
VERTEX
  8
0
  5
DAF
 10
32.1856
 20
98.3448
 30
0.000000
  70
    32
  0
VERTEX
  8
0
  5
DB0
 10
32.1462
 20
98.3651
 30
0.000000
  70
    32
  0
VERTEX
  8
0
  5
DB1
 10
32.1073
 20
98.3856
 30
0.000000
  70
    32
  0
VERTEX
  8
0
  5
DB2
 10
32.0691
 20
98.4062
 30
0.000000
  70
    32
  0
VERTEX
  8
0
  5
DB3
 10
32.0314
 20
98.4270
 30
0.000000
  70
    32
  0
VERTEX
  8
0
  5
DB4
 10
31.9944
 20
98.4479
 30
0.000000
  70
    32
  0
VERTEX
  8
0
  5
DB5
 10
31.9581
 20
98.4689
 30
0.000000
  70
    32
  0
VERTEX
  8
0
  5
DB6
 10
31.9224
 20
98.4900
 30
0.000000
  70
    32
  0
VERTEX
  8
0
  5
DB7
 10
31.8873
 20
98.5113
 30
0.000000
  70
    32
  0
VERTEX
  8
0
  5
DB8
 10
31.8528
 20
98.5327
 30
0.000000
  70
    32
  0
VERTEX
  8
0
  5
DB9
 10
31.8190
 20
98.5542
 30
0.000000
  70
    32
  0
VERTEX
  8
0
  5
DBA
 10
31.7858
 20
98.5758
 30
0.000000
  70
    32
  0
VERTEX
  8
0
  5
DBB
 10
31.7533
 20
98.5976
 30
0.000000
  70
    32
  0
VERTEX
  8
0
  5
DBC
 10
31.7215
 20
98.6194
 30
0.000000
  70
    32
  0
VERTEX
  8
0
  5
DBD
 10
31.6903
 20
98.6414
 30
0.000000
  70
    32
  0
VERTEX
  8
0
  5
DBE
 10
31.6598
 20
98.6634
 30
0.000000
  70
    32
  0
VERTEX
  8
0
  5
DBF
 10
31.6299
 20
98.6856
 30
0.000000
  70
    32
  0
VERTEX
  8
0
  5
DC0
 10
31.6007
 20
98.7079
 30
0.000000
  70
    32
  0
VERTEX
  8
0
  5
DC1
 10
31.5722
 20
98.7303
 30
0.000000
  70
    32
  0
VERTEX
  8
0
  5
DC2
 10
31.5443
 20
98.7527
 30
0.000000
  70
    32
  0
VERTEX
  8
0
  5
DC3
 10
31.5171
 20
98.7753
 30
0.000000
  70
    32
  0
VERTEX
  8
0
  5
DC4
 10
31.4906
 20
98.7980
 30
0.000000
  70
    32
  0
VERTEX
  8
0
  5
DC5
 10
31.4648
 20
98.8207
 30
0.000000
  70
    32
  0
VERTEX
  8
0
  5
DC6
 10
31.4397
 20
98.8436
 30
0.000000
  70
    32
  0
VERTEX
  8
0
  5
DC7
 10
31.4153
 20
98.8665
 30
0.000000
  70
    32
  0
VERTEX
  8
0
  5
DC8
 10
31.3915
 20
98.8895
 30
0.000000
  70
    32
  0
VERTEX
  8
0
  5
DC9
 10
31.3685
 20
98.9126
 30
0.000000
  70
    32
  0
VERTEX
  8
0
  5
DCA
 10
31.3461
 20
98.9358
 30
0.000000
  70
    32
  0
VERTEX
  8
0
  5
DCB
 10
31.3244
 20
98.9590
 30
0.000000
  70
    32
  0
VERTEX
  8
0
  5
DCC
 10
31.3035
 20
98.9823
 30
0.000000
  70
    32
  0
VERTEX
  8
0
  5
DCD
 10
31.2832
 20
99.0057
 30
0.000000
  70
    32
  0
VERTEX
  8
0
  5
DCE
 10
31.2636
 20
99.0292
 30
0.000000
  70
    32
  0
VERTEX
  8
0
  5
DCF
 10
31.2448
 20
99.0527
 30
0.000000
  70
    32
  0
VERTEX
  8
0
  5
DD0
 10
31.2267
 20
99.0763
 30
0.000000
  70
    32
  0
VERTEX
  8
0
  5
DD1
 10
31.2092
 20
99.1000
 30
0.000000
  70
    32
  0
VERTEX
  8
0
  5
DD2
 10
31.1925
 20
99.1237
 30
0.000000
  70
    32
  0
VERTEX
  8
0
  5
DD3
 10
31.1765
 20
99.1475
 30
0.000000
  70
    32
  0
VERTEX
  8
0
  5
DD4
 10
31.1612
 20
99.1713
 30
0.000000
  70
    32
  0
VERTEX
  8
0
  5
DD5
 10
31.1466
 20
99.1952
 30
0.000000
  70
    32
  0
VERTEX
  8
0
  5
DD6
 10
31.1328
 20
99.2191
 30
0.000000
  70
    32
  0
VERTEX
  8
0
  5
DD7
 10
31.1196
 20
99.2431
 30
0.000000
  70
    32
  0
VERTEX
  8
0
  5
DD8
 10
31.1072
 20
99.2671
 30
0.000000
  70
    32
  0
VERTEX
  8
0
  5
DD9
 10
31.0955
 20
99.2912
 30
0.000000
  70
    32
  0
VERTEX
  8
0
  5
DDA
 10
31.0846
 20
99.3153
 30
0.000000
  70
    32
  0
VERTEX
  8
0
  5
DDB
 10
31.0743
 20
99.3395
 30
0.000000
  70
    32
  0
VERTEX
  8
0
  5
DDC
 10
31.0648
 20
99.3636
 30
0.000000
  70
    32
  0
VERTEX
  8
0
  5
DDD
 10
31.0560
 20
99.3878
 30
0.000000
  70
    32
  0
VERTEX
  8
0
  5
DDE
 10
31.0480
 20
99.4121
 30
0.000000
  70
    32
  0
VERTEX
  8
0
  5
DDF
 10
31.0406
 20
99.4363
 30
0.000000
  70
    32
  0
VERTEX
  8
0
  5
DE0
 10
31.0340
 20
99.4606
 30
0.000000
  70
    32
  0
VERTEX
  8
0
  5
DE1
 10
31.0282
 20
99.4849
 30
0.000000
  70
    32
  0
VERTEX
  8
0
  5
DE2
 10
31.0230
 20
99.5093
 30
0.000000
  70
    32
  0
VERTEX
  8
0
  5
DE3
 10
31.0186
 20
99.5336
 30
0.000000
  70
    32
  0
VERTEX
  8
0
  5
DE4
 10
31.0149
 20
99.5580
 30
0.000000
  70
    32
  0
VERTEX
  8
0
  5
DE5
 10
31.0120
 20
99.5823
 30
0.000000
  70
    32
  0
VERTEX
  8
0
  5
DE6
 10
31.0098
 20
99.6067
 30
0.000000
  70
    32
  0
VERTEX
  8
0
  5
DE7
 10
31.0083
 20
99.6311
 30
0.000000
  70
    32
  0
VERTEX
  8
0
  5
DE8
 10
31.0076
 20
99.6555
 30
0.000000
  70
    32
  0
VERTEX
  8
0
  5
DE9
 10
31.0076
 20
99.6799
 30
0.000000
  70
    32
  0
VERTEX
  8
0
  5
DEA
 10
31.0083
 20
99.7043
 30
0.000000
  70
    32
  0
VERTEX
  8
0
  5
DEB
 10
31.0097
 20
99.7287
 30
0.000000
  70
    32
  0
VERTEX
  8
0
  5
DEC
 10
31.0119
 20
99.7531
 30
0.000000
  70
    32
  0
VERTEX
  8
0
  5
DED
 10
31.0149
 20
99.7774
 30
0.000000
  70
    32
  0
VERTEX
  8
0
  5
DEE
 10
31.0185
 20
99.8018
 30
0.000000
  70
    32
  0
VERTEX
  8
0
  5
DEF
 10
31.0229
 20
99.8261
 30
0.000000
  70
    32
  0
VERTEX
  8
0
  5
DF0
 10
31.0280
 20
99.8505
 30
0.000000
  70
    32
  0
VERTEX
  8
0
  5
DF1
 10
31.0339
 20
99.8748
 30
0.000000
  70
    32
  0
VERTEX
  8
0
  5
DF2
 10
31.0404
 20
99.8991
 30
0.000000
  70
    32
  0
VERTEX
  8
0
  5
DF3
 10
31.0477
 20
99.9233
 30
0.000000
  70
    32
  0
VERTEX
  8
0
  5
DF4
 10
31.0558
 20
99.9476
 30
0.000000
  70
    32
  0
VERTEX
  8
0
  5
DF5
 10
31.0646
 20
99.9718
 30
0.000000
  70
    32
  0
VERTEX
  8
0
  5
DF6
 10
31.0740
 20
99.9960
 30
0.000000
  70
    32
  0
VERTEX
  8
0
  5
DF7
 10
31.0843
 20
100.020
 30
0.000000
  70
    32
  0
VERTEX
  8
0
  5
DF8
 10
31.0952
 20
100.044
 30
0.000000
  70
    32
  0
VERTEX
  8
0
  5
DF9
 10
31.1069
 20
100.068
 30
0.000000
  70
    32
  0
VERTEX
  8
0
  5
DFA
 10
31.1193
 20
100.092
 30
0.000000
  70
    32
  0
VERTEX
  8
0
  5
DFB
 10
31.1324
 20
100.116
 30
0.000000
  70
    32
  0
VERTEX
  8
0
  5
DFC
 10
31.1462
 20
100.140
 30
0.000000
  70
    32
  0
VERTEX
  8
0
  5
DFD
 10
31.1608
 20
100.164
 30
0.000000
  70
    32
  0
VERTEX
  8
0
  5
DFE
 10
31.1760
 20
100.188
 30
0.000000
  70
    32
  0
VERTEX
  8
0
  5
DFF
 10
31.1920
 20
100.212
 30
0.000000
  70
    32
  0
VERTEX
  8
0
  5
E00
 10
31.2087
 20
100.235
 30
0.000000
  70
    32
  0
VERTEX
  8
0
  5
E01
 10
31.2261
 20
100.259
 30
0.000000
  70
    32
  0
VERTEX
  8
0
  5
E02
 10
31.2443
 20
100.283
 30
0.000000
  70
    32
  0
VERTEX
  8
0
  5
E03
 10
31.2631
 20
100.306
 30
0.000000
  70
    32
  0
VERTEX
  8
0
  5
E04
 10
31.2826
 20
100.330
 30
0.000000
  70
    32
  0
VERTEX
  8
0
  5
E05
 10
31.3029
 20
100.353
 30
0.000000
  70
    32
  0
VERTEX
  8
0
  5
E06
 10
31.3238
 20
100.376
 30
0.000000
  70
    32
  0
VERTEX
  8
0
  5
E07
 10
31.3455
 20
100.400
 30
0.000000
  70
    32
  0
VERTEX
  8
0
  5
E08
 10
31.3678
 20
100.423
 30
0.000000
  70
    32
  0
VERTEX
  8
0
  5
E09
 10
31.3908
 20
100.446
 30
0.000000
  70
    32
  0
VERTEX
  8
0
  5
E0A
 10
31.4146
 20
100.469
 30
0.000000
  70
    32
  0
VERTEX
  8
0
  5
E0B
 10
31.4390
 20
100.492
 30
0.000000
  70
    32
  0
VERTEX
  8
0
  5
E0C
 10
31.4641
 20
100.515
 30
0.000000
  70
    32
  0
VERTEX
  8
0
  5
E0D
 10
31.4899
 20
100.537
 30
0.000000
  70
    32
  0
VERTEX
  8
0
  5
E0E
 10
31.5164
 20
100.560
 30
0.000000
  70
    32
  0
VERTEX
  8
0
  5
E0F
 10
31.5435
 20
100.583
 30
0.000000
  70
    32
  0
VERTEX
  8
0
  5
E10
 10
31.5713
 20
100.605
 30
0.000000
  70
    32
  0
VERTEX
  8
0
  5
E11
 10
31.5999
 20
100.628
 30
0.000000
  70
    32
  0
VERTEX
  8
0
  5
E12
 10
31.6290
 20
100.650
 30
0.000000
  70
    32
  0
VERTEX
  8
0
  5
E13
 10
31.6589
 20
100.672
 30
0.000000
  70
    32
  0
VERTEX
  8
0
  5
E14
 10
31.6894
 20
100.694
 30
0.000000
  70
    32
  0
VERTEX
  8
0
  5
E15
 10
31.7206
 20
100.716
 30
0.000000
  70
    32
  0
VERTEX
  8
0
  5
E16
 10
31.7524
 20
100.738
 30
0.000000
  70
    32
  0
VERTEX
  8
0
  5
E17
 10
31.7849
 20
100.760
 30
0.000000
  70
    32
  0
VERTEX
  8
0
  5
E18
 10
31.8180
 20
100.781
 30
0.000000
  70
    32
  0
VERTEX
  8
0
  5
E19
 10
31.8518
 20
100.803
 30
0.000000
  70
    32
  0
VERTEX
  8
0
  5
E1A
 10
31.8862
 20
100.824
 30
0.000000
  70
    32
  0
VERTEX
  8
0
  5
E1B
 10
31.9213
 20
100.845
 30
0.000000
  70
    32
  0
VERTEX
  8
0
  5
E1C
 10
31.9570
 20
100.867
 30
0.000000
  70
    32
  0
VERTEX
  8
0
  5
E1D
 10
31.9934
 20
100.888
 30
0.000000
  70
    32
  0
VERTEX
  8
0
  5
E1E
 10
32.0304
 20
100.909
 30
0.000000
  70
    32
  0
VERTEX
  8
0
  5
E1F
 10
32.0680
 20
100.929
 30
0.000000
  70
    32
  0
VERTEX
  8
0
  5
E20
 10
32.1062
 20
100.950
 30
0.000000
  70
    32
  0
VERTEX
  8
0
  5
E21
 10
32.1450
 20
100.970
 30
0.000000
  70
    32
  0
VERTEX
  8
0
  5
E22
 10
32.1845
 20
100.991
 30
0.000000
  70
    32
  0
VERTEX
  8
0
  5
E23
 10
32.2245
 20
101.011
 30
0.000000
  70
    32
  0
VERTEX
  8
0
  5
E24
 10
32.2652
 20
101.031
 30
0.000000
  70
    32
  0
VERTEX
  8
0
  5
E25
 10
32.3065
 20
101.051
 30
0.000000
  70
    32
  0
VERTEX
  8
0
  5
E26
 10
32.3484
 20
101.071
 30
0.000000
  70
    32
  0
VERTEX
  8
0
  5
E27
 10
32.3908
 20
101.090
 30
0.000000
  70
    32
  0
SEQEND
  8
0
  5
E28
  0
LINE
  5
9BE
  8
0
 10
175.21104586592639
 20
98.54053038488054
 30
0.0
 11
175.1907117089703
 21
98.792426579609042
 31
0.0
  0
ARC
  5
A0C
  8
0
 10
171.7052537881078
 20
106.0530657364792
 30
0.0
 40
1.0
 50
235.76817851301581
 51
304.2318214869839
  0
LINE
  5
A4C
  8
0
 10
167.91351451496229
 20
106.3146837130363
 30
0.0
 11
167.6266666202163
 21
105.172855639492
 31
0.0
  0
LINE
  5
A51
  8
0
 10
168.17540833855469
 20
106.94717191392991
 30
0.0
 11
167.91351451496229
 21
106.3146837130363
 31
0.0
  0
LINE
  5
A53
  8
0
 10
175.49699306125331
 20
106.3146837130363
 30
0.0
 11
175.7838409559993
 21
105.172855639492
 31
0.0
  0
ARC
  5
A58
  8
0
 10
175.05031389498239
 20
106.8706580123748
 30
0.0
 40
0.2
 50
22.492934975536091
 51
90.0
  0
LINE
  5
A59
  8
0
 10
175.2350992376609
 20
106.94717191392991
 30
0.0
 11
175.49699306125331
 21
106.3146837130363
 31
0.0
  0
ARC
  5
A63
  8
0
 10
175.087287747993
 20
106.67237051044491
 30
0.0
 40
0.4
 50
95.303685279422695
 51
111.7307513085735
  0
LINE
  5
A66
  8
0
 10
174.9391895959092
 20
107.0439441065862
 30
0.0
 11
172.27898999146419
 21
105.2339136921902
 31
0.0
  0
LINE
  5
A67
  8
0
 10
168.4713179803064
 20
107.0439441065862
 30
0.0
 11
171.13151758475141
 21
105.2339136921902
 31
0.0
  0
ARC
  5
A68
  8
0
 10
168.32321982822259
 20
106.67237051044491
 30
0.0
 40
0.4
 50
68.269248691426469
 51
84.696314720577305
  0
ARC
  5
A69
  8
0
 10
168.36019368123331
 20
106.8706580123748
 30
0.0
 40
0.2
 50
90.0
 51
157.50706502446391
  0
POLYLINE
  5
A84
  8
0
 10
172.29852966984257
 20
103.33406092927476
 30
0.0
 66
     1
 70
     8
  0
VERTEX
  8
0
  5
E29
 10
172.299
 20
103.334
 30
0.000000
  70
    32
  0
VERTEX
  8
0
  5
E2A
 10
172.291
 20
103.345
 30
0.000000
  70
    32
  0
VERTEX
  8
0
  5
E2B
 10
172.283
 20
103.355
 30
0.000000
  70
    32
  0
VERTEX
  8
0
  5
E2C
 10
172.276
 20
103.366
 30
0.000000
  70
    32
  0
VERTEX
  8
0
  5
E2D
 10
172.268
 20
103.376
 30
0.000000
  70
    32
  0
VERTEX
  8
0
  5
E2E
 10
172.260
 20
103.386
 30
0.000000
  70
    32
  0
VERTEX
  8
0
  5
E2F
 10
172.252
 20
103.396
 30
0.000000
  70
    32
  0
VERTEX
  8
0
  5
E30
 10
172.244
 20
103.406
 30
0.000000
  70
    32
  0
VERTEX
  8
0
  5
E31
 10
172.236
 20
103.416
 30
0.000000
  70
    32
  0
VERTEX
  8
0
  5
E32
 10
172.228
 20
103.425
 30
0.000000
  70
    32
  0
VERTEX
  8
0
  5
E33
 10
172.220
 20
103.435
 30
0.000000
  70
    32
  0
VERTEX
  8
0
  5
E34
 10
172.212
 20
103.444
 30
0.000000
  70
    32
  0
VERTEX
  8
0
  5
E35
 10
172.203
 20
103.453
 30
0.000000
  70
    32
  0
VERTEX
  8
0
  5
E36
 10
172.195
 20
103.462
 30
0.000000
  70
    32
  0
VERTEX
  8
0
  5
E37
 10
172.186
 20
103.471
 30
0.000000
  70
    32
  0
VERTEX
  8
0
  5
E38
 10
172.178
 20
103.479
 30
0.000000
  70
    32
  0
VERTEX
  8
0
  5
E39
 10
172.169
 20
103.488
 30
0.000000
  70
    32
  0
VERTEX
  8
0
  5
E3A
 10
172.161
 20
103.496
 30
0.000000
  70
    32
  0
VERTEX
  8
0
  5
E3B
 10
172.152
 20
103.504
 30
0.000000
  70
    32
  0
VERTEX
  8
0
  5
E3C
 10
172.143
 20
103.512
 30
0.000000
  70
    32
  0
VERTEX
  8
0
  5
E3D
 10
172.134
 20
103.520
 30
0.000000
  70
    32
  0
VERTEX
  8
0
  5
E3E
 10
172.125
 20
103.528
 30
0.000000
  70
    32
  0
VERTEX
  8
0
  5
E3F
 10
172.116
 20
103.536
 30
0.000000
  70
    32
  0
VERTEX
  8
0
  5
E40
 10
172.107
 20
103.543
 30
0.000000
  70
    32
  0
VERTEX
  8
0
  5
E41
 10
172.098
 20
103.550
 30
0.000000
  70
    32
  0
VERTEX
  8
0
  5
E42
 10
172.089
 20
103.557
 30
0.000000
  70
    32
  0
VERTEX
  8
0
  5
E43
 10
172.080
 20
103.564
 30
0.000000
  70
    32
  0
VERTEX
  8
0
  5
E44
 10
172.071
 20
103.571
 30
0.000000
  70
    32
  0
VERTEX
  8
0
  5
E45
 10
172.062
 20
103.577
 30
0.000000
  70
    32
  0
VERTEX
  8
0
  5
E46
 10
172.052
 20
103.584
 30
0.000000
  70
    32
  0
VERTEX
  8
0
  5
E47
 10
172.043
 20
103.590
 30
0.000000
  70
    32
  0
VERTEX
  8
0
  5
E48
 10
172.033
 20
103.596
 30
0.000000
  70
    32
  0
VERTEX
  8
0
  5
E49
 10
172.024
 20
103.602
 30
0.000000
  70
    32
  0
VERTEX
  8
0
  5
E4A
 10
172.014
 20
103.607
 30
0.000000
  70
    32
  0
VERTEX
  8
0
  5
E4B
 10
172.005
 20
103.613
 30
0.000000
  70
    32
  0
VERTEX
  8
0
  5
E4C
 10
171.995
 20
103.618
 30
0.000000
  70
    32
  0
VERTEX
  8
0
  5
E4D
 10
171.986
 20
103.623
 30
0.000000
  70
    32
  0
VERTEX
  8
0
  5
E4E
 10
171.976
 20
103.628
 30
0.000000
  70
    32
  0
VERTEX
  8
0
  5
E4F
 10
171.966
 20
103.633
 30
0.000000
  70
    32
  0
VERTEX
  8
0
  5
E50
 10
171.957
 20
103.638
 30
0.000000
  70
    32
  0
VERTEX
  8
0
  5
E51
 10
171.947
 20
103.642
 30
0.000000
  70
    32
  0
VERTEX
  8
0
  5
E52
 10
171.937
 20
103.647
 30
0.000000
  70
    32
  0
VERTEX
  8
0
  5
E53
 10
171.927
 20
103.651
 30
0.000000
  70
    32
  0
VERTEX
  8
0
  5
E54
 10
171.917
 20
103.655
 30
0.000000
  70
    32
  0
VERTEX
  8
0
  5
E55
 10
171.907
 20
103.658
 30
0.000000
  70
    32
  0
VERTEX
  8
0
  5
E56
 10
171.897
 20
103.662
 30
0.000000
  70
    32
  0
VERTEX
  8
0
  5
E57
 10
171.887
 20
103.665
 30
0.000000
  70
    32
  0
VERTEX
  8
0
  5
E58
 10
171.877
 20
103.669
 30
0.000000
  70
    32
  0
VERTEX
  8
0
  5
E59
 10
171.867
 20
103.672
 30
0.000000
  70
    32
  0
VERTEX
  8
0
  5
E5A
 10
171.857
 20
103.675
 30
0.000000
  70
    32
  0
VERTEX
  8
0
  5
E5B
 10
171.847
 20
103.677
 30
0.000000
  70
    32
  0
VERTEX
  8
0
  5
E5C
 10
171.837
 20
103.680
 30
0.000000
  70
    32
  0
VERTEX
  8
0
  5
E5D
 10
171.827
 20
103.682
 30
0.000000
  70
    32
  0
VERTEX
  8
0
  5
E5E
 10
171.817
 20
103.684
 30
0.000000
  70
    32
  0
VERTEX
  8
0
  5
E5F
 10
171.807
 20
103.686
 30
0.000000
  70
    32
  0
VERTEX
  8
0
  5
E60
 10
171.797
 20
103.688
 30
0.000000
  70
    32
  0
VERTEX
  8
0
  5
E61
 10
171.787
 20
103.689
 30
0.000000
  70
    32
  0
VERTEX
  8
0
  5
E62
 10
171.777
 20
103.691
 30
0.000000
  70
    32
  0
VERTEX
  8
0
  5
E63
 10
171.766
 20
103.692
 30
0.000000
  70
    32
  0
VERTEX
  8
0
  5
E64
 10
171.756
 20
103.693
 30
0.000000
  70
    32
  0
VERTEX
  8
0
  5
E65
 10
171.746
 20
103.694
 30
0.000000
  70
    32
  0
VERTEX
  8
0
  5
E66
 10
171.736
 20
103.694
 30
0.000000
  70
    32
  0
VERTEX
  8
0
  5
E67
 10
171.726
 20
103.695
 30
0.000000
  70
    32
  0
VERTEX
  8
0
  5
E68
 10
171.715
 20
103.695
 30
0.000000
  70
    32
  0
VERTEX
  8
0
  5
E69
 10
171.705
 20
103.695
 30
0.000000
  70
    32
  0
VERTEX
  8
0
  5
E6A
 10
171.695
 20
103.695
 30
0.000000
  70
    32
  0
VERTEX
  8
0
  5
E6B
 10
171.685
 20
103.695
 30
0.000000
  70
    32
  0
VERTEX
  8
0
  5
E6C
 10
171.675
 20
103.694
 30
0.000000
  70
    32
  0
VERTEX
  8
0
  5
E6D
 10
171.664
 20
103.694
 30
0.000000
  70
    32
  0
VERTEX
  8
0
  5
E6E
 10
171.654
 20
103.693
 30
0.000000
  70
    32
  0
VERTEX
  8
0
  5
E6F
 10
171.644
 20
103.692
 30
0.000000
  70
    32
  0
VERTEX
  8
0
  5
E70
 10
171.634
 20
103.691
 30
0.000000
  70
    32
  0
VERTEX
  8
0
  5
E71
 10
171.624
 20
103.689
 30
0.000000
  70
    32
  0
VERTEX
  8
0
  5
E72
 10
171.614
 20
103.688
 30
0.000000
  70
    32
  0
VERTEX
  8
0
  5
E73
 10
171.604
 20
103.686
 30
0.000000
  70
    32
  0
VERTEX
  8
0
  5
E74
 10
171.593
 20
103.684
 30
0.000000
  70
    32
  0
VERTEX
  8
0
  5
E75
 10
171.583
 20
103.682
 30
0.000000
  70
    32
  0
VERTEX
  8
0
  5
E76
 10
171.573
 20
103.680
 30
0.000000
  70
    32
  0
VERTEX
  8
0
  5
E77
 10
171.563
 20
103.677
 30
0.000000
  70
    32
  0
VERTEX
  8
0
  5
E78
 10
171.553
 20
103.675
 30
0.000000
  70
    32
  0
VERTEX
  8
0
  5
E79
 10
171.543
 20
103.672
 30
0.000000
  70
    32
  0
VERTEX
  8
0
  5
E7A
 10
171.533
 20
103.669
 30
0.000000
  70
    32
  0
VERTEX
  8
0
  5
E7B
 10
171.523
 20
103.665
 30
0.000000
  70
    32
  0
VERTEX
  8
0
  5
E7C
 10
171.513
 20
103.662
 30
0.000000
  70
    32
  0
VERTEX
  8
0
  5
E7D
 10
171.503
 20
103.658
 30
0.000000
  70
    32
  0
VERTEX
  8
0
  5
E7E
 10
171.493
 20
103.655
 30
0.000000
  70
    32
  0
VERTEX
  8
0
  5
E7F
 10
171.483
 20
103.651
 30
0.000000
  70
    32
  0
VERTEX
  8
0
  5
E80
 10
171.474
 20
103.647
 30
0.000000
  70
    32
  0
VERTEX
  8
0
  5
E81
 10
171.464
 20
103.642
 30
0.000000
  70
    32
  0
VERTEX
  8
0
  5
E82
 10
171.454
 20
103.638
 30
0.000000
  70
    32
  0
VERTEX
  8
0
  5
E83
 10
171.444
 20
103.633
 30
0.000000
  70
    32
  0
VERTEX
  8
0
  5
E84
 10
171.434
 20
103.628
 30
0.000000
  70
    32
  0
VERTEX
  8
0
  5
E85
 10
171.425
 20
103.623
 30
0.000000
  70
    32
  0
VERTEX
  8
0
  5
E86
 10
171.415
 20
103.618
 30
0.000000
  70
    32
  0
VERTEX
  8
0
  5
E87
 10
171.406
 20
103.613
 30
0.000000
  70
    32
  0
VERTEX
  8
0
  5
E88
 10
171.396
 20
103.607
 30
0.000000
  70
    32
  0
VERTEX
  8
0
  5
E89
 10
171.387
 20
103.602
 30
0.000000
  70
    32
  0
VERTEX
  8
0
  5
E8A
 10
171.377
 20
103.596
 30
0.000000
  70
    32
  0
VERTEX
  8
0
  5
E8B
 10
171.368
 20
103.590
 30
0.000000
  70
    32
  0
VERTEX
  8
0
  5
E8C
 10
171.358
 20
103.584
 30
0.000000
  70
    32
  0
VERTEX
  8
0
  5
E8D
 10
171.349
 20
103.577
 30
0.000000
  70
    32
  0
VERTEX
  8
0
  5
E8E
 10
171.340
 20
103.571
 30
0.000000
  70
    32
  0
VERTEX
  8
0
  5
E8F
 10
171.330
 20
103.564
 30
0.000000
  70
    32
  0
VERTEX
  8
0
  5
E90
 10
171.321
 20
103.557
 30
0.000000
  70
    32
  0
VERTEX
  8
0
  5
E91
 10
171.312
 20
103.550
 30
0.000000
  70
    32
  0
VERTEX
  8
0
  5
E92
 10
171.303
 20
103.543
 30
0.000000
  70
    32
  0
VERTEX
  8
0
  5
E93
 10
171.294
 20
103.536
 30
0.000000
  70
    32
  0
VERTEX
  8
0
  5
E94
 10
171.285
 20
103.528
 30
0.000000
  70
    32
  0
VERTEX
  8
0
  5
E95
 10
171.276
 20
103.520
 30
0.000000
  70
    32
  0
VERTEX
  8
0
  5
E96
 10
171.267
 20
103.512
 30
0.000000
  70
    32
  0
VERTEX
  8
0
  5
E97
 10
171.259
 20
103.504
 30
0.000000
  70
    32
  0
VERTEX
  8
0
  5
E98
 10
171.250
 20
103.496
 30
0.000000
  70
    32
  0
VERTEX
  8
0
  5
E99
 10
171.241
 20
103.488
 30
0.000000
  70
    32
  0
VERTEX
  8
0
  5
E9A
 10
171.233
 20
103.479
 30
0.000000
  70
    32
  0
VERTEX
  8
0
  5
E9B
 10
171.224
 20
103.471
 30
0.000000
  70
    32
  0
VERTEX
  8
0
  5
E9C
 10
171.216
 20
103.462
 30
0.000000
  70
    32
  0
VERTEX
  8
0
  5
E9D
 10
171.207
 20
103.453
 30
0.000000
  70
    32
  0
VERTEX
  8
0
  5
E9E
 10
171.199
 20
103.444
 30
0.000000
  70
    32
  0
VERTEX
  8
0
  5
E9F
 10
171.191
 20
103.435
 30
0.000000
  70
    32
  0
VERTEX
  8
0
  5
EA0
 10
171.182
 20
103.425
 30
0.000000
  70
    32
  0
VERTEX
  8
0
  5
EA1
 10
171.174
 20
103.416
 30
0.000000
  70
    32
  0
VERTEX
  8
0
  5
EA2
 10
171.166
 20
103.406
 30
0.000000
  70
    32
  0
VERTEX
  8
0
  5
EA3
 10
171.158
 20
103.396
 30
0.000000
  70
    32
  0
VERTEX
  8
0
  5
EA4
 10
171.150
 20
103.386
 30
0.000000
  70
    32
  0
VERTEX
  8
0
  5
EA5
 10
171.142
 20
103.376
 30
0.000000
  70
    32
  0
VERTEX
  8
0
  5
EA6
 10
171.135
 20
103.366
 30
0.000000
  70
    32
  0
VERTEX
  8
0
  5
EA7
 10
171.127
 20
103.355
 30
0.000000
  70
    32
  0
VERTEX
  8
0
  5
EA8
 10
171.119
 20
103.345
 30
0.000000
  70
    32
  0
VERTEX
  8
0
  5
EA9
 10
171.112
 20
103.334
 30
0.000000
  70
    32
  0
SEQEND
  8
0
  5
EAA
  0
ARC
  5
A85
  8
0
 10
157.19612528095149
 20
90.22233405313807
 30
0.0
 40
20.0
 50
26.540009007947351
 51
40.96412461172509
  0
ARC
  5
A86
  8
0
 10
174.19395408150919
 20
98.711963966563829
 30
0.0
 40
1.0
 50
4.6151572348128216
 51
26.540009007947258
  0
LINE
  5
A87
  8
0
 10
175.21104586592639
 20
98.54053038488054
 30
0.0
 11
175.24099599152461
 21
98.248993957108311
 31
0.0
  0
ARC
  5
A88
  8
0
 10
186.2143822952641
 20
90.22233405313807
 30
0.0
 40
20.0
 50
139.0358753885001
 51
153.45999099205261
  0
LINE
  5
A89
  8
0
 10
168.1994617102892
 20
98.54053038488054
 30
0.0
 11
168.16951158469101
 21
98.248993957108311
 31
0.0
  0
LINE
  5
A8A
  8
0
 10
168.1994617102892
 20
98.54053038488054
 30
0.0
 11
168.2197958672453
 21
98.792426579609042
 31
0.0
  0
ARC
  5
A8B
  8
0
 10
169.2165534947064
 20
98.711963966563829
 30
0.0
 40
1.0
 50
153.4599909920527
 51
175.38484276518719
  0
ARC
  5
A8F
  8
0
 10
175.700665906724
 20
95.120658012374832
 30
0.0
 40
0.05
 50
187.4530187104076
 51
270.00000000001683
  0
ARC
  5
A90
  8
0
 10
167.7098416694916
 20
95.120658012374832
 30
0.0
 40
0.05
 50
269.99999999998317
 51
352.5469812895924
  0
LINE
  5
A91
  8
0
 10
167.75941924732589
 20
95.114172353111456
 30
0.0
 11
168.16951158469101
 21
98.248993957108311
 31
0.0
  0
LINE
  5
A92
  8
0
 10
175.78676681923531
 20
102.52897776916819
 30
0.0
 11
177.17938384081461
 21
101.07922731365051
 31
0.0
  0
LINE
  5
A93
  8
0
 10
177.17938384081461
 20
101.07922731365061
 30
0.0
 11
177.97082156394811
 21
100.7208962546941
 31
0.0
  0
ARC
  5
A97
  8
0
 10
177.4552537881078
 20
99.582173343483859
 30
0.0
 40
1.25
 50
0.0
 51
65.640901373421741
  0
LINE
  5
A98
  8
0
 10
167.62374075698031
 20
102.52897776916819
 30
0.0
 11
166.23112373540101
 21
101.07922731365051
 31
0.0
  0
ARC
  5
A99
  8
0
 10
165.9552537881078
 20
99.582173343483859
 30
0.0
 40
1.25
 50
114.3590986265782
 51
180.0
  0
LINE
  5
A9A
  8
0
 10
166.23112373540101
 20
101.07922731365061
 30
0.0
 11
165.43968601226749
 21
100.7208962546941
 31
0.0
  0
POLYLINE
  5
AAD
  8
0
 10
168.13225288417362
 20
94.56881653194695
 30
0.0
 66
     1
 70
     8
  0
VERTEX
  8
0
  5
EAB
 10
168.132
 20
94.5688
 30
0.000000
  70
    32
  0
VERTEX
  8
0
  5
EAC
 10
168.132
 20
94.5750
 30
0.000000
  70
    32
  0
VERTEX
  8
0
  5
EAD
 10
168.132
 20
94.5811
 30
0.000000
  70
    32
  0
VERTEX
  8
0
  5
EAE
 10
168.132
 20
94.5873
 30
0.000000
  70
    32
  0
VERTEX
  8
0
  5
EAF
 10
168.132
 20
94.5934
 30
0.000000
  70
    32
  0
VERTEX
  8
0
  5
EB0
 10
168.132
 20
94.5996
 30
0.000000
  70
    32
  0
VERTEX
  8
0
  5
EB1
 10
168.132
 20
94.6057
 30
0.000000
  70
    32
  0
VERTEX
  8
0
  5
EB2
 10
168.132
 20
94.6119
 30
0.000000
  70
    32
  0
VERTEX
  8
0
  5
EB3
 10
168.131
 20
94.6180
 30
0.000000
  70
    32
  0
VERTEX
  8
0
  5
EB4
 10
168.131
 20
94.6241
 30
0.000000
  70
    32
  0
VERTEX
  8
0
  5
EB5
 10
168.131
 20
94.6303
 30
0.000000
  70
    32
  0
VERTEX
  8
0
  5
EB6
 10
168.131
 20
94.6364
 30
0.000000
  70
    32
  0
VERTEX
  8
0
  5
EB7
 10
168.130
 20
94.6425
 30
0.000000
  70
    32
  0
VERTEX
  8
0
  5
EB8
 10
168.130
 20
94.6485
 30
0.000000
  70
    32
  0
VERTEX
  8
0
  5
EB9
 10
168.130
 20
94.6546
 30
0.000000
  70
    32
  0
VERTEX
  8
0
  5
EBA
 10
168.129
 20
94.6607
 30
0.000000
  70
    32
  0
VERTEX
  8
0
  5
EBB
 10
168.129
 20
94.6667
 30
0.000000
  70
    32
  0
VERTEX
  8
0
  5
EBC
 10
168.129
 20
94.6728
 30
0.000000
  70
    32
  0
VERTEX
  8
0
  5
EBD
 10
168.128
 20
94.6788
 30
0.000000
  70
    32
  0
VERTEX
  8
0
  5
EBE
 10
168.128
 20
94.6848
 30
0.000000
  70
    32
  0
VERTEX
  8
0
  5
EBF
 10
168.127
 20
94.6908
 30
0.000000
  70
    32
  0
VERTEX
  8
0
  5
EC0
 10
168.127
 20
94.6967
 30
0.000000
  70
    32
  0
VERTEX
  8
0
  5
EC1
 10
168.126
 20
94.7027
 30
0.000000
  70
    32
  0
VERTEX
  8
0
  5
EC2
 10
168.125
 20
94.7086
 30
0.000000
  70
    32
  0
VERTEX
  8
0
  5
EC3
 10
168.125
 20
94.7145
 30
0.000000
  70
    32
  0
VERTEX
  8
0
  5
EC4
 10
168.124
 20
94.7204
 30
0.000000
  70
    32
  0
VERTEX
  8
0
  5
EC5
 10
168.124
 20
94.7262
 30
0.000000
  70
    32
  0
VERTEX
  8
0
  5
EC6
 10
168.123
 20
94.7321
 30
0.000000
  70
    32
  0
VERTEX
  8
0
  5
EC7
 10
168.122
 20
94.7379
 30
0.000000
  70
    32
  0
VERTEX
  8
0
  5
EC8
 10
168.121
 20
94.7437
 30
0.000000
  70
    32
  0
VERTEX
  8
0
  5
EC9
 10
168.121
 20
94.7494
 30
0.000000
  70
    32
  0
VERTEX
  8
0
  5
ECA
 10
168.120
 20
94.7552
 30
0.000000
  70
    32
  0
VERTEX
  8
0
  5
ECB
 10
168.119
 20
94.7609
 30
0.000000
  70
    32
  0
VERTEX
  8
0
  5
ECC
 10
168.118
 20
94.7666
 30
0.000000
  70
    32
  0
VERTEX
  8
0
  5
ECD
 10
168.117
 20
94.7722
 30
0.000000
  70
    32
  0
VERTEX
  8
0
  5
ECE
 10
168.117
 20
94.7778
 30
0.000000
  70
    32
  0
VERTEX
  8
0
  5
ECF
 10
168.116
 20
94.7834
 30
0.000000
  70
    32
  0
VERTEX
  8
0
  5
ED0
 10
168.115
 20
94.7889
 30
0.000000
  70
    32
  0
VERTEX
  8
0
  5
ED1
 10
168.114
 20
94.7945
 30
0.000000
  70
    32
  0
VERTEX
  8
0
  5
ED2
 10
168.113
 20
94.8000
 30
0.000000
  70
    32
  0
VERTEX
  8
0
  5
ED3
 10
168.112
 20
94.8054
 30
0.000000
  70
    32
  0
VERTEX
  8
0
  5
ED4
 10
168.111
 20
94.8108
 30
0.000000
  70
    32
  0
VERTEX
  8
0
  5
ED5
 10
168.110
 20
94.8162
 30
0.000000
  70
    32
  0
VERTEX
  8
0
  5
ED6
 10
168.109
 20
94.8215
 30
0.000000
  70
    32
  0
VERTEX
  8
0
  5
ED7
 10
168.108
 20
94.8268
 30
0.000000
  70
    32
  0
VERTEX
  8
0
  5
ED8
 10
168.107
 20
94.8321
 30
0.000000
  70
    32
  0
VERTEX
  8
0
  5
ED9
 10
168.105
 20
94.8373
 30
0.000000
  70
    32
  0
VERTEX
  8
0
  5
EDA
 10
168.104
 20
94.8425
 30
0.000000
  70
    32
  0
VERTEX
  8
0
  5
EDB
 10
168.103
 20
94.8476
 30
0.000000
  70
    32
  0
VERTEX
  8
0
  5
EDC
 10
168.102
 20
94.8527
 30
0.000000
  70
    32
  0
VERTEX
  8
0
  5
EDD
 10
168.101
 20
94.8578
 30
0.000000
  70
    32
  0
VERTEX
  8
0
  5
EDE
 10
168.100
 20
94.8628
 30
0.000000
  70
    32
  0
VERTEX
  8
0
  5
EDF
 10
168.098
 20
94.8678
 30
0.000000
  70
    32
  0
VERTEX
  8
0
  5
EE0
 10
168.097
 20
94.8727
 30
0.000000
  70
    32
  0
VERTEX
  8
0
  5
EE1
 10
168.096
 20
94.8776
 30
0.000000
  70
    32
  0
VERTEX
  8
0
  5
EE2
 10
168.094
 20
94.8824
 30
0.000000
  70
    32
  0
VERTEX
  8
0
  5
EE3
 10
168.093
 20
94.8872
 30
0.000000
  70
    32
  0
VERTEX
  8
0
  5
EE4
 10
168.092
 20
94.8919
 30
0.000000
  70
    32
  0
VERTEX
  8
0
  5
EE5
 10
168.090
 20
94.8966
 30
0.000000
  70
    32
  0
VERTEX
  8
0
  5
EE6
 10
168.089
 20
94.9013
 30
0.000000
  70
    32
  0
VERTEX
  8
0
  5
EE7
 10
168.088
 20
94.9058
 30
0.000000
  70
    32
  0
VERTEX
  8
0
  5
EE8
 10
168.086
 20
94.9104
 30
0.000000
  70
    32
  0
VERTEX
  8
0
  5
EE9
 10
168.085
 20
94.9149
 30
0.000000
  70
    32
  0
VERTEX
  8
0
  5
EEA
 10
168.083
 20
94.9193
 30
0.000000
  70
    32
  0
VERTEX
  8
0
  5
EEB
 10
168.082
 20
94.9237
 30
0.000000
  70
    32
  0
VERTEX
  8
0
  5
EEC
 10
168.080
 20
94.9280
 30
0.000000
  70
    32
  0
VERTEX
  8
0
  5
EED
 10
168.079
 20
94.9323
 30
0.000000
  70
    32
  0
VERTEX
  8
0
  5
EEE
 10
168.077
 20
94.9365
 30
0.000000
  70
    32
  0
VERTEX
  8
0
  5
EEF
 10
168.076
 20
94.9407
 30
0.000000
  70
    32
  0
VERTEX
  8
0
  5
EF0
 10
168.074
 20
94.9448
 30
0.000000
  70
    32
  0
VERTEX
  8
0
  5
EF1
 10
168.072
 20
94.9488
 30
0.000000
  70
    32
  0
VERTEX
  8
0
  5
EF2
 10
168.071
 20
94.9528
 30
0.000000
  70
    32
  0
VERTEX
  8
0
  5
EF3
 10
168.069
 20
94.9568
 30
0.000000
  70
    32
  0
VERTEX
  8
0
  5
EF4
 10
168.068
 20
94.9606
 30
0.000000
  70
    32
  0
VERTEX
  8
0
  5
EF5
 10
168.066
 20
94.9645
 30
0.000000
  70
    32
  0
VERTEX
  8
0
  5
EF6
 10
168.064
 20
94.9682
 30
0.000000
  70
    32
  0
VERTEX
  8
0
  5
EF7
 10
168.063
 20
94.9719
 30
0.000000
  70
    32
  0
VERTEX
  8
0
  5
EF8
 10
168.061
 20
94.9755
 30
0.000000
  70
    32
  0
VERTEX
  8
0
  5
EF9
 10
168.059
 20
94.9791
 30
0.000000
  70
    32
  0
VERTEX
  8
0
  5
EFA
 10
168.057
 20
94.9826
 30
0.000000
  70
    32
  0
VERTEX
  8
0
  5
EFB
 10
168.056
 20
94.9861
 30
0.000000
  70
    32
  0
VERTEX
  8
0
  5
EFC
 10
168.054
 20
94.9895
 30
0.000000
  70
    32
  0
VERTEX
  8
0
  5
EFD
 10
168.052
 20
94.9928
 30
0.000000
  70
    32
  0
VERTEX
  8
0
  5
EFE
 10
168.050
 20
94.9961
 30
0.000000
  70
    32
  0
VERTEX
  8
0
  5
EFF
 10
168.048
 20
94.9993
 30
0.000000
  70
    32
  0
VERTEX
  8
0
  5
F00
 10
168.047
 20
95.0024
 30
0.000000
  70
    32
  0
VERTEX
  8
0
  5
F01
 10
168.045
 20
95.0055
 30
0.000000
  70
    32
  0
VERTEX
  8
0
  5
F02
 10
168.043
 20
95.0085
 30
0.000000
  70
    32
  0
VERTEX
  8
0
  5
F03
 10
168.041
 20
95.0114
 30
0.000000
  70
    32
  0
VERTEX
  8
0
  5
F04
 10
168.039
 20
95.0143
 30
0.000000
  70
    32
  0
VERTEX
  8
0
  5
F05
 10
168.037
 20
95.0171
 30
0.000000
  70
    32
  0
VERTEX
  8
0
  5
F06
 10
168.035
 20
95.0198
 30
0.000000
  70
    32
  0
VERTEX
  8
0
  5
F07
 10
168.034
 20
95.0225
 30
0.000000
  70
    32
  0
VERTEX
  8
0
  5
F08
 10
168.032
 20
95.0251
 30
0.000000
  70
    32
  0
VERTEX
  8
0
  5
F09
 10
168.030
 20
95.0276
 30
0.000000
  70
    32
  0
VERTEX
  8
0
  5
F0A
 10
168.028
 20
95.0301
 30
0.000000
  70
    32
  0
VERTEX
  8
0
  5
F0B
 10
168.026
 20
95.0325
 30
0.000000
  70
    32
  0
VERTEX
  8
0
  5
F0C
 10
168.024
 20
95.0348
 30
0.000000
  70
    32
  0
VERTEX
  8
0
  5
F0D
 10
168.022
 20
95.0370
 30
0.000000
  70
    32
  0
VERTEX
  8
0
  5
F0E
 10
168.020
 20
95.0392
 30
0.000000
  70
    32
  0
VERTEX
  8
0
  5
F0F
 10
168.018
 20
95.0413
 30
0.000000
  70
    32
  0
VERTEX
  8
0
  5
F10
 10
168.016
 20
95.0434
 30
0.000000
  70
    32
  0
VERTEX
  8
0
  5
F11
 10
168.014
 20
95.0453
 30
0.000000
  70
    32
  0
VERTEX
  8
0
  5
F12
 10
168.012
 20
95.0472
 30
0.000000
  70
    32
  0
VERTEX
  8
0
  5
F13
 10
168.010
 20
95.0491
 30
0.000000
  70
    32
  0
VERTEX
  8
0
  5
F14
 10
168.008
 20
95.0508
 30
0.000000
  70
    32
  0
VERTEX
  8
0
  5
F15
 10
168.006
 20
95.0525
 30
0.000000
  70
    32
  0
VERTEX
  8
0
  5
F16
 10
168.004
 20
95.0541
 30
0.000000
  70
    32
  0
VERTEX
  8
0
  5
F17
 10
168.002
 20
95.0556
 30
0.000000
  70
    32
  0
VERTEX
  8
0
  5
F18
 10
168.000
 20
95.0571
 30
0.000000
  70
    32
  0
VERTEX
  8
0
  5
F19
 10
167.998
 20
95.0585
 30
0.000000
  70
    32
  0
VERTEX
  8
0
  5
F1A
 10
167.996
 20
95.0598
 30
0.000000
  70
    32
  0
VERTEX
  8
0
  5
F1B
 10
167.993
 20
95.0610
 30
0.000000
  70
    32
  0
VERTEX
  8
0
  5
F1C
 10
167.991
 20
95.0622
 30
0.000000
  70
    32
  0
VERTEX
  8
0
  5
F1D
 10
167.989
 20
95.0633
 30
0.000000
  70
    32
  0
VERTEX
  8
0
  5
F1E
 10
167.987
 20
95.0643
 30
0.000000
  70
    32
  0
VERTEX
  8
0
  5
F1F
 10
167.985
 20
95.0652
 30
0.000000
  70
    32
  0
VERTEX
  8
0
  5
F20
 10
167.983
 20
95.0661
 30
0.000000
  70
    32
  0
VERTEX
  8
0
  5
F21
 10
167.981
 20
95.0669
 30
0.000000
  70
    32
  0
VERTEX
  8
0
  5
F22
 10
167.979
 20
95.0676
 30
0.000000
  70
    32
  0
VERTEX
  8
0
  5
F23
 10
167.977
 20
95.0682
 30
0.000000
  70
    32
  0
VERTEX
  8
0
  5
F24
 10
167.975
 20
95.0688
 30
0.000000
  70
    32
  0
VERTEX
  8
0
  5
F25
 10
167.972
 20
95.0693
 30
0.000000
  70
    32
  0
VERTEX
  8
0
  5
F26
 10
167.970
 20
95.0697
 30
0.000000
  70
    32
  0
VERTEX
  8
0
  5
F27
 10
167.968
 20
95.0701
 30
0.000000
  70
    32
  0
VERTEX
  8
0
  5
F28
 10
167.966
 20
95.0703
 30
0.000000
  70
    32
  0
VERTEX
  8
0
  5
F29
 10
167.964
 20
95.0705
 30
0.000000
  70
    32
  0
VERTEX
  8
0
  5
F2A
 10
167.962
 20
95.0706
 30
0.000000
  70
    32
  0
VERTEX
  8
0
  5
F2B
 10
167.960
 20
95.0707
 30
0.000000
  70
    32
  0
SEQEND
  8
0
  5
F2C
  0
ARC
  5
AAE
  8
0
 10
158.16545660062209
 20
95.383047173675209
 30
0.0
 40
10.0
 50
331.23365111884709
 51
355.32963180574501
  0
ARC
  5
AAF
  8
0
 10
185.24505097559339
 20
95.383047173675209
 30
0.0
 40
10.0
 50
184.6703681942551
 51
208.76634888115291
  0
POLYLINE
  5
AB0
  8
0
 10
175.27825469204197
 20
94.56881653194695
 30
0.0
 66
     1
 70
     8
  0
VERTEX
  8
0
  5
F2D
 10
175.278
 20
94.5688
 30
0.000000
  70
    32
  0
VERTEX
  8
0
  5
F2E
 10
175.278
 20
94.5750
 30
0.000000
  70
    32
  0
VERTEX
  8
0
  5
F2F
 10
175.278
 20
94.5811
 30
0.000000
  70
    32
  0
VERTEX
  8
0
  5
F30
 10
175.278
 20
94.5873
 30
0.000000
  70
    32
  0
VERTEX
  8
0
  5
F31
 10
175.278
 20
94.5934
 30
0.000000
  70
    32
  0
VERTEX
  8
0
  5
F32
 10
175.279
 20
94.5996
 30
0.000000
  70
    32
  0
VERTEX
  8
0
  5
F33
 10
175.279
 20
94.6057
 30
0.000000
  70
    32
  0
VERTEX
  8
0
  5
F34
 10
175.279
 20
94.6119
 30
0.000000
  70
    32
  0
VERTEX
  8
0
  5
F35
 10
175.279
 20
94.6180
 30
0.000000
  70
    32
  0
VERTEX
  8
0
  5
F36
 10
175.279
 20
94.6241
 30
0.000000
  70
    32
  0
VERTEX
  8
0
  5
F37
 10
175.280
 20
94.6303
 30
0.000000
  70
    32
  0
VERTEX
  8
0
  5
F38
 10
175.280
 20
94.6364
 30
0.000000
  70
    32
  0
VERTEX
  8
0
  5
F39
 10
175.280
 20
94.6425
 30
0.000000
  70
    32
  0
VERTEX
  8
0
  5
F3A
 10
175.280
 20
94.6485
 30
0.000000
  70
    32
  0
VERTEX
  8
0
  5
F3B
 10
175.281
 20
94.6546
 30
0.000000
  70
    32
  0
VERTEX
  8
0
  5
F3C
 10
175.281
 20
94.6607
 30
0.000000
  70
    32
  0
VERTEX
  8
0
  5
F3D
 10
175.282
 20
94.6667
 30
0.000000
  70
    32
  0
VERTEX
  8
0
  5
F3E
 10
175.282
 20
94.6728
 30
0.000000
  70
    32
  0
VERTEX
  8
0
  5
F3F
 10
175.282
 20
94.6788
 30
0.000000
  70
    32
  0
VERTEX
  8
0
  5
F40
 10
175.283
 20
94.6848
 30
0.000000
  70
    32
  0
VERTEX
  8
0
  5
F41
 10
175.283
 20
94.6908
 30
0.000000
  70
    32
  0
VERTEX
  8
0
  5
F42
 10
175.284
 20
94.6967
 30
0.000000
  70
    32
  0
VERTEX
  8
0
  5
F43
 10
175.285
 20
94.7027
 30
0.000000
  70
    32
  0
VERTEX
  8
0
  5
F44
 10
175.285
 20
94.7086
 30
0.000000
  70
    32
  0
VERTEX
  8
0
  5
F45
 10
175.286
 20
94.7145
 30
0.000000
  70
    32
  0
VERTEX
  8
0
  5
F46
 10
175.286
 20
94.7204
 30
0.000000
  70
    32
  0
VERTEX
  8
0
  5
F47
 10
175.287
 20
94.7262
 30
0.000000
  70
    32
  0
VERTEX
  8
0
  5
F48
 10
175.288
 20
94.7321
 30
0.000000
  70
    32
  0
VERTEX
  8
0
  5
F49
 10
175.288
 20
94.7379
 30
0.000000
  70
    32
  0
VERTEX
  8
0
  5
F4A
 10
175.289
 20
94.7437
 30
0.000000
  70
    32
  0
VERTEX
  8
0
  5
F4B
 10
175.290
 20
94.7494
 30
0.000000
  70
    32
  0
VERTEX
  8
0
  5
F4C
 10
175.291
 20
94.7552
 30
0.000000
  70
    32
  0
VERTEX
  8
0
  5
F4D
 10
175.291
 20
94.7609
 30
0.000000
  70
    32
  0
VERTEX
  8
0
  5
F4E
 10
175.292
 20
94.7666
 30
0.000000
  70
    32
  0
VERTEX
  8
0
  5
F4F
 10
175.293
 20
94.7722
 30
0.000000
  70
    32
  0
VERTEX
  8
0
  5
F50
 10
175.294
 20
94.7778
 30
0.000000
  70
    32
  0
VERTEX
  8
0
  5
F51
 10
175.295
 20
94.7834
 30
0.000000
  70
    32
  0
VERTEX
  8
0
  5
F52
 10
175.296
 20
94.7889
 30
0.000000
  70
    32
  0
VERTEX
  8
0
  5
F53
 10
175.297
 20
94.7945
 30
0.000000
  70
    32
  0
VERTEX
  8
0
  5
F54
 10
175.298
 20
94.8000
 30
0.000000
  70
    32
  0
VERTEX
  8
0
  5
F55
 10
175.299
 20
94.8054
 30
0.000000
  70
    32
  0
VERTEX
  8
0
  5
F56
 10
175.300
 20
94.8108
 30
0.000000
  70
    32
  0
VERTEX
  8
0
  5
F57
 10
175.301
 20
94.8162
 30
0.000000
  70
    32
  0
VERTEX
  8
0
  5
F58
 10
175.302
 20
94.8215
 30
0.000000
  70
    32
  0
VERTEX
  8
0
  5
F59
 10
175.303
 20
94.8268
 30
0.000000
  70
    32
  0
VERTEX
  8
0
  5
F5A
 10
175.304
 20
94.8321
 30
0.000000
  70
    32
  0
VERTEX
  8
0
  5
F5B
 10
175.305
 20
94.8373
 30
0.000000
  70
    32
  0
VERTEX
  8
0
  5
F5C
 10
175.306
 20
94.8425
 30
0.000000
  70
    32
  0
VERTEX
  8
0
  5
F5D
 10
175.307
 20
94.8476
 30
0.000000
  70
    32
  0
VERTEX
  8
0
  5
F5E
 10
175.309
 20
94.8527
 30
0.000000
  70
    32
  0
VERTEX
  8
0
  5
F5F
 10
175.310
 20
94.8578
 30
0.000000
  70
    32
  0
VERTEX
  8
0
  5
F60
 10
175.311
 20
94.8628
 30
0.000000
  70
    32
  0
VERTEX
  8
0
  5
F61
 10
175.312
 20
94.8678
 30
0.000000
  70
    32
  0
VERTEX
  8
0
  5
F62
 10
175.313
 20
94.8727
 30
0.000000
  70
    32
  0
VERTEX
  8
0
  5
F63
 10
175.315
 20
94.8776
 30
0.000000
  70
    32
  0
VERTEX
  8
0
  5
F64
 10
175.316
 20
94.8824
 30
0.000000
  70
    32
  0
VERTEX
  8
0
  5
F65
 10
175.317
 20
94.8872
 30
0.000000
  70
    32
  0
VERTEX
  8
0
  5
F66
 10
175.319
 20
94.8919
 30
0.000000
  70
    32
  0
VERTEX
  8
0
  5
F67
 10
175.320
 20
94.8966
 30
0.000000
  70
    32
  0
VERTEX
  8
0
  5
F68
 10
175.322
 20
94.9013
 30
0.000000
  70
    32
  0
VERTEX
  8
0
  5
F69
 10
175.323
 20
94.9058
 30
0.000000
  70
    32
  0
VERTEX
  8
0
  5
F6A
 10
175.324
 20
94.9104
 30
0.000000
  70
    32
  0
VERTEX
  8
0
  5
F6B
 10
175.326
 20
94.9149
 30
0.000000
  70
    32
  0
VERTEX
  8
0
  5
F6C
 10
175.327
 20
94.9193
 30
0.000000
  70
    32
  0
VERTEX
  8
0
  5
F6D
 10
175.329
 20
94.9237
 30
0.000000
  70
    32
  0
VERTEX
  8
0
  5
F6E
 10
175.330
 20
94.9280
 30
0.000000
  70
    32
  0
VERTEX
  8
0
  5
F6F
 10
175.332
 20
94.9323
 30
0.000000
  70
    32
  0
VERTEX
  8
0
  5
F70
 10
175.333
 20
94.9365
 30
0.000000
  70
    32
  0
VERTEX
  8
0
  5
F71
 10
175.335
 20
94.9407
 30
0.000000
  70
    32
  0
VERTEX
  8
0
  5
F72
 10
175.336
 20
94.9448
 30
0.000000
  70
    32
  0
VERTEX
  8
0
  5
F73
 10
175.338
 20
94.9488
 30
0.000000
  70
    32
  0
VERTEX
  8
0
  5
F74
 10
175.340
 20
94.9528
 30
0.000000
  70
    32
  0
VERTEX
  8
0
  5
F75
 10
175.341
 20
94.9568
 30
0.000000
  70
    32
  0
VERTEX
  8
0
  5
F76
 10
175.343
 20
94.9606
 30
0.000000
  70
    32
  0
VERTEX
  8
0
  5
F77
 10
175.345
 20
94.9645
 30
0.000000
  70
    32
  0
VERTEX
  8
0
  5
F78
 10
175.346
 20
94.9682
 30
0.000000
  70
    32
  0
VERTEX
  8
0
  5
F79
 10
175.348
 20
94.9719
 30
0.000000
  70
    32
  0
VERTEX
  8
0
  5
F7A
 10
175.350
 20
94.9755
 30
0.000000
  70
    32
  0
VERTEX
  8
0
  5
F7B
 10
175.351
 20
94.9791
 30
0.000000
  70
    32
  0
VERTEX
  8
0
  5
F7C
 10
175.353
 20
94.9826
 30
0.000000
  70
    32
  0
VERTEX
  8
0
  5
F7D
 10
175.355
 20
94.9861
 30
0.000000
  70
    32
  0
VERTEX
  8
0
  5
F7E
 10
175.357
 20
94.9895
 30
0.000000
  70
    32
  0
VERTEX
  8
0
  5
F7F
 10
175.358
 20
94.9928
 30
0.000000
  70
    32
  0
VERTEX
  8
0
  5
F80
 10
175.360
 20
94.9961
 30
0.000000
  70
    32
  0
VERTEX
  8
0
  5
F81
 10
175.362
 20
94.9993
 30
0.000000
  70
    32
  0
VERTEX
  8
0
  5
F82
 10
175.364
 20
95.0024
 30
0.000000
  70
    32
  0
VERTEX
  8
0
  5
F83
 10
175.366
 20
95.0055
 30
0.000000
  70
    32
  0
VERTEX
  8
0
  5
F84
 10
175.368
 20
95.0085
 30
0.000000
  70
    32
  0
VERTEX
  8
0
  5
F85
 10
175.369
 20
95.0114
 30
0.000000
  70
    32
  0
VERTEX
  8
0
  5
F86
 10
175.371
 20
95.0143
 30
0.000000
  70
    32
  0
VERTEX
  8
0
  5
F87
 10
175.373
 20
95.0171
 30
0.000000
  70
    32
  0
VERTEX
  8
0
  5
F88
 10
175.375
 20
95.0198
 30
0.000000
  70
    32
  0
VERTEX
  8
0
  5
F89
 10
175.377
 20
95.0225
 30
0.000000
  70
    32
  0
VERTEX
  8
0
  5
F8A
 10
175.379
 20
95.0251
 30
0.000000
  70
    32
  0
VERTEX
  8
0
  5
F8B
 10
175.381
 20
95.0276
 30
0.000000
  70
    32
  0
VERTEX
  8
0
  5
F8C
 10
175.383
 20
95.0301
 30
0.000000
  70
    32
  0
VERTEX
  8
0
  5
F8D
 10
175.385
 20
95.0325
 30
0.000000
  70
    32
  0
VERTEX
  8
0
  5
F8E
 10
175.387
 20
95.0348
 30
0.000000
  70
    32
  0
VERTEX
  8
0
  5
F8F
 10
175.389
 20
95.0370
 30
0.000000
  70
    32
  0
VERTEX
  8
0
  5
F90
 10
175.391
 20
95.0392
 30
0.000000
  70
    32
  0
VERTEX
  8
0
  5
F91
 10
175.393
 20
95.0413
 30
0.000000
  70
    32
  0
VERTEX
  8
0
  5
F92
 10
175.395
 20
95.0434
 30
0.000000
  70
    32
  0
VERTEX
  8
0
  5
F93
 10
175.397
 20
95.0453
 30
0.000000
  70
    32
  0
VERTEX
  8
0
  5
F94
 10
175.399
 20
95.0472
 30
0.000000
  70
    32
  0
VERTEX
  8
0
  5
F95
 10
175.401
 20
95.0491
 30
0.000000
  70
    32
  0
VERTEX
  8
0
  5
F96
 10
175.403
 20
95.0508
 30
0.000000
  70
    32
  0
VERTEX
  8
0
  5
F97
 10
175.405
 20
95.0525
 30
0.000000
  70
    32
  0
VERTEX
  8
0
  5
F98
 10
175.407
 20
95.0541
 30
0.000000
  70
    32
  0
VERTEX
  8
0
  5
F99
 10
175.409
 20
95.0556
 30
0.000000
  70
    32
  0
VERTEX
  8
0
  5
F9A
 10
175.411
 20
95.0571
 30
0.000000
  70
    32
  0
VERTEX
  8
0
  5
F9B
 10
175.413
 20
95.0585
 30
0.000000
  70
    32
  0
VERTEX
  8
0
  5
F9C
 10
175.415
 20
95.0598
 30
0.000000
  70
    32
  0
VERTEX
  8
0
  5
F9D
 10
175.417
 20
95.0610
 30
0.000000
  70
    32
  0
VERTEX
  8
0
  5
F9E
 10
175.419
 20
95.0622
 30
0.000000
  70
    32
  0
VERTEX
  8
0
  5
F9F
 10
175.421
 20
95.0633
 30
0.000000
  70
    32
  0
VERTEX
  8
0
  5
FA0
 10
175.423
 20
95.0643
 30
0.000000
  70
    32
  0
VERTEX
  8
0
  5
FA1
 10
175.425
 20
95.0652
 30
0.000000
  70
    32
  0
VERTEX
  8
0
  5
FA2
 10
175.427
 20
95.0661
 30
0.000000
  70
    32
  0
VERTEX
  8
0
  5
FA3
 10
175.430
 20
95.0669
 30
0.000000
  70
    32
  0
VERTEX
  8
0
  5
FA4
 10
175.432
 20
95.0676
 30
0.000000
  70
    32
  0
VERTEX
  8
0
  5
FA5
 10
175.434
 20
95.0682
 30
0.000000
  70
    32
  0
VERTEX
  8
0
  5
FA6
 10
175.436
 20
95.0688
 30
0.000000
  70
    32
  0
VERTEX
  8
0
  5
FA7
 10
175.438
 20
95.0693
 30
0.000000
  70
    32
  0
VERTEX
  8
0
  5
FA8
 10
175.440
 20
95.0697
 30
0.000000
  70
    32
  0
VERTEX
  8
0
  5
FA9
 10
175.442
 20
95.0701
 30
0.000000
  70
    32
  0
VERTEX
  8
0
  5
FAA
 10
175.444
 20
95.0703
 30
0.000000
  70
    32
  0
VERTEX
  8
0
  5
FAB
 10
175.446
 20
95.0705
 30
0.000000
  70
    32
  0
VERTEX
  8
0
  5
FAC
 10
175.449
 20
95.0706
 30
0.000000
  70
    32
  0
VERTEX
  8
0
  5
FAD
 10
175.451
 20
95.0707
 30
0.000000
  70
    32
  0
SEQEND
  8
0
  5
FAE
  0
LINE
  5
AB4
  8
0
 10
178.7052537881078
 20
99.582173343483859
 30
0.0
 11
178.2052537881078
 21
80.070658012374864
 31
0.0
  0
LINE
  5
AB5
  8
0
 10
164.7052537881078
 20
99.582173343483859
 30
0.0
 11
165.2052537881078
 21
80.070658012374864
 31
0.0
  0
LINE
  5
B60
  8
0
 10
42.007478422092689
 20
99.988861242650358
 30
0.0
 11
42.007478422092689
 21
98.864757312671088
 31
0.0
  0
LINE
  5
B61
  8
0
 10
34.007478422092767
 20
99.988861242650415
 30
0.0
 11
34.007478422092731
 21
98.864757312671074
 31
0.0
  0
LINE
  5
B64
  8
0
 10
40.76427003554484
 20
100.57065801237481
 30
0.0
 11
35.250686808640573
 21
100.57065801237481
 31
0.0
  0
CIRCLE
  5
B70
  8
0
 10
89.582032253806247
 20
138.13457632800669
 30
0.0
 40
4.0
  0
ARC
  5
B73
  8
0
 10
87.751370347794307
 20
139.1915094722379
 30
0.0
 40
0.6912500000000005
 50
309.68887794065949
 51
16.658241772777039
  0
ARC
  5
B74
  8
0
 10
88.792032253806283
 20
139.50289646598611
 30
0.0
 40
0.3949999999999998
 50
43.341758227222279
 51
196.65824177277699
  0
ARC
  5
B75
  8
0
 10
89.582032253806275
 20
140.24844261646911
 30
0.0
 40
0.6912499999999989
 50
223.3417582272223
 51
316.65824177277773
  0
ARC
  5
B76
  8
0
 10
90.372032253806239
 20
139.50289646598611
 30
0.0
 40
0.3950000000000002
 50
343.3417582272229
 51
136.6582417727777
  0
ARC
  5
B77
  8
0
 10
87.751370347794307
 20
137.07764318377551
 30
0.0
 40
0.691250000000001
 50
343.3417582272229
 51
50.311122059331304
  0
ARC
  5
B78
  8
0
 10
88.792032253806283
 20
136.76625619002729
 30
0.0
 40
0.3950000000000001
 50
163.3417582272229
 51
316.65824177277773
  0
ARC
  5
B79
  8
0
 10
89.582032253806275
 20
136.0207100395443
 30
0.0
 40
0.6912500000000003
 50
43.341758227222279
 51
136.65824177277651
  0
ARC
  5
B7A
  8
0
 10
90.372032253806239
 20
136.76625619002729
 30
0.0
 40
0.3949999999999998
 50
223.3417582272223
 51
16.658241772777039
  0
ARC
  5
B7B
  8
0
 10
91.412694159818216
 20
137.07764318377551
 30
0.0
 40
0.6912500000000003
 50
129.6888779406687
 51
196.65824177277699
  0
ARC
  5
B7C
  8
0
 10
91.412694159818216
 20
139.1915094722379
 30
0.0
 40
0.6912500000000011
 50
163.3417582272229
 51
230.31112205934281
  0
ARC
  5
B7D
  8
0
 10
38.007478422092689
 20
93.060658012374844
 30
0.0
 40
8.0
 50
60.000000000000277
 51
69.842683784424523
  0
LINE
  5
B7E
  8
0
 10
34.007478422092767
 20
99.988861242650415
 30
0.0
 11
42.007478422092689
 21
99.988861242650358
 31
0.0
  0
ARC
  5
B7F
  8
0
 10
38.007478422092689
 20
93.060658012374844
 30
0.0
 40
8.0
 50
110.15731621557541
 51
119.9999999999997
  0
LINE
  5
B80
  8
0
 10
86.832032253806247
 20
137.60957632800671
 30
0.0
 11
88.192815352940315
 21
137.60957632800671
 31
0.0
  0
LINE
  5
B81
  8
0
 10
86.832032253806247
 20
138.65957632800669
 30
0.0
 11
88.192815352940215
 21
138.65957632800669
 31
0.0
  0
LINE
  5
B82
  8
0
 10
90.971249154672307
 20
138.65957632800669
 30
0.0
 11
92.332032253806247
 21
138.65957632800669
 31
0.0
  0
LINE
  5
B83
  8
0
 10
90.971249154672236
 20
137.60957632800671
 30
0.0
 11
92.332032253806247
 21
137.60957632800671
 31
0.0
  0
ARC
  5
B84
  8
0
 10
89.582032253806247
 20
138.13457632800669
 30
0.0
 40
2.7567916134521511
 50
355.97735839170269
 51
4.0226416083006269
  0
LINE
  5
B85
  8
0
 10
92.332032253806219
 20
138.65957632800669
 30
0.0
 11
92.332032253806247
 21
137.60957632800671
 31
0.0
  0
LINE
  5
B86
  8
0
 10
86.832032253806275
 20
138.65957632800669
 30
0.0
 11
86.832032253806275
 21
137.60957632800671
 31
0.0
  0
ARC
  5
B87
  8
0
 10
89.582032253806247
 20
138.13457632800669
 30
0.0
 40
2.7567916134521511
 50
10.9783913299381
 51
169.02160867006191
  0
ARC
  5
B88
  8
0
 10
89.582032253806247
 20
138.13457632800669
 30
0.0
 40
2.7567916134521511
 50
190.97839132993809
 51
349.02160867006188
  0
ARC
  5
B89
  8
0
 10
89.582032253806247
 20
138.13457632800669
 30
0.0
 40
2.7567916134521511
 50
175.9773583916961
 51
184.02264160830379
  0
ARC
  5
B8B
  8
0
 10
89.572032253806242
 20
93.060658012374844
 30
0.0
 40
8.0
 50
110.15731621557541
 51
119.9999999999997
  0
LINE
  5
B8C
  8
0
 10
85.572032253806313
 20
99.988861242650415
 30
0.0
 11
90.5423045336602
 21
99.988861242650387
 31
0.0
  0
ARC
  5
B8D
  8
0
 10
89.572032253806242
 20
93.060658012374844
 30
0.0
 40
8.0
 50
69.72848432726677
 51
69.842683784424523
  0
LINE
  5
B8E
  8
0
 10
92.328823867258379
 20
100.57065801237481
 30
0.0
 11
86.815240640354119
 21
100.57065801237481
 31
0.0
  0
LINE
  5
B90
  8
0
 10
85.572032253806313
 20
99.988861242650415
 30
0.0
 11
85.57203225380627
 21
98.267250624129616
 31
0.0
  0
POLYLINE
  5
B96
  8
0
 66
     1
 10
0.0
 20
0.0
 30
0.0
 70
     1
  0
VERTEX
  5
B97
  8
0
 10
38.007478422092703
 20
101.4489772105608
 30
0.0
 42
0.0369961751365402
  0
VERTEX
  5
BA6
  8
0
 10
36.083260393701948
 20
101.306404654725
 30
0.0
 42
0.0493901968538059
  0
VERTEX
  5
B98
  8
0
 10
34.68018731866421
 20
100.9531923670566
 30
0.0
 42
0.0927145054771269
 70
     2
 50
199.78524215858459
  0
VERTEX
  5
BA7
  8
0
 10
33.544090854760341
 20
100.2872013255902
 30
0.0
 42
0.2172434185878845
 50
199.78524215858459
  0
VERTEX
  5
B99
  8
0
 10
33.301978217660782
 20
99.756261873849851
 30
0.0
 42
0.2172434185878699
  0
VERTEX
  5
BA0
  8
0
 10
33.544090854760327
 20
99.225322422109429
 30
0.0
 42
0.0927145054771203
  0
VERTEX
  5
B9A
  8
0
 10
34.68018731866421
 20
98.559331380643059
 30
0.0
 42
0.0493901968537974
 70
     2
 50
340.21475784141541
  0
VERTEX
  5
BA1
  8
0
 10
36.083260393701948
 20
98.206119092974632
 30
0.0
 42
0.0369961751365335
 50
340.21475784141541
  0
VERTEX
  5
B9B
  8
0
 10
38.007478422092703
 20
98.06354653713889
 30
0.0
 42
0.0369961751365266
  0
VERTEX
  5
BA2
  8
0
 10
39.9316964504834
 20
98.206119092974603
 30
0.0
 42
0.0493901968537918
  0
VERTEX
  5
B9C
  8
0
 10
41.334769525521189
 20
98.559331380643059
 30
0.0
 42
0.0927145054771273
 70
     2
 50
19.78524215858458
  0
VERTEX
  5
BA3
  8
0
 10
42.470865989425079
 20
99.225322422109457
 30
0.0
 42
0.2172434185878723
 50
19.78524215858458
  0
VERTEX
  5
B9D
  8
0
 10
42.712978626524617
 20
99.756261873849851
 30
0.0
 42
0.2172434185878877
  0
VERTEX
  5
BA4
  8
0
 10
42.470865989425043
 20
100.2872013255903
 30
0.0
 42
0.0927145054771215
  0
VERTEX
  5
B9E
  8
0
 10
41.334769525521203
 20
100.9531923670566
 30
0.0
 42
0.0493901968538019
 70
     2
 50
160.21475784141541
  0
VERTEX
  5
BA5
  8
0
 10
39.9316964504834
 20
101.306404654725
 30
0.0
 42
0.0369961751365346
 50
160.21475784141541
  0
SEQEND
  5
B9F
  8
0
  0
TEXT
  5
C94
  8
0
 62
     3
 10
0.0
 20
0.0
 30
0.0
 40
10.0
  1
FKF5-BR
  7
STANDARD1
  0
ENDSEC
  0
EOF
