  0
SECTION
  2
HEADER
  9
$ACADVER
  1
AC1009
  9
$INSBASE
 10
0.0
 20
0.0
 30
0.0
  9
$EXTMIN
 10
0.0
 20
-2.960436562073669
 30
0.0
  9
$EXTMAX
 10
339.075500263256
 20
278.27179761155742
 30
0.0
  9
$LIMMIN
 10
0.0
 20
0.0
  9
$LIMMAX
 10
187.5
 20
135.0
  9
$ORTHOMODE
 70
     0
  9
$REGENMODE
 70
     1
  9
$FILLMODE
 70
     1
  9
$QTEXTMODE
 70
     0
  9
$MIRRTEXT
 70
     0
  9
$DRAGMODE
 70
     2
  9
$LTSCALE
 40
10.0
  9
$OSMODE
 70
    55
  9
$ATTMODE
 70
     1
  9
$TEXTSIZE
 40
4.0
  9
$TRACEWID
 40
0.05
  9
$TEXTSTYLE
  7
STANDARD
  9
$CLAYER
  8
0
  9
$CELTYPE
  6
BYLAYER
  9
$CECOLOR
 62
   256
  9
$DIMSCALE
 40
0.5
  9
$DIMASZ
 40
3.0
  9
$DIMEXO
 40
2.0
  9
$DIMDLI
 40
0.38
  9
$DIMRND
 40
0.0
  9
$DIMDLE
 40
0.0
  9
$DIMEXE
 40
2.0
  9
$DIMTP
 40
0.0
  9
$DIMTM
 40
0.0
  9
$DIMTXT
 40
3.0
  9
$DIMCEN
 40
0.0
  9
$DIMTSZ
 40
0.0
  9
$DIMTOL
 70
     0
  9
$DIMLIM
 70
     0
  9
$DIMTIH
 70
     0
  9
$DIMTOH
 70
     0
  9
$DIMSE1
 70
     0
  9
$DIMSE2
 70
     0
  9
$DIMTAD
 70
     1
  9
$DIMZIN
 70
     0
  9
$DIMBLK
  1

  9
$DIMASO
 70
     0
  9
$DIMSHO
 70
     0
  9
$DIMPOST
  1

  9
$DIMAPOST
  1

  9
$DIMALT
 70
     0
  9
$DIMALTD
 70
     2
  9
$DIMALTF
 40
25.399999999999999
  9
$DIMLFAC
 40
1.0
  9
$DIMTOFL
 70
     0
  9
$DIMTVP
 40
1.6000000000000001
  9
$DIMTIX
 70
     1
  9
$DIMSOXD
 70
     0
  9
$DIMSAH
 70
     0
  9
$DIMBLK1
  1

  9
$DIMBLK2
  1

  9
$DIMSTYLE
  2
STANDARD
  9
$DIMCLRD
 70
     0
  9
$DIMCLRE
 70
     0
  9
$DIMCLRT
 70
     0
  9
$DIMTFAC
 40
1.0
  9
$DIMGAP
 40
0.09
  9
$LUNITS
 70
     2
  9
$LUPREC
 70
     4
  9
$SKETCHINC
 40
0.1
  9
$FILLETRAD
 40
1.25
  9
$AUNITS
 70
     0
  9
$AUPREC
 70
     0
  9
$MENU
  1
E:\r13\win\SUPPORT\ACAD
  9
$ELEVATION
 40
0.0
  9
$PELEVATION
 40
0.0
  9
$THICKNESS
 40
0.0
  9
$LIMCHECK
 70
     0
  9
$BLIPMODE
 70
     0
  9
$CHAMFERA
 40
0.0
  9
$CHAMFERB
 40
0.0
  9
$SKPOLY
 70
     0
  9
$TDCREATE
 40
2449840.6143865739
  9
$TDUPDATE
 40
2456598.649968253
  9
$TDINDWG
 40
0.2442428472
  9
$TDUSRTIMER
 40
0.2442428472
  9
$USRTIMER
 70
     1
  9
$ANGBASE
 50
0.0
  9
$ANGDIR
 70
     0
  9
$PDMODE
 70
     0
  9
$PDSIZE
 40
0.0
  9
$PLINEWID
 40
0.0
  9
$COORDS
 70
     1
  9
$SPLFRAME
 70
     0
  9
$SPLINETYPE
 70
     6
  9
$SPLINESEGS
 70
     8
  9
$ATTDIA
 70
     0
  9
$ATTREQ
 70
     1
  9
$HANDLING
 70
     1
  9
$HANDSEED
  5
1834
  9
$SURFTAB1
 70
     6
  9
$SURFTAB2
 70
     6
  9
$SURFTYPE
 70
     6
  9
$SURFU
 70
     6
  9
$SURFV
 70
     6
  9
$UCSNAME
  2

  9
$UCSORG
 10
0.0
 20
0.0
 30
0.0
  9
$UCSXDIR
 10
1.0
 20
0.0
 30
0.0
  9
$UCSYDIR
 10
0.0
 20
1.0
 30
0.0
  9
$PUCSNAME
  2

  9
$PUCSORG
 10
0.0
 20
0.0
 30
0.0
  9
$PUCSXDIR
 10
1.0
 20
0.0
 30
0.0
  9
$PUCSYDIR
 10
0.0
 20
1.0
 30
0.0
  9
$USERI1
 70
     0
  9
$USERI2
 70
     1
  9
$USERI3
 70
     1
  9
$USERI4
 70
     0
  9
$USERI5
 70
     0
  9
$USERR1
 40
0.0
  9
$USERR2
 40
0.0
  9
$USERR3
 40
0.0
  9
$USERR4
 40
0.0
  9
$USERR5
 40
0.0
  9
$WORLDVIEW
 70
     1
  9
$SHADEDGE
 70
     3
  9
$SHADEDIF
 70
    70
  9
$TILEMODE
 70
     1
  9
$MAXACTVP
 70
    16
  9
$PLIMCHECK
 70
     0
  9
$PEXTMIN
 10
1.0000000000000000E+020
 20
1.0000000000000000E+020
 30
1.0000000000000000E+020
  9
$PEXTMAX
 10
-1.0000000000000000E+020
 20
-1.0000000000000000E+020
 30
-1.0000000000000000E+020
  9
$PLIMMIN
 10
0.0
 20
0.0
  9
$PLIMMAX
 10
12.0
 20
9.0
  9
$UNITMODE
 70
     0
  9
$VISRETAIN
 70
     0
  9
$PLINEGEN
 70
     0
  9
$PSLTSCALE
 70
     0
  0
ENDSEC
  0
SECTION
  2
TABLES
  0
TABLE
  2
VPORT
 70
     1
  0
VPORT
  2
*ACTIVE
 70
     0
 10
0.0
 20
0.0
 11
1.0
 21
1.0
 12
169.5377509210995
 22
180.3106878451791
 13
0.0
 23
0.0
 14
5.0
 24
5.0
 15
5.0
 25
5.0
 16
0.0
 26
0.0
 36
1.0
 17
0.0
 27
0.0
 37
0.0
 40
369.81577127043897
 41
1.7807262569832401
 42
50.0
 43
0.0
 44
0.0
 50
0.0
 51
0.0
 71
     0
 72
   100
 73
     1
 74
     0
 75
     0
 76
     0
 77
     0
 78
     0
  0
ENDTAB
  0
TABLE
  2
LTYPE
 70
     4
  0
LTYPE
  2
CONTINUOUS
 70
     0
  3
Solid Line
 72
    65
 73
     0
 40
0.0
  0
LTYPE
  2
CENTER
 70
     0
  3
____ _ ____ _ ____ _ ____ _ ____ _ ____ _ ____
 72
    65
 73
     4
 40
2.0
 49
1.25
 49
-0.25
 49
0.25
 49
-0.25
  0
LTYPE
  2
HIDDEN
 70
     0
  3
_ _ _ _ _ _ _ _ _ _ _ _ _ _ _ _ _ _ _ _ _ _ _
 72
    65
 73
     2
 40
0.375
 49
0.25
 49
-0.125
  0
LTYPE
  2
PHANTOM2
 70
     0
  3
___ _ _ ___ _ _ ___ _ _ ___ _ _
 72
    65
 73
     6
 40
1.25
 49
0.625
 49
-0.125
 49
0.125
 49
-0.125
 49
0.125
 49
-0.125
  0
ENDTAB
  0
TABLE
  2
LAYER
 70
     4
  0
LAYER
  2
0
 70
     0
 62
     7
  6
CONTINUOUS
  0
LAYER
  2
1
 70
     0
 62
     1
  6
CENTER
  0
LAYER
  2
2
 70
     0
 62
     2
  6
HIDDEN
  0
LAYER
  2
3
 70
     0
 62
     3
  6
CONTINUOUS
  0
ENDTAB
  0
TABLE
  2
STYLE
 70
     2
  0
STYLE
  2
STANDARD
 70
     0
 40
0.0
 41
1.0
 50
0.0
 71
     0
 42
4.0
  3
TXT
  4
BIGFONT
  0
STYLE
  2
STANDARD1
 70
     0
 40
0.0
 41
1.0
 50
0.0
 71
     0
 42
3.0
  3
txt
  4

  0
ENDTAB
  0
TABLE
  2
VIEW
 70
     1
  0
VIEW
  2
ALL
 70
     0
 40
179.66152299999999
 10
141.903918
 20
89.830760999999995
 41
0.0
 11
0.0
 21
0.0
 31
1.0
 12
0.0
 22
0.0
 32
0.0
 42
0.0
 43
0.0
 44
0.0
 50
0.0
 71
     0
  0
ENDTAB
  0
TABLE
  2
UCS
 70
     0
  0
ENDTAB
  0
TABLE
  2
APPID
 70
     4
  0
APPID
  2
ACAD
 70
     0
  0
APPID
  2
DCO15
 70
     0
  0
APPID
  2
ACAD_MLEADERVER
 70
     0
  0
APPID
  2
ACAD_NAV_VCDISPLAY
 70
     0
  0
ENDTAB
  0
TABLE
  2
DIMSTYLE
 70
     1
  0
DIMSTYLE
  2
STANDARD
 70
     0
  3

  4

  5

  6

  7

 40
1.0
 41
0.18
 42
0.0625
 43
0.38
 44
0.18
 45
0.0
 46
0.0
 47
0.0
 48
0.0
140
0.18
141
0.09
142
0.0
143
25.399999999999999
144
1.0
145
0.0
146
1.0
147
0.09
 71
     0
 72
     0
 73
     1
 74
     1
 75
     0
 76
     0
 77
     0
 78
     0
170
     0
171
     2
172
     0
173
     0
174
     0
175
     0
176
     0
177
     0
178
     0
  0
ENDTAB
  0
ENDSEC
  0
SECTION
  2
BLOCKS
  0
BLOCK
  8
0
  2
$MODEL_SPACE
 70
     0
 10
0.0
 20
0.0
 30
0.0
  3
$MODEL_SPACE
  1

  0
ENDBLK
  5
1BD
  8
0
  0
BLOCK
 67
     1
  8
0
  2
$PAPER_SPACE
 70
     0
 10
0.0
 20
0.0
 30
0.0
  3
$PAPER_SPACE
  1

  0
ENDBLK
  5
1BB
 67
     1
  8
0
  0
ENDSEC
  0
SECTION
  2
ENTITIES
  0
LINE
  5
1374
  8
0
 10
140.75155938411359
 20
152.28249434353521
 30
0.0
 11
140.75155938411359
 21
127.4655518236451
 31
0.0
  0
LINE
  5
1375
  8
0
 10
171.75155938411359
 20
127.4655518236451
 30
0.0
 11
171.75155938411359
 21
146.96555182364509
 31
0.0
  0
LINE
  5
1376
  8
0
 10
254.58325347548819
 20
173.34555182364511
 30
0.0
 11
242.8252205968746
 21
173.34555182364511
 31
0.0
  0
LINE
  5
1377
  8
0
 10
171.75155938411359
 20
127.4655518236451
 30
0.0
 11
140.75155938411359
 21
127.4655518236451
 31
0.0
  0
LINE
  5
1378
  8
1
 10
156.25155938411359
 20
174.46555182364509
 30
0.0
 11
156.2515593841137
 21
105.4655518236451
 31
0.0
  0
LINE
  5
137A
  8
0
 10
167.76155938411361
 20
115.4655518236451
 30
0.0
 11
167.76155938411361
 21
127.4655518236451
 31
0.0
  0
LINE
  5
137B
  8
0
 10
144.76155938411361
 20
127.4655518236451
 30
0.0
 11
144.76155938411361
 21
115.4655518236451
 31
0.0
  0
LINE
  5
137D
  8
0
 10
144.76155938411361
 20
115.4655518236451
 30
0.0
 11
167.76155938411361
 21
115.4655518236451
 31
0.0
  0
LINE
  5
137E
  8
2
 10
148.26155938411361
 20
116.4655518236452
 30
0.0
 11
148.26155938411361
 21
138.46555182364509
 31
0.0
  0
LINE
  5
137F
  8
2
 10
164.2615593841137
 20
116.4655518236452
 30
0.0
 11
164.2615593841137
 21
138.46555182364509
 31
0.0
  0
LINE
  5
1380
  8
2
 10
163.2615593841137
 20
117.4655518236453
 30
0.0
 11
163.2615593841137
 21
140.46555182364509
 31
0.0
  0
LINE
  5
1381
  8
2
 10
149.26155938411361
 20
117.4655518236453
 30
0.0
 11
149.26155938411361
 21
140.46555182364509
 31
0.0
  0
LINE
  5
1382
  8
2
 10
149.26155938411361
 20
117.4655518236453
 30
0.0
 11
163.2615593841137
 21
117.4655518236453
 31
0.0
  0
LINE
  5
1383
  8
2
 10
149.26155938411361
 20
117.4655518236453
 30
0.0
 11
147.26155938411361
 21
115.4655518236451
 31
0.0
  0
LINE
  5
1384
  8
2
 10
163.2615593841137
 20
117.4655518236453
 30
0.0
 11
165.2615593841137
 21
115.4655518236451
 31
0.0
  0
LINE
  5
1385
  8
2
 10
163.2615593841137
 20
140.46555182364509
 30
0.0
 11
149.26155938411361
 21
140.46555182364509
 31
0.0
  0
LINE
  5
1386
  8
2
 10
164.2615593841137
 20
138.46555182364509
 30
0.0
 11
148.26155938411361
 21
138.46555182364509
 31
0.0
  0
LINE
  5
1387
  8
2
 10
149.26155938411361
 20
140.19760263121401
 30
0.0
 11
148.26155938411361
 21
138.46555182364509
 31
0.0
  0
LINE
  5
1388
  8
2
 10
163.2615593841137
 20
140.19760263121401
 30
0.0
 11
164.2615593841137
 21
138.46555182364509
 31
0.0
  0
LINE
  5
1389
  8
2
 10
156.26155938411361
 20
144.5070037079725
 30
0.0
 11
149.26155938411361
 21
140.46555182364509
 31
0.0
  0
LINE
  5
138A
  8
2
 10
156.26155938411361
 20
144.5070037079725
 30
0.0
 11
163.2615593841137
 21
140.46555182364509
 31
0.0
  0
ARC
  5
138B
  8
0
 10
301.77035319430519
 20
-209.5384706374052
 30
0.0
 40
400.23809523809518
 50
96.056605662905923
 51
113.0583295739723
  0
LINE
  5
138C
  8
0
 10
259.54084947187999
 20
188.46555182364509
 30
0.0
 11
261.2615593841137
 21
188.46555182364509
 31
0.0
  0
LINE
  5
138D
  8
0
 10
266.26155938411358
 20
183.46555182364509
 30
0.0
 11
266.26155938411358
 21
183.34973259587801
 31
0.0
  0
ARC
  5
138E
  8
0
 10
261.2615593841137
 20
183.46555182364509
 30
0.0
 40
5.0
 50
0.0
 51
90.0
  0
ARC
  5
138F
  8
0
 10
147.75155938411359
 20
152.28249434353521
 30
0.0
 40
7.0
 50
113.0583295739723
 51
180.0
  0
ARC
  5
1390
  8
0
 10
344.28846672277513
 20
-191.87367948864701
 30
0.0
 40
380.2380952380953
 50
106.8398715328909
 51
116.985190501685
  0
ARC
  5
1391
  8
0
 10
242.8252205968746
 20
143.34555182364511
 30
0.0
 40
30.0
 50
90.0
 51
106.8398715328925
  0
ARC
  5
1392
  8
0
 10
254.42852568372709
 20
185.3445542534497
 30
0.0
 40
12.0
 50
269.26120874099649
 51
350.43100633373399
  0
LINE
  5
1393
  8
0
 10
140.75155938411359
 20
248.3424337953652
 30
0.0
 11
140.75155938411359
 21
256.20116142774958
 31
0.0
  0
CIRCLE
  5
13A2
  8
0
 10
157.5681427746957
 20
252.27179761155739
 30
0.0
 40
9.0840310268199538
  0
ARC
  5
13A4
  8
0
 10
156.26155938411361
 20
252.27179761155739
 30
0.0
 40
16.0
 50
194.2164221332842
 51
301.31463182248172
  0
ARC
  5
13A5
  8
0
 10
258.76155938411358
 20
252.27179761155739
 30
0.0
 40
7.5
 50
270.0
 51
90.0
  0
ARC
  5
13A6
  8
0
 10
190.09511087080691
 20
331.12417454742678
 30
0.0
 40
70.0
 50
248.62076358023009
 51
277.71778895748702
  0
LINE
  5
13A7
  8
0
 10
201.1972552403447
 20
261.8424172933407
 30
0.0
 11
259.03053634115508
 21
259.76697281942148
 31
0.0
  0
ARC
  5
13A8
  8
0
 10
200.8386192976227
 20
251.84885034952191
 30
0.0
 40
10.0
 50
87.944726668168812
 51
97.717788957488679
  0
ARC
  5
13A9
  8
0
 10
190.09511087080691
 20
173.419420675688
 30
0.0
 40
70.0
 50
82.282211042512927
 51
111.3792364197699
  0
LINE
  5
13AA
  8
0
 10
201.1972552403447
 20
242.7011779297741
 30
0.0
 11
259.03053634115508
 21
244.7766224036933
 31
0.0
  0
ARC
  5
13AB
  8
0
 10
200.8386192976227
 20
252.6947448735929
 30
0.0
 40
10.0
 50
262.28221104251298
 51
272.05527333183119
  0
ARC
  5
13AC
  8
0
 10
156.26155938411361
 20
252.27179761155739
 30
0.0
 40
16.0
 50
58.685368177518342
 51
165.7835778667158
  0
ARC
  5
13AD
  8
0
 10
190.09511087080691
 20
123.5847741130182
 30
0.0
 40
70.0
 50
248.62076358023009
 51
277.71778895748702
  0
ARC
  5
13AE
  8
0
 10
190.09511087080691
 20
-34.11997975872066
 30
0.0
 40
70.0
 50
82.282211042512927
 51
111.3792364197699
  0
LINE
  5
13B0
  8
0
 10
140.75155938411359
 20
40.80303336095659
 30
0.0
 11
140.75155938411359
 21
48.66176099334092
 31
0.0
  0
ARC
  5
13B1
  8
0
 10
156.26155938411361
 20
44.732397177148748
 30
0.0
 40
16.0
 50
194.2164221332842
 51
301.31463182248172
  0
ARC
  5
13B2
  8
0
 10
156.26155938411361
 20
44.732397177148748
 30
0.0
 40
16.0
 50
58.685368177518342
 51
165.7835778667158
  0
ARC
  5
13B4
  8
0
 10
258.76155938411358
 20
44.732397177148748
 30
0.0
 40
7.5
 50
270.0
 51
90.0
  0
ARC
  5
13B5
  8
0
 10
200.8386192976227
 20
44.309449915113241
 30
0.0
 40
10.0
 50
87.944726668168812
 51
97.717788957488679
  0
LINE
  5
13B6
  8
0
 10
201.1972552403447
 20
54.30301685893204
 30
0.0
 11
259.03053634115508
 21
52.227572385012849
 31
0.0
  0
LINE
  5
13B7
  8
0
 10
201.1972552403447
 20
35.16177749536547
 30
0.0
 11
259.03053634115508
 21
37.237221969284661
 31
0.0
  0
ARC
  5
13B8
  8
0
 10
200.8386192976227
 20
45.155344439184262
 30
0.0
 40
10.0
 50
262.28221104251298
 51
272.05527333183119
  0
CIRCLE
  5
13B9
  8
0
 10
156.26155938411361
 20
44.732397177148748
 30
0.0
 40
11.5
  0
CIRCLE
  5
13BA
  8
0
 10
156.26155938411361
 20
44.732397177148748
 30
0.0
 40
15.48999999999999
  0
CIRCLE
  5
13BB
  8
0
 10
156.26155938411361
 20
44.732397177148748
 30
0.0
 40
7.0
  0
CIRCLE
  5
13BC
  8
3
 10
156.26155938411361
 20
44.732397177148748
 30
0.0
 40
8.0
  0
LINE
  5
13BF
  8
0
 10
74.379539793521985
 20
115.4655518236451
 30
0.0
 11
74.379539793521985
 21
127.4655518236451
 31
0.0
  0
LINE
  5
13C0
  8
0
 10
51.379539793521978
 20
127.4655518236451
 30
0.0
 11
51.379539793521978
 21
115.4655518236451
 31
0.0
  0
LINE
  5
13C2
  8
0
 10
51.379539793521978
 20
115.4655518236451
 30
0.0
 11
74.379539793521985
 21
115.4655518236451
 31
0.0
  0
LINE
  5
13C3
  8
1
 10
62.879539793521992
 20
198.46555182364509
 30
0.0
 11
62.879539793521978
 21
105.4655518236451
 31
0.0
  0
LINE
  5
13C4
  8
0
 10
69.970519878053693
 20
188.46555182364509
 30
0.0
 11
55.78855970899027
 21
188.46555182364509
 31
0.0
  0
LINE
  5
13C5
  8
0
 10
78.379539793521985
 20
127.4655518236451
 30
0.0
 11
47.379539793521978
 21
127.4655518236451
 31
0.0
  0
LINE
  5
13C6
  8
0
 10
78.875534012584879
 20
163.12753894441991
 30
0.0
 11
78.379539793521985
 21
127.4655518236451
 31
0.0
  0
LINE
  5
13C7
  8
0
 10
74.520098589020478
 20
158.7232405111543
 30
0.0
 11
51.238980998023479
 21
158.7232405111543
 31
0.0
  0
POLYLINE
  5
13C8
  8
0
 10
74.520098589020492
 20
158.72324051115427
 30
0.0
 66
     1
 70
     8
  0
VERTEX
  8
0
  5
162C
 10
74.5201
 20
158.723
 30
0.000000
  70
    32
  0
VERTEX
  8
0
  5
162D
 10
74.9114
 20
158.902
 30
0.000000
  70
    32
  0
VERTEX
  8
0
  5
162E
 10
75.2868
 20
159.086
 30
0.000000
  70
    32
  0
VERTEX
  8
0
  5
162F
 10
75.6459
 20
159.275
 30
0.000000
  70
    32
  0
VERTEX
  8
0
  5
1630
 10
75.9880
 20
159.470
 30
0.000000
  70
    32
  0
VERTEX
  8
0
  5
1631
 10
76.3128
 20
159.670
 30
0.000000
  70
    32
  0
VERTEX
  8
0
  5
1632
 10
76.6199
 20
159.875
 30
0.000000
  70
    32
  0
VERTEX
  8
0
  5
1633
 10
76.9088
 20
160.084
 30
0.000000
  70
    32
  0
VERTEX
  8
0
  5
1634
 10
77.1791
 20
160.297
 30
0.000000
  70
    32
  0
VERTEX
  8
0
  5
1635
 10
77.4306
 20
160.514
 30
0.000000
  70
    32
  0
VERTEX
  8
0
  5
1636
 10
77.6628
 20
160.735
 30
0.000000
  70
    32
  0
VERTEX
  8
0
  5
1637
 10
77.8755
 20
160.960
 30
0.000000
  70
    32
  0
VERTEX
  8
0
  5
1638
 10
78.0684
 20
161.187
 30
0.000000
  70
    32
  0
VERTEX
  8
0
  5
1639
 10
78.2412
 20
161.417
 30
0.000000
  70
    32
  0
VERTEX
  8
0
  5
163A
 10
78.3937
 20
161.650
 30
0.000000
  70
    32
  0
VERTEX
  8
0
  5
163B
 10
78.5256
 20
161.884
 30
0.000000
  70
    32
  0
VERTEX
  8
0
  5
163C
 10
78.6370
 20
162.121
 30
0.000000
  70
    32
  0
VERTEX
  8
0
  5
163D
 10
78.7274
 20
162.359
 30
0.000000
  70
    32
  0
VERTEX
  8
0
  5
163E
 10
78.7970
 20
162.598
 30
0.000000
  70
    32
  0
VERTEX
  8
0
  5
163F
 10
78.8455
 20
162.838
 30
0.000000
  70
    32
  0
VERTEX
  8
0
  5
1640
 10
78.8728
 20
163.079
 30
0.000000
  70
    32
  0
VERTEX
  8
0
  5
1641
 10
78.8791
 20
163.320
 30
0.000000
  70
    32
  0
VERTEX
  8
0
  5
1642
 10
78.8642
 20
163.561
 30
0.000000
  70
    32
  0
VERTEX
  8
0
  5
1643
 10
78.8282
 20
163.801
 30
0.000000
  70
    32
  0
VERTEX
  8
0
  5
1644
 10
78.7711
 20
164.041
 30
0.000000
  70
    32
  0
VERTEX
  8
0
  5
1645
 10
78.6930
 20
164.280
 30
0.000000
  70
    32
  0
VERTEX
  8
0
  5
1646
 10
78.5940
 20
164.518
 30
0.000000
  70
    32
  0
VERTEX
  8
0
  5
1647
 10
78.4742
 20
164.753
 30
0.000000
  70
    32
  0
VERTEX
  8
0
  5
1648
 10
78.3338
 20
164.987
 30
0.000000
  70
    32
  0
VERTEX
  8
0
  5
1649
 10
78.1730
 20
165.219
 30
0.000000
  70
    32
  0
VERTEX
  8
0
  5
164A
 10
77.9920
 20
165.448
 30
0.000000
  70
    32
  0
VERTEX
  8
0
  5
164B
 10
77.7910
 20
165.674
 30
0.000000
  70
    32
  0
VERTEX
  8
0
  5
164C
 10
77.5703
 20
165.897
 30
0.000000
  70
    32
  0
VERTEX
  8
0
  5
164D
 10
77.3301
 20
166.116
 30
0.000000
  70
    32
  0
VERTEX
  8
0
  5
164E
 10
77.0709
 20
166.332
 30
0.000000
  70
    32
  0
VERTEX
  8
0
  5
164F
 10
76.7929
 20
166.544
 30
0.000000
  70
    32
  0
VERTEX
  8
0
  5
1650
 10
76.4965
 20
166.751
 30
0.000000
  70
    32
  0
VERTEX
  8
0
  5
1651
 10
76.1822
 20
166.954
 30
0.000000
  70
    32
  0
VERTEX
  8
0
  5
1652
 10
75.8502
 20
167.152
 30
0.000000
  70
    32
  0
VERTEX
  8
0
  5
1653
 10
75.5011
 20
167.344
 30
0.000000
  70
    32
  0
VERTEX
  8
0
  5
1654
 10
75.1353
 20
167.532
 30
0.000000
  70
    32
  0
VERTEX
  8
0
  5
1655
 10
74.7534
 20
167.714
 30
0.000000
  70
    32
  0
VERTEX
  8
0
  5
1656
 10
74.3557
 20
167.889
 30
0.000000
  70
    32
  0
VERTEX
  8
0
  5
1657
 10
73.9429
 20
168.059
 30
0.000000
  70
    32
  0
VERTEX
  8
0
  5
1658
 10
73.5154
 20
168.223
 30
0.000000
  70
    32
  0
VERTEX
  8
0
  5
1659
 10
73.0739
 20
168.380
 30
0.000000
  70
    32
  0
VERTEX
  8
0
  5
165A
 10
72.6189
 20
168.530
 30
0.000000
  70
    32
  0
VERTEX
  8
0
  5
165B
 10
72.1510
 20
168.673
 30
0.000000
  70
    32
  0
VERTEX
  8
0
  5
165C
 10
71.6709
 20
168.809
 30
0.000000
  70
    32
  0
VERTEX
  8
0
  5
165D
 10
71.1792
 20
168.938
 30
0.000000
  70
    32
  0
VERTEX
  8
0
  5
165E
 10
70.6764
 20
169.059
 30
0.000000
  70
    32
  0
VERTEX
  8
0
  5
165F
 10
70.1634
 20
169.172
 30
0.000000
  70
    32
  0
VERTEX
  8
0
  5
1660
 10
69.6408
 20
169.278
 30
0.000000
  70
    32
  0
VERTEX
  8
0
  5
1661
 10
69.1092
 20
169.376
 30
0.000000
  70
    32
  0
VERTEX
  8
0
  5
1662
 10
68.5694
 20
169.466
 30
0.000000
  70
    32
  0
VERTEX
  8
0
  5
1663
 10
68.0221
 20
169.547
 30
0.000000
  70
    32
  0
VERTEX
  8
0
  5
1664
 10
67.4679
 20
169.621
 30
0.000000
  70
    32
  0
VERTEX
  8
0
  5
1665
 10
66.9077
 20
169.686
 30
0.000000
  70
    32
  0
VERTEX
  8
0
  5
1666
 10
66.3422
 20
169.742
 30
0.000000
  70
    32
  0
VERTEX
  8
0
  5
1667
 10
65.7721
 20
169.790
 30
0.000000
  70
    32
  0
VERTEX
  8
0
  5
1668
 10
65.1982
 20
169.829
 30
0.000000
  70
    32
  0
VERTEX
  8
0
  5
1669
 10
64.6212
 20
169.860
 30
0.000000
  70
    32
  0
VERTEX
  8
0
  5
166A
 10
64.0420
 20
169.882
 30
0.000000
  70
    32
  0
VERTEX
  8
0
  5
166B
 10
63.4611
 20
169.895
 30
0.000000
  70
    32
  0
VERTEX
  8
0
  5
166C
 10
62.8795
 20
169.899
 30
0.000000
  70
    32
  0
VERTEX
  8
0
  5
166D
 10
62.2980
 20
169.895
 30
0.000000
  70
    32
  0
VERTEX
  8
0
  5
166E
 10
61.7171
 20
169.882
 30
0.000000
  70
    32
  0
VERTEX
  8
0
  5
166F
 10
61.1378
 20
169.860
 30
0.000000
  70
    32
  0
VERTEX
  8
0
  5
1670
 10
60.5609
 20
169.829
 30
0.000000
  70
    32
  0
VERTEX
  8
0
  5
1671
 10
59.9869
 20
169.790
 30
0.000000
  70
    32
  0
VERTEX
  8
0
  5
1672
 10
59.4169
 20
169.742
 30
0.000000
  70
    32
  0
VERTEX
  8
0
  5
1673
 10
58.8513
 20
169.686
 30
0.000000
  70
    32
  0
VERTEX
  8
0
  5
1674
 10
58.2911
 20
169.621
 30
0.000000
  70
    32
  0
VERTEX
  8
0
  5
1675
 10
57.7370
 20
169.547
 30
0.000000
  70
    32
  0
VERTEX
  8
0
  5
1676
 10
57.1897
 20
169.466
 30
0.000000
  70
    32
  0
VERTEX
  8
0
  5
1677
 10
56.6499
 20
169.376
 30
0.000000
  70
    32
  0
VERTEX
  8
0
  5
1678
 10
56.1183
 20
169.278
 30
0.000000
  70
    32
  0
VERTEX
  8
0
  5
1679
 10
55.5956
 20
169.172
 30
0.000000
  70
    32
  0
VERTEX
  8
0
  5
167A
 10
55.0826
 20
169.059
 30
0.000000
  70
    32
  0
VERTEX
  8
0
  5
167B
 10
54.5799
 20
168.938
 30
0.000000
  70
    32
  0
VERTEX
  8
0
  5
167C
 10
54.0882
 20
168.809
 30
0.000000
  70
    32
  0
VERTEX
  8
0
  5
167D
 10
53.6081
 20
168.673
 30
0.000000
  70
    32
  0
VERTEX
  8
0
  5
167E
 10
53.1402
 20
168.530
 30
0.000000
  70
    32
  0
VERTEX
  8
0
  5
167F
 10
52.6852
 20
168.380
 30
0.000000
  70
    32
  0
VERTEX
  8
0
  5
1680
 10
52.2437
 20
168.223
 30
0.000000
  70
    32
  0
VERTEX
  8
0
  5
1681
 10
51.8162
 20
168.059
 30
0.000000
  70
    32
  0
VERTEX
  8
0
  5
1682
 10
51.4034
 20
167.889
 30
0.000000
  70
    32
  0
VERTEX
  8
0
  5
1683
 10
51.0057
 20
167.714
 30
0.000000
  70
    32
  0
VERTEX
  8
0
  5
1684
 10
50.6237
 20
167.532
 30
0.000000
  70
    32
  0
VERTEX
  8
0
  5
1685
 10
50.2580
 20
167.344
 30
0.000000
  70
    32
  0
VERTEX
  8
0
  5
1686
 10
49.9089
 20
167.152
 30
0.000000
  70
    32
  0
VERTEX
  8
0
  5
1687
 10
49.5769
 20
166.954
 30
0.000000
  70
    32
  0
VERTEX
  8
0
  5
1688
 10
49.2625
 20
166.751
 30
0.000000
  70
    32
  0
VERTEX
  8
0
  5
1689
 10
48.9662
 20
166.544
 30
0.000000
  70
    32
  0
VERTEX
  8
0
  5
168A
 10
48.6882
 20
166.332
 30
0.000000
  70
    32
  0
VERTEX
  8
0
  5
168B
 10
48.4290
 20
166.116
 30
0.000000
  70
    32
  0
VERTEX
  8
0
  5
168C
 10
48.1888
 20
165.897
 30
0.000000
  70
    32
  0
VERTEX
  8
0
  5
168D
 10
47.9681
 20
165.674
 30
0.000000
  70
    32
  0
VERTEX
  8
0
  5
168E
 10
47.7671
 20
165.448
 30
0.000000
  70
    32
  0
VERTEX
  8
0
  5
168F
 10
47.5861
 20
165.219
 30
0.000000
  70
    32
  0
VERTEX
  8
0
  5
1690
 10
47.4253
 20
164.987
 30
0.000000
  70
    32
  0
VERTEX
  8
0
  5
1691
 10
47.2849
 20
164.753
 30
0.000000
  70
    32
  0
VERTEX
  8
0
  5
1692
 10
47.1651
 20
164.518
 30
0.000000
  70
    32
  0
VERTEX
  8
0
  5
1693
 10
47.0661
 20
164.280
 30
0.000000
  70
    32
  0
VERTEX
  8
0
  5
1694
 10
46.9880
 20
164.041
 30
0.000000
  70
    32
  0
VERTEX
  8
0
  5
1695
 10
46.9309
 20
163.801
 30
0.000000
  70
    32
  0
VERTEX
  8
0
  5
1696
 10
46.8949
 20
163.561
 30
0.000000
  70
    32
  0
VERTEX
  8
0
  5
1697
 10
46.8800
 20
163.320
 30
0.000000
  70
    32
  0
VERTEX
  8
0
  5
1698
 10
46.8862
 20
163.079
 30
0.000000
  70
    32
  0
VERTEX
  8
0
  5
1699
 10
46.9136
 20
162.838
 30
0.000000
  70
    32
  0
VERTEX
  8
0
  5
169A
 10
46.9621
 20
162.598
 30
0.000000
  70
    32
  0
VERTEX
  8
0
  5
169B
 10
47.0316
 20
162.359
 30
0.000000
  70
    32
  0
VERTEX
  8
0
  5
169C
 10
47.1221
 20
162.121
 30
0.000000
  70
    32
  0
VERTEX
  8
0
  5
169D
 10
47.2334
 20
161.884
 30
0.000000
  70
    32
  0
VERTEX
  8
0
  5
169E
 10
47.3654
 20
161.650
 30
0.000000
  70
    32
  0
VERTEX
  8
0
  5
169F
 10
47.5179
 20
161.417
 30
0.000000
  70
    32
  0
VERTEX
  8
0
  5
16A0
 10
47.6907
 20
161.187
 30
0.000000
  70
    32
  0
VERTEX
  8
0
  5
16A1
 10
47.8836
 20
160.960
 30
0.000000
  70
    32
  0
VERTEX
  8
0
  5
16A2
 10
48.0963
 20
160.735
 30
0.000000
  70
    32
  0
VERTEX
  8
0
  5
16A3
 10
48.3285
 20
160.514
 30
0.000000
  70
    32
  0
VERTEX
  8
0
  5
16A4
 10
48.5799
 20
160.297
 30
0.000000
  70
    32
  0
VERTEX
  8
0
  5
16A5
 10
48.8503
 20
160.084
 30
0.000000
  70
    32
  0
VERTEX
  8
0
  5
16A6
 10
49.1392
 20
159.875
 30
0.000000
  70
    32
  0
VERTEX
  8
0
  5
16A7
 10
49.4463
 20
159.670
 30
0.000000
  70
    32
  0
VERTEX
  8
0
  5
16A8
 10
49.7711
 20
159.470
 30
0.000000
  70
    32
  0
VERTEX
  8
0
  5
16A9
 10
50.1132
 20
159.275
 30
0.000000
  70
    32
  0
VERTEX
  8
0
  5
16AA
 10
50.4722
 20
159.086
 30
0.000000
  70
    32
  0
VERTEX
  8
0
  5
16AB
 10
50.8477
 20
158.902
 30
0.000000
  70
    32
  0
VERTEX
  8
0
  5
16AC
 10
51.2390
 20
158.723
 30
0.000000
  70
    32
  0
SEQEND
  8
0
  5
16AD
  0
POLYLINE
  5
13C9
  8
0
 10
64.505646499745097
 20
160.44237420761644
 30
0.0
 66
     1
 70
     8
  0
VERTEX
  8
0
  5
16AE
 10
64.5056
 20
160.442
 30
0.000000
  70
    32
  0
VERTEX
  8
0
  5
16AF
 10
64.9151
 20
160.474
 30
0.000000
  70
    32
  0
VERTEX
  8
0
  5
16B0
 10
65.3202
 20
160.514
 30
0.000000
  70
    32
  0
VERTEX
  8
0
  5
16B1
 10
65.7201
 20
160.560
 30
0.000000
  70
    32
  0
VERTEX
  8
0
  5
16B2
 10
66.1139
 20
160.613
 30
0.000000
  70
    32
  0
VERTEX
  8
0
  5
16B3
 10
66.5008
 20
160.673
 30
0.000000
  70
    32
  0
VERTEX
  8
0
  5
16B4
 10
66.8800
 20
160.740
 30
0.000000
  70
    32
  0
VERTEX
  8
0
  5
16B5
 10
67.2505
 20
160.814
 30
0.000000
  70
    32
  0
VERTEX
  8
0
  5
16B6
 10
67.6118
 20
160.894
 30
0.000000
  70
    32
  0
VERTEX
  8
0
  5
16B7
 10
67.9629
 20
160.980
 30
0.000000
  70
    32
  0
VERTEX
  8
0
  5
16B8
 10
68.3031
 20
161.072
 30
0.000000
  70
    32
  0
VERTEX
  8
0
  5
16B9
 10
68.6317
 20
161.170
 30
0.000000
  70
    32
  0
VERTEX
  8
0
  5
16BA
 10
68.9480
 20
161.273
 30
0.000000
  70
    32
  0
VERTEX
  8
0
  5
16BB
 10
69.2514
 20
161.382
 30
0.000000
  70
    32
  0
VERTEX
  8
0
  5
16BC
 10
69.5411
 20
161.497
 30
0.000000
  70
    32
  0
VERTEX
  8
0
  5
16BD
 10
69.8165
 20
161.616
 30
0.000000
  70
    32
  0
VERTEX
  8
0
  5
16BE
 10
70.0771
 20
161.740
 30
0.000000
  70
    32
  0
VERTEX
  8
0
  5
16BF
 10
70.3223
 20
161.868
 30
0.000000
  70
    32
  0
VERTEX
  8
0
  5
16C0
 10
70.5516
 20
162.001
 30
0.000000
  70
    32
  0
VERTEX
  8
0
  5
16C1
 10
70.7644
 20
162.137
 30
0.000000
  70
    32
  0
VERTEX
  8
0
  5
16C2
 10
70.9604
 20
162.277
 30
0.000000
  70
    32
  0
VERTEX
  8
0
  5
16C3
 10
71.1391
 20
162.421
 30
0.000000
  70
    32
  0
VERTEX
  8
0
  5
16C4
 10
71.3001
 20
162.567
 30
0.000000
  70
    32
  0
VERTEX
  8
0
  5
16C5
 10
71.4431
 20
162.716
 30
0.000000
  70
    32
  0
VERTEX
  8
0
  5
16C6
 10
71.5678
 20
162.867
 30
0.000000
  70
    32
  0
VERTEX
  8
0
  5
16C7
 10
71.6739
 20
163.020
 30
0.000000
  70
    32
  0
VERTEX
  8
0
  5
16C8
 10
71.7612
 20
163.175
 30
0.000000
  70
    32
  0
VERTEX
  8
0
  5
16C9
 10
71.8294
 20
163.332
 30
0.000000
  70
    32
  0
VERTEX
  8
0
  5
16CA
 10
71.8786
 20
163.489
 30
0.000000
  70
    32
  0
VERTEX
  8
0
  5
16CB
 10
71.9084
 20
163.647
 30
0.000000
  70
    32
  0
VERTEX
  8
0
  5
16CC
 10
71.9190
 20
163.806
 30
0.000000
  70
    32
  0
VERTEX
  8
0
  5
16CD
 10
71.9102
 20
163.964
 30
0.000000
  70
    32
  0
VERTEX
  8
0
  5
16CE
 10
71.8820
 20
164.122
 30
0.000000
  70
    32
  0
VERTEX
  8
0
  5
16CF
 10
71.8347
 20
164.280
 30
0.000000
  70
    32
  0
VERTEX
  8
0
  5
16D0
 10
71.7681
 20
164.436
 30
0.000000
  70
    32
  0
VERTEX
  8
0
  5
16D1
 10
71.6825
 20
164.591
 30
0.000000
  70
    32
  0
VERTEX
  8
0
  5
16D2
 10
71.5781
 20
164.745
 30
0.000000
  70
    32
  0
VERTEX
  8
0
  5
16D3
 10
71.4551
 20
164.896
 30
0.000000
  70
    32
  0
VERTEX
  8
0
  5
16D4
 10
71.3138
 20
165.045
 30
0.000000
  70
    32
  0
VERTEX
  8
0
  5
16D5
 10
71.1544
 20
165.192
 30
0.000000
  70
    32
  0
VERTEX
  8
0
  5
16D6
 10
70.9772
 20
165.336
 30
0.000000
  70
    32
  0
VERTEX
  8
0
  5
16D7
 10
70.7828
 20
165.476
 30
0.000000
  70
    32
  0
VERTEX
  8
0
  5
16D8
 10
70.5714
 20
165.613
 30
0.000000
  70
    32
  0
VERTEX
  8
0
  5
16D9
 10
70.3436
 20
165.745
 30
0.000000
  70
    32
  0
VERTEX
  8
0
  5
16DA
 10
70.0998
 20
165.874
 30
0.000000
  70
    32
  0
VERTEX
  8
0
  5
16DB
 10
69.8406
 20
165.999
 30
0.000000
  70
    32
  0
VERTEX
  8
0
  5
16DC
 10
69.5665
 20
166.118
 30
0.000000
  70
    32
  0
VERTEX
  8
0
  5
16DD
 10
69.2780
 20
166.233
 30
0.000000
  70
    32
  0
VERTEX
  8
0
  5
16DE
 10
68.9759
 20
166.343
 30
0.000000
  70
    32
  0
VERTEX
  8
0
  5
16DF
 10
68.6608
 20
166.447
 30
0.000000
  70
    32
  0
VERTEX
  8
0
  5
16E0
 10
68.3332
 20
166.545
 30
0.000000
  70
    32
  0
VERTEX
  8
0
  5
16E1
 10
67.9940
 20
166.638
 30
0.000000
  70
    32
  0
VERTEX
  8
0
  5
16E2
 10
67.6438
 20
166.725
 30
0.000000
  70
    32
  0
VERTEX
  8
0
  5
16E3
 10
67.2835
 20
166.805
 30
0.000000
  70
    32
  0
VERTEX
  8
0
  5
16E4
 10
66.9137
 20
166.879
 30
0.000000
  70
    32
  0
VERTEX
  8
0
  5
16E5
 10
66.5353
 20
166.946
 30
0.000000
  70
    32
  0
VERTEX
  8
0
  5
16E6
 10
66.1491
 20
167.007
 30
0.000000
  70
    32
  0
VERTEX
  8
0
  5
16E7
 10
65.7559
 20
167.061
 30
0.000000
  70
    32
  0
VERTEX
  8
0
  5
16E8
 10
65.3565
 20
167.108
 30
0.000000
  70
    32
  0
VERTEX
  8
0
  5
16E9
 10
64.9518
 20
167.148
 30
0.000000
  70
    32
  0
VERTEX
  8
0
  5
16EA
 10
64.5427
 20
167.181
 30
0.000000
  70
    32
  0
VERTEX
  8
0
  5
16EB
 10
64.1300
 20
167.206
 30
0.000000
  70
    32
  0
VERTEX
  8
0
  5
16EC
 10
63.7147
 20
167.224
 30
0.000000
  70
    32
  0
VERTEX
  8
0
  5
16ED
 10
63.2976
 20
167.235
 30
0.000000
  70
    32
  0
VERTEX
  8
0
  5
16EE
 10
62.8795
 20
167.239
 30
0.000000
  70
    32
  0
VERTEX
  8
0
  5
16EF
 10
62.4615
 20
167.235
 30
0.000000
  70
    32
  0
VERTEX
  8
0
  5
16F0
 10
62.0444
 20
167.224
 30
0.000000
  70
    32
  0
VERTEX
  8
0
  5
16F1
 10
61.6290
 20
167.206
 30
0.000000
  70
    32
  0
VERTEX
  8
0
  5
16F2
 10
61.2164
 20
167.181
 30
0.000000
  70
    32
  0
VERTEX
  8
0
  5
16F3
 10
60.8073
 20
167.148
 30
0.000000
  70
    32
  0
VERTEX
  8
0
  5
16F4
 10
60.4026
 20
167.108
 30
0.000000
  70
    32
  0
VERTEX
  8
0
  5
16F5
 10
60.0032
 20
167.061
 30
0.000000
  70
    32
  0
VERTEX
  8
0
  5
16F6
 10
59.6100
 20
167.007
 30
0.000000
  70
    32
  0
VERTEX
  8
0
  5
16F7
 10
59.2238
 20
166.946
 30
0.000000
  70
    32
  0
VERTEX
  8
0
  5
16F8
 10
58.8454
 20
166.879
 30
0.000000
  70
    32
  0
VERTEX
  8
0
  5
16F9
 10
58.4756
 20
166.805
 30
0.000000
  70
    32
  0
VERTEX
  8
0
  5
16FA
 10
58.1152
 20
166.725
 30
0.000000
  70
    32
  0
VERTEX
  8
0
  5
16FB
 10
57.7651
 20
166.638
 30
0.000000
  70
    32
  0
VERTEX
  8
0
  5
16FC
 10
57.4259
 20
166.545
 30
0.000000
  70
    32
  0
VERTEX
  8
0
  5
16FD
 10
57.0983
 20
166.447
 30
0.000000
  70
    32
  0
VERTEX
  8
0
  5
16FE
 10
56.7832
 20
166.343
 30
0.000000
  70
    32
  0
VERTEX
  8
0
  5
16FF
 10
56.4810
 20
166.233
 30
0.000000
  70
    32
  0
VERTEX
  8
0
  5
1700
 10
56.1926
 20
166.118
 30
0.000000
  70
    32
  0
VERTEX
  8
0
  5
1701
 10
55.9185
 20
165.999
 30
0.000000
  70
    32
  0
VERTEX
  8
0
  5
1702
 10
55.6592
 20
165.874
 30
0.000000
  70
    32
  0
VERTEX
  8
0
  5
1703
 10
55.4155
 20
165.745
 30
0.000000
  70
    32
  0
VERTEX
  8
0
  5
1704
 10
55.1876
 20
165.613
 30
0.000000
  70
    32
  0
VERTEX
  8
0
  5
1705
 10
54.9763
 20
165.476
 30
0.000000
  70
    32
  0
VERTEX
  8
0
  5
1706
 10
54.7818
 20
165.336
 30
0.000000
  70
    32
  0
VERTEX
  8
0
  5
1707
 10
54.6047
 20
165.192
 30
0.000000
  70
    32
  0
VERTEX
  8
0
  5
1708
 10
54.4453
 20
165.045
 30
0.000000
  70
    32
  0
VERTEX
  8
0
  5
1709
 10
54.3040
 20
164.896
 30
0.000000
  70
    32
  0
VERTEX
  8
0
  5
170A
 10
54.1809
 20
164.745
 30
0.000000
  70
    32
  0
VERTEX
  8
0
  5
170B
 10
54.0765
 20
164.591
 30
0.000000
  70
    32
  0
VERTEX
  8
0
  5
170C
 10
53.9910
 20
164.436
 30
0.000000
  70
    32
  0
VERTEX
  8
0
  5
170D
 10
53.9244
 20
164.280
 30
0.000000
  70
    32
  0
VERTEX
  8
0
  5
170E
 10
53.8770
 20
164.122
 30
0.000000
  70
    32
  0
VERTEX
  8
0
  5
170F
 10
53.8489
 20
163.964
 30
0.000000
  70
    32
  0
VERTEX
  8
0
  5
1710
 10
53.8401
 20
163.806
 30
0.000000
  70
    32
  0
VERTEX
  8
0
  5
1711
 10
53.8507
 20
163.647
 30
0.000000
  70
    32
  0
VERTEX
  8
0
  5
1712
 10
53.8805
 20
163.489
 30
0.000000
  70
    32
  0
VERTEX
  8
0
  5
1713
 10
53.9296
 20
163.332
 30
0.000000
  70
    32
  0
VERTEX
  8
0
  5
1714
 10
53.9979
 20
163.175
 30
0.000000
  70
    32
  0
VERTEX
  8
0
  5
1715
 10
54.0852
 20
163.020
 30
0.000000
  70
    32
  0
VERTEX
  8
0
  5
1716
 10
54.1913
 20
162.867
 30
0.000000
  70
    32
  0
VERTEX
  8
0
  5
1717
 10
54.3159
 20
162.716
 30
0.000000
  70
    32
  0
VERTEX
  8
0
  5
1718
 10
54.4590
 20
162.567
 30
0.000000
  70
    32
  0
VERTEX
  8
0
  5
1719
 10
54.6200
 20
162.421
 30
0.000000
  70
    32
  0
VERTEX
  8
0
  5
171A
 10
54.7987
 20
162.277
 30
0.000000
  70
    32
  0
VERTEX
  8
0
  5
171B
 10
54.9947
 20
162.137
 30
0.000000
  70
    32
  0
VERTEX
  8
0
  5
171C
 10
55.2075
 20
162.001
 30
0.000000
  70
    32
  0
VERTEX
  8
0
  5
171D
 10
55.4368
 20
161.868
 30
0.000000
  70
    32
  0
VERTEX
  8
0
  5
171E
 10
55.6820
 20
161.740
 30
0.000000
  70
    32
  0
VERTEX
  8
0
  5
171F
 10
55.9426
 20
161.616
 30
0.000000
  70
    32
  0
VERTEX
  8
0
  5
1720
 10
56.2180
 20
161.497
 30
0.000000
  70
    32
  0
VERTEX
  8
0
  5
1721
 10
56.5077
 20
161.382
 30
0.000000
  70
    32
  0
VERTEX
  8
0
  5
1722
 10
56.8110
 20
161.273
 30
0.000000
  70
    32
  0
VERTEX
  8
0
  5
1723
 10
57.1274
 20
161.170
 30
0.000000
  70
    32
  0
VERTEX
  8
0
  5
1724
 10
57.4560
 20
161.072
 30
0.000000
  70
    32
  0
VERTEX
  8
0
  5
1725
 10
57.7962
 20
160.980
 30
0.000000
  70
    32
  0
VERTEX
  8
0
  5
1726
 10
58.1473
 20
160.894
 30
0.000000
  70
    32
  0
VERTEX
  8
0
  5
1727
 10
58.5085
 20
160.814
 30
0.000000
  70
    32
  0
VERTEX
  8
0
  5
1728
 10
58.8791
 20
160.740
 30
0.000000
  70
    32
  0
VERTEX
  8
0
  5
1729
 10
59.2583
 20
160.673
 30
0.000000
  70
    32
  0
VERTEX
  8
0
  5
172A
 10
59.6452
 20
160.613
 30
0.000000
  70
    32
  0
VERTEX
  8
0
  5
172B
 10
60.0390
 20
160.560
 30
0.000000
  70
    32
  0
VERTEX
  8
0
  5
172C
 10
60.4389
 20
160.514
 30
0.000000
  70
    32
  0
VERTEX
  8
0
  5
172D
 10
60.8440
 20
160.474
 30
0.000000
  70
    32
  0
VERTEX
  8
0
  5
172E
 10
61.2534
 20
160.442
 30
0.000000
  70
    32
  0
SEQEND
  8
0
  5
172F
  0
LINE
  5
13CA
  8
0
 10
64.505646499745083
 20
160.44237420761641
 30
0.0
 11
61.253433087298873
 21
160.44237420761641
 31
0.0
  0
LINE
  5
13CB
  8
0
 10
72.432051103981024
 20
178.31451789274641
 30
0.0
 11
70.460602037757383
 21
188.0646450965761
 31
0.0
  0
ARC
  5
13CC
  8
0
 10
69.970519878053693
 20
187.96555182364509
 30
0.0
 40
0.5
 50
11.43093316767178
 51
90.0
  0
ARC
  5
13CD
  8
0
 10
78.712183022334145
 20
174.98832044776259
 30
0.0
 40
7.0
 50
154.5146337365355
 51
197.21129352201169
  0
ARC
  5
13CE
  8
0
 10
71.941968944277335
 20
178.21542461981539
 30
0.0
 40
0.5
 50
334.51463373653547
 51
11.43093316767178
  0
LINE
  5
13CF
  8
0
 10
72.441968944277335
 20
178.21542461981539
 30
0.0
 11
72.441968944277335
 21
171.92334849676291
 31
0.0
  0
ARC
  5
13D0
  8
0
 10
86.059710713034704
 20
178.21279275833641
 30
0.0
 40
15.0
 50
200.67396706917449
 51
228.2567813213013
  0
LINE
  5
13D1
  8
0
 10
53.317110642766643
 20
178.21542461981539
 30
0.0
 11
53.317110642766643
 21
171.92334849676291
 31
0.0
  0
ARC
  5
13D2
  8
0
 10
47.046896564709812
 20
174.98832044776259
 30
0.0
 40
7.0
 50
342.78870647798823
 51
25.485366263464481
  0
ARC
  5
13D3
  8
0
 10
39.699368874009252
 20
178.21279275833641
 30
0.0
 40
15.0
 50
311.74321867869872
 51
339.32603293082548
  0
LINE
  5
13D4
  8
0
 10
53.327028483062939
 20
178.31451789274641
 30
0.0
 11
55.298477549286588
 21
188.0646450965761
 31
0.0
  0
ARC
  5
13D5
  8
0
 10
53.817110642766643
 20
178.21542461981539
 30
0.0
 40
0.5
 50
168.56906683232819
 51
205.48536626346441
  0
ARC
  5
13D6
  8
0
 10
55.78855970899027
 20
187.96555182364509
 30
0.0
 40
0.5
 50
90.0
 51
168.56906683232819
  0
LINE
  5
13D7
  8
0
 10
321.68220774388237
 20
183.83702730896189
 30
0.0
 11
324.41585446850792
 21
183.83702730896189
 31
0.0
  0
LINE
  5
13D8
  8
0
 10
321.38821696280547
 20
183.33957396521089
 30
0.0
 11
324.74909286766979
 21
183.33957396521089
 31
0.0
  0
LINE
  5
13D9
  8
0
 10
314.88563190668913
 20
173.0070759720787
 30
0.0
 11
331.27338018169701
 21
173.0070759720787
 31
0.0
  0
LINE
  5
13DA
  8
0
 10
315.59051099550379
 20
174.9025952248754
 30
0.0
 11
330.5685010928824
 21
174.9025952248754
 31
0.0
  0
LINE
  5
13DB
  8
0
 10
315.55261579342931
 20
174.1491123578493
 30
0.0
 11
330.60639629495688
 21
174.1491123578493
 31
0.0
  0
LINE
  5
13DC
  8
0
 10
331.17297348960682
 20
173.34555182364511
 30
0.0
 11
314.98603859877937
 21
173.34555182364511
 31
0.0
  0
POLYLINE
  5
13DD
  8
0
 66
     1
 10
0.0
 20
0.0
 30
0.0
  0
VERTEX
  5
15EE
  8
0
 10
316.18057302089107
 20
188.45163913484521
 30
0.0
  0
VERTEX
  5
15EF
  8
0
 10
316.20533192992212
 20
188.45596464183561
 30
0.0
  0
VERTEX
  5
15F0
  8
0
 10
316.25605020567878
 20
188.46215600407339
 30
0.0
  0
VERTEX
  5
15F1
  8
0
 10
316.30824797615668
 20
188.4651809722798
 30
0.0
  0
VERTEX
  5
15F2
  8
0
 10
316.33485294214512
 20
188.46555182364509
 30
0.0
  0
SEQEND
  5
15F3
  8
0
  0
LINE
  5
13DE
  8
0
 10
315.57950604419312
 20
188.19727309750371
 30
0.0
 11
315.57950604419312
 21
174.76646475025609
 31
0.0
  0
LINE
  5
13DF
  8
0
 10
330.57950604419312
 20
188.19727309750371
 30
0.0
 11
330.57950604419312
 21
174.6837801292655
 31
0.0
  0
LINE
  5
13E0
  8
0
 10
338.57950604419312
 20
127.4655518236451
 30
0.0
 11
307.57950604419312
 21
127.4655518236451
 31
0.0
  0
LINE
  5
13E1
  8
1
 10
323.07950604419312
 20
176.46555182364509
 30
0.0
 11
323.07950604419312
 21
126.4655518236451
 31
0.0
  0
LINE
  5
13E2
  8
0
 10
334.57950604419312
 20
115.4655518236451
 30
0.0
 11
334.57950604419312
 21
127.4655518236451
 31
0.0
  0
LINE
  5
13E3
  8
0
 10
311.57950604419312
 20
127.4655518236451
 30
0.0
 11
311.57950604419312
 21
115.4655518236451
 31
0.0
  0
LINE
  5
13E4
  8
0
 10
311.57950604419312
 20
115.4655518236451
 30
0.0
 11
334.57950604419312
 21
115.4655518236451
 31
0.0
  0
LINE
  5
13E5
  8
1
 10
323.07950604419312
 20
198.46555182364509
 30
0.0
 11
323.07950604419312
 21
105.4655518236451
 31
0.0
  0
LINE
  5
13E6
  8
0
 10
332.64193519494847
 20
178.21542461981539
 30
0.0
 11
332.64193519494847
 21
160.5228367317188
 31
0.0
  0
ARC
  5
13E7
  8
0
 10
346.25967696370577
 20
178.21279275833641
 30
0.0
 40
15.0
 50
204.7901669365643
 51
228.2567813213013
  0
LINE
  5
13E8
  8
0
 10
330.1704861287248
 20
188.46555182364509
 30
0.0
 11
315.98852595966139
 21
188.46555182364509
 31
0.0
  0
LINE
  5
13E9
  8
0
 10
332.63201735465208
 20
178.31451789274641
 30
0.0
 11
330.66056828842852
 21
188.0646450965761
 31
0.0
  0
ARC
  5
13EA
  8
0
 10
332.14193519494847
 20
178.21542461981539
 30
0.0
 40
0.5
 50
0.0
 51
11.43093316767178
  0
ARC
  5
13EB
  8
0
 10
330.1704861287248
 20
187.96555182364509
 30
0.0
 40
0.5
 50
11.43093316767178
 51
90.0
  0
ARC
  5
13EC
  8
0
 10
299.89933512468042
 20
178.21279275833641
 30
0.0
 40
15.0
 50
311.74321867869872
 51
335.20983306343572
  0
ARC
  5
13ED
  8
0
 10
315.98852595966139
 20
187.96555182364509
 30
0.0
 40
0.5
 50
90.0
 51
168.56906683232819
  0
ARC
  5
13EE
  8
0
 10
314.01707689343777
 20
178.21542461981539
 30
0.0
 40
0.5
 50
168.56906683232819
 51
180.0
  0
LINE
  5
13EF
  8
0
 10
313.52699473373411
 20
178.31451789274641
 30
0.0
 11
315.49844379995773
 21
188.0646450965761
 31
0.0
  0
POLYLINE
  5
13F0
  8
0
 10
339.07540532922638
 20
163.12071318715959
 30
0.0
 66
     1
 70
     8
  0
VERTEX
  8
0
  5
1730
 10
339.075
 20
163.121
 30
0.000000
  70
    32
  0
VERTEX
  8
0
  5
1731
 10
339.077
 20
163.153
 30
0.000000
  70
    32
  0
VERTEX
  8
0
  5
1732
 10
339.078
 20
163.185
 30
0.000000
  70
    32
  0
VERTEX
  8
0
  5
1733
 10
339.079
 20
163.218
 30
0.000000
  70
    32
  0
VERTEX
  8
0
  5
1734
 10
339.079
 20
163.250
 30
0.000000
  70
    32
  0
VERTEX
  8
0
  5
1735
 10
339.079
 20
163.282
 30
0.000000
  70
    32
  0
VERTEX
  8
0
  5
1736
 10
339.079
 20
163.315
 30
0.000000
  70
    32
  0
VERTEX
  8
0
  5
1737
 10
339.078
 20
163.347
 30
0.000000
  70
    32
  0
VERTEX
  8
0
  5
1738
 10
339.077
 20
163.379
 30
0.000000
  70
    32
  0
VERTEX
  8
0
  5
1739
 10
339.076
 20
163.411
 30
0.000000
  70
    32
  0
VERTEX
  8
0
  5
173A
 10
339.074
 20
163.444
 30
0.000000
  70
    32
  0
VERTEX
  8
0
  5
173B
 10
339.072
 20
163.476
 30
0.000000
  70
    32
  0
VERTEX
  8
0
  5
173C
 10
339.069
 20
163.508
 30
0.000000
  70
    32
  0
VERTEX
  8
0
  5
173D
 10
339.066
 20
163.541
 30
0.000000
  70
    32
  0
VERTEX
  8
0
  5
173E
 10
339.063
 20
163.573
 30
0.000000
  70
    32
  0
VERTEX
  8
0
  5
173F
 10
339.059
 20
163.605
 30
0.000000
  70
    32
  0
VERTEX
  8
0
  5
1740
 10
339.055
 20
163.638
 30
0.000000
  70
    32
  0
VERTEX
  8
0
  5
1741
 10
339.050
 20
163.670
 30
0.000000
  70
    32
  0
VERTEX
  8
0
  5
1742
 10
339.046
 20
163.702
 30
0.000000
  70
    32
  0
VERTEX
  8
0
  5
1743
 10
339.040
 20
163.734
 30
0.000000
  70
    32
  0
VERTEX
  8
0
  5
1744
 10
339.035
 20
163.766
 30
0.000000
  70
    32
  0
VERTEX
  8
0
  5
1745
 10
339.029
 20
163.799
 30
0.000000
  70
    32
  0
VERTEX
  8
0
  5
1746
 10
339.022
 20
163.831
 30
0.000000
  70
    32
  0
VERTEX
  8
0
  5
1747
 10
339.015
 20
163.863
 30
0.000000
  70
    32
  0
VERTEX
  8
0
  5
1748
 10
339.008
 20
163.895
 30
0.000000
  70
    32
  0
VERTEX
  8
0
  5
1749
 10
339.001
 20
163.927
 30
0.000000
  70
    32
  0
VERTEX
  8
0
  5
174A
 10
338.993
 20
163.960
 30
0.000000
  70
    32
  0
VERTEX
  8
0
  5
174B
 10
338.985
 20
163.992
 30
0.000000
  70
    32
  0
VERTEX
  8
0
  5
174C
 10
338.976
 20
164.024
 30
0.000000
  70
    32
  0
VERTEX
  8
0
  5
174D
 10
338.967
 20
164.056
 30
0.000000
  70
    32
  0
VERTEX
  8
0
  5
174E
 10
338.957
 20
164.088
 30
0.000000
  70
    32
  0
VERTEX
  8
0
  5
174F
 10
338.948
 20
164.120
 30
0.000000
  70
    32
  0
VERTEX
  8
0
  5
1750
 10
338.937
 20
164.152
 30
0.000000
  70
    32
  0
VERTEX
  8
0
  5
1751
 10
338.927
 20
164.184
 30
0.000000
  70
    32
  0
VERTEX
  8
0
  5
1752
 10
338.916
 20
164.216
 30
0.000000
  70
    32
  0
VERTEX
  8
0
  5
1753
 10
338.905
 20
164.248
 30
0.000000
  70
    32
  0
VERTEX
  8
0
  5
1754
 10
338.893
 20
164.280
 30
0.000000
  70
    32
  0
VERTEX
  8
0
  5
1755
 10
338.881
 20
164.312
 30
0.000000
  70
    32
  0
VERTEX
  8
0
  5
1756
 10
338.868
 20
164.344
 30
0.000000
  70
    32
  0
VERTEX
  8
0
  5
1757
 10
338.856
 20
164.376
 30
0.000000
  70
    32
  0
VERTEX
  8
0
  5
1758
 10
338.842
 20
164.408
 30
0.000000
  70
    32
  0
VERTEX
  8
0
  5
1759
 10
338.829
 20
164.439
 30
0.000000
  70
    32
  0
VERTEX
  8
0
  5
175A
 10
338.815
 20
164.471
 30
0.000000
  70
    32
  0
VERTEX
  8
0
  5
175B
 10
338.801
 20
164.503
 30
0.000000
  70
    32
  0
VERTEX
  8
0
  5
175C
 10
338.786
 20
164.535
 30
0.000000
  70
    32
  0
VERTEX
  8
0
  5
175D
 10
338.771
 20
164.566
 30
0.000000
  70
    32
  0
VERTEX
  8
0
  5
175E
 10
338.755
 20
164.598
 30
0.000000
  70
    32
  0
VERTEX
  8
0
  5
175F
 10
338.740
 20
164.630
 30
0.000000
  70
    32
  0
VERTEX
  8
0
  5
1760
 10
338.723
 20
164.661
 30
0.000000
  70
    32
  0
VERTEX
  8
0
  5
1761
 10
338.707
 20
164.693
 30
0.000000
  70
    32
  0
VERTEX
  8
0
  5
1762
 10
338.690
 20
164.724
 30
0.000000
  70
    32
  0
VERTEX
  8
0
  5
1763
 10
338.673
 20
164.756
 30
0.000000
  70
    32
  0
VERTEX
  8
0
  5
1764
 10
338.655
 20
164.787
 30
0.000000
  70
    32
  0
VERTEX
  8
0
  5
1765
 10
338.637
 20
164.819
 30
0.000000
  70
    32
  0
VERTEX
  8
0
  5
1766
 10
338.619
 20
164.850
 30
0.000000
  70
    32
  0
VERTEX
  8
0
  5
1767
 10
338.600
 20
164.882
 30
0.000000
  70
    32
  0
VERTEX
  8
0
  5
1768
 10
338.581
 20
164.913
 30
0.000000
  70
    32
  0
VERTEX
  8
0
  5
1769
 10
338.561
 20
164.944
 30
0.000000
  70
    32
  0
VERTEX
  8
0
  5
176A
 10
338.541
 20
164.975
 30
0.000000
  70
    32
  0
VERTEX
  8
0
  5
176B
 10
338.521
 20
165.007
 30
0.000000
  70
    32
  0
VERTEX
  8
0
  5
176C
 10
338.500
 20
165.038
 30
0.000000
  70
    32
  0
VERTEX
  8
0
  5
176D
 10
338.480
 20
165.069
 30
0.000000
  70
    32
  0
VERTEX
  8
0
  5
176E
 10
338.458
 20
165.100
 30
0.000000
  70
    32
  0
VERTEX
  8
0
  5
176F
 10
338.436
 20
165.131
 30
0.000000
  70
    32
  0
VERTEX
  8
0
  5
1770
 10
338.414
 20
165.162
 30
0.000000
  70
    32
  0
VERTEX
  8
0
  5
1771
 10
338.392
 20
165.193
 30
0.000000
  70
    32
  0
VERTEX
  8
0
  5
1772
 10
338.369
 20
165.224
 30
0.000000
  70
    32
  0
VERTEX
  8
0
  5
1773
 10
338.346
 20
165.255
 30
0.000000
  70
    32
  0
VERTEX
  8
0
  5
1774
 10
338.322
 20
165.286
 30
0.000000
  70
    32
  0
VERTEX
  8
0
  5
1775
 10
338.299
 20
165.316
 30
0.000000
  70
    32
  0
VERTEX
  8
0
  5
1776
 10
338.274
 20
165.347
 30
0.000000
  70
    32
  0
VERTEX
  8
0
  5
1777
 10
338.250
 20
165.378
 30
0.000000
  70
    32
  0
VERTEX
  8
0
  5
1778
 10
338.225
 20
165.408
 30
0.000000
  70
    32
  0
VERTEX
  8
0
  5
1779
 10
338.199
 20
165.439
 30
0.000000
  70
    32
  0
VERTEX
  8
0
  5
177A
 10
338.174
 20
165.469
 30
0.000000
  70
    32
  0
VERTEX
  8
0
  5
177B
 10
338.148
 20
165.500
 30
0.000000
  70
    32
  0
VERTEX
  8
0
  5
177C
 10
338.121
 20
165.530
 30
0.000000
  70
    32
  0
VERTEX
  8
0
  5
177D
 10
338.094
 20
165.561
 30
0.000000
  70
    32
  0
VERTEX
  8
0
  5
177E
 10
338.067
 20
165.591
 30
0.000000
  70
    32
  0
VERTEX
  8
0
  5
177F
 10
338.040
 20
165.621
 30
0.000000
  70
    32
  0
VERTEX
  8
0
  5
1780
 10
338.012
 20
165.651
 30
0.000000
  70
    32
  0
VERTEX
  8
0
  5
1781
 10
337.984
 20
165.681
 30
0.000000
  70
    32
  0
VERTEX
  8
0
  5
1782
 10
337.955
 20
165.711
 30
0.000000
  70
    32
  0
VERTEX
  8
0
  5
1783
 10
337.926
 20
165.741
 30
0.000000
  70
    32
  0
VERTEX
  8
0
  5
1784
 10
337.897
 20
165.771
 30
0.000000
  70
    32
  0
VERTEX
  8
0
  5
1785
 10
337.868
 20
165.801
 30
0.000000
  70
    32
  0
VERTEX
  8
0
  5
1786
 10
337.838
 20
165.831
 30
0.000000
  70
    32
  0
VERTEX
  8
0
  5
1787
 10
337.807
 20
165.861
 30
0.000000
  70
    32
  0
VERTEX
  8
0
  5
1788
 10
337.777
 20
165.891
 30
0.000000
  70
    32
  0
VERTEX
  8
0
  5
1789
 10
337.746
 20
165.920
 30
0.000000
  70
    32
  0
VERTEX
  8
0
  5
178A
 10
337.714
 20
165.950
 30
0.000000
  70
    32
  0
VERTEX
  8
0
  5
178B
 10
337.683
 20
165.979
 30
0.000000
  70
    32
  0
VERTEX
  8
0
  5
178C
 10
337.651
 20
166.009
 30
0.000000
  70
    32
  0
VERTEX
  8
0
  5
178D
 10
337.618
 20
166.038
 30
0.000000
  70
    32
  0
VERTEX
  8
0
  5
178E
 10
337.585
 20
166.068
 30
0.000000
  70
    32
  0
VERTEX
  8
0
  5
178F
 10
337.552
 20
166.097
 30
0.000000
  70
    32
  0
VERTEX
  8
0
  5
1790
 10
337.519
 20
166.126
 30
0.000000
  70
    32
  0
VERTEX
  8
0
  5
1791
 10
337.485
 20
166.155
 30
0.000000
  70
    32
  0
VERTEX
  8
0
  5
1792
 10
337.451
 20
166.184
 30
0.000000
  70
    32
  0
VERTEX
  8
0
  5
1793
 10
337.417
 20
166.213
 30
0.000000
  70
    32
  0
VERTEX
  8
0
  5
1794
 10
337.382
 20
166.242
 30
0.000000
  70
    32
  0
VERTEX
  8
0
  5
1795
 10
337.347
 20
166.271
 30
0.000000
  70
    32
  0
VERTEX
  8
0
  5
1796
 10
337.311
 20
166.300
 30
0.000000
  70
    32
  0
VERTEX
  8
0
  5
1797
 10
337.275
 20
166.328
 30
0.000000
  70
    32
  0
VERTEX
  8
0
  5
1798
 10
337.239
 20
166.357
 30
0.000000
  70
    32
  0
VERTEX
  8
0
  5
1799
 10
337.203
 20
166.386
 30
0.000000
  70
    32
  0
VERTEX
  8
0
  5
179A
 10
337.166
 20
166.414
 30
0.000000
  70
    32
  0
VERTEX
  8
0
  5
179B
 10
337.129
 20
166.443
 30
0.000000
  70
    32
  0
VERTEX
  8
0
  5
179C
 10
337.091
 20
166.471
 30
0.000000
  70
    32
  0
VERTEX
  8
0
  5
179D
 10
337.053
 20
166.499
 30
0.000000
  70
    32
  0
VERTEX
  8
0
  5
179E
 10
337.015
 20
166.527
 30
0.000000
  70
    32
  0
VERTEX
  8
0
  5
179F
 10
336.977
 20
166.555
 30
0.000000
  70
    32
  0
VERTEX
  8
0
  5
17A0
 10
336.938
 20
166.583
 30
0.000000
  70
    32
  0
VERTEX
  8
0
  5
17A1
 10
336.899
 20
166.611
 30
0.000000
  70
    32
  0
VERTEX
  8
0
  5
17A2
 10
336.859
 20
166.639
 30
0.000000
  70
    32
  0
VERTEX
  8
0
  5
17A3
 10
336.820
 20
166.667
 30
0.000000
  70
    32
  0
VERTEX
  8
0
  5
17A4
 10
336.779
 20
166.695
 30
0.000000
  70
    32
  0
VERTEX
  8
0
  5
17A5
 10
336.739
 20
166.722
 30
0.000000
  70
    32
  0
VERTEX
  8
0
  5
17A6
 10
336.698
 20
166.750
 30
0.000000
  70
    32
  0
VERTEX
  8
0
  5
17A7
 10
336.657
 20
166.777
 30
0.000000
  70
    32
  0
VERTEX
  8
0
  5
17A8
 10
336.616
 20
166.805
 30
0.000000
  70
    32
  0
VERTEX
  8
0
  5
17A9
 10
336.574
 20
166.832
 30
0.000000
  70
    32
  0
VERTEX
  8
0
  5
17AA
 10
336.532
 20
166.859
 30
0.000000
  70
    32
  0
VERTEX
  8
0
  5
17AB
 10
336.489
 20
166.886
 30
0.000000
  70
    32
  0
VERTEX
  8
0
  5
17AC
 10
336.447
 20
166.913
 30
0.000000
  70
    32
  0
VERTEX
  8
0
  5
17AD
 10
336.404
 20
166.940
 30
0.000000
  70
    32
  0
VERTEX
  8
0
  5
17AE
 10
336.360
 20
166.967
 30
0.000000
  70
    32
  0
VERTEX
  8
0
  5
17AF
 10
336.317
 20
166.994
 30
0.000000
  70
    32
  0
VERTEX
  8
0
  5
17B0
 10
336.273
 20
167.021
 30
0.000000
  70
    32
  0
SEQEND
  8
0
  5
17B1
  0
LINE
  5
13F1
  8
0
 10
339.075500263256
 20
163.12753894441991
 30
0.0
 11
338.57950604419312
 21
127.4655518236451
 31
0.0
  0
LINE
  5
13F2
  8
0
 10
46.883545574459092
 20
163.12753894441991
 30
0.0
 11
47.379539793521978
 21
127.4655518236451
 31
0.0
  0
LINE
  5
13F3
  8
0
 10
307.08351182513007
 20
163.12753894441991
 30
0.0
 11
307.57950604419312
 21
127.4655518236451
 31
0.0
  0
POLYLINE
  5
13F4
  8
0
 10
309.88623553493608
 20
167.02075004060006
 30
0.0
 66
     1
 70
     8
  0
VERTEX
  8
0
  5
17B2
 10
309.886
 20
167.021
 30
0.000000
  70
    32
  0
VERTEX
  8
0
  5
17B3
 10
309.842
 20
166.994
 30
0.000000
  70
    32
  0
VERTEX
  8
0
  5
17B4
 10
309.799
 20
166.967
 30
0.000000
  70
    32
  0
VERTEX
  8
0
  5
17B5
 10
309.755
 20
166.940
 30
0.000000
  70
    32
  0
VERTEX
  8
0
  5
17B6
 10
309.712
 20
166.913
 30
0.000000
  70
    32
  0
VERTEX
  8
0
  5
17B7
 10
309.670
 20
166.886
 30
0.000000
  70
    32
  0
VERTEX
  8
0
  5
17B8
 10
309.627
 20
166.859
 30
0.000000
  70
    32
  0
VERTEX
  8
0
  5
17B9
 10
309.585
 20
166.832
 30
0.000000
  70
    32
  0
VERTEX
  8
0
  5
17BA
 10
309.543
 20
166.805
 30
0.000000
  70
    32
  0
VERTEX
  8
0
  5
17BB
 10
309.502
 20
166.777
 30
0.000000
  70
    32
  0
VERTEX
  8
0
  5
17BC
 10
309.461
 20
166.750
 30
0.000000
  70
    32
  0
VERTEX
  8
0
  5
17BD
 10
309.420
 20
166.722
 30
0.000000
  70
    32
  0
VERTEX
  8
0
  5
17BE
 10
309.380
 20
166.695
 30
0.000000
  70
    32
  0
VERTEX
  8
0
  5
17BF
 10
309.339
 20
166.667
 30
0.000000
  70
    32
  0
VERTEX
  8
0
  5
17C0
 10
309.300
 20
166.639
 30
0.000000
  70
    32
  0
VERTEX
  8
0
  5
17C1
 10
309.260
 20
166.611
 30
0.000000
  70
    32
  0
VERTEX
  8
0
  5
17C2
 10
309.221
 20
166.583
 30
0.000000
  70
    32
  0
VERTEX
  8
0
  5
17C3
 10
309.182
 20
166.555
 30
0.000000
  70
    32
  0
VERTEX
  8
0
  5
17C4
 10
309.144
 20
166.527
 30
0.000000
  70
    32
  0
VERTEX
  8
0
  5
17C5
 10
309.106
 20
166.499
 30
0.000000
  70
    32
  0
VERTEX
  8
0
  5
17C6
 10
309.068
 20
166.471
 30
0.000000
  70
    32
  0
VERTEX
  8
0
  5
17C7
 10
309.030
 20
166.443
 30
0.000000
  70
    32
  0
VERTEX
  8
0
  5
17C8
 10
308.993
 20
166.414
 30
0.000000
  70
    32
  0
VERTEX
  8
0
  5
17C9
 10
308.956
 20
166.386
 30
0.000000
  70
    32
  0
VERTEX
  8
0
  5
17CA
 10
308.920
 20
166.357
 30
0.000000
  70
    32
  0
VERTEX
  8
0
  5
17CB
 10
308.884
 20
166.328
 30
0.000000
  70
    32
  0
VERTEX
  8
0
  5
17CC
 10
308.848
 20
166.300
 30
0.000000
  70
    32
  0
VERTEX
  8
0
  5
17CD
 10
308.812
 20
166.271
 30
0.000000
  70
    32
  0
VERTEX
  8
0
  5
17CE
 10
308.777
 20
166.242
 30
0.000000
  70
    32
  0
VERTEX
  8
0
  5
17CF
 10
308.742
 20
166.213
 30
0.000000
  70
    32
  0
VERTEX
  8
0
  5
17D0
 10
308.708
 20
166.184
 30
0.000000
  70
    32
  0
VERTEX
  8
0
  5
17D1
 10
308.674
 20
166.155
 30
0.000000
  70
    32
  0
VERTEX
  8
0
  5
17D2
 10
308.640
 20
166.126
 30
0.000000
  70
    32
  0
VERTEX
  8
0
  5
17D3
 10
308.607
 20
166.097
 30
0.000000
  70
    32
  0
VERTEX
  8
0
  5
17D4
 10
308.574
 20
166.068
 30
0.000000
  70
    32
  0
VERTEX
  8
0
  5
17D5
 10
308.541
 20
166.038
 30
0.000000
  70
    32
  0
VERTEX
  8
0
  5
17D6
 10
308.508
 20
166.009
 30
0.000000
  70
    32
  0
VERTEX
  8
0
  5
17D7
 10
308.476
 20
165.979
 30
0.000000
  70
    32
  0
VERTEX
  8
0
  5
17D8
 10
308.445
 20
165.950
 30
0.000000
  70
    32
  0
VERTEX
  8
0
  5
17D9
 10
308.413
 20
165.920
 30
0.000000
  70
    32
  0
VERTEX
  8
0
  5
17DA
 10
308.382
 20
165.891
 30
0.000000
  70
    32
  0
VERTEX
  8
0
  5
17DB
 10
308.352
 20
165.861
 30
0.000000
  70
    32
  0
VERTEX
  8
0
  5
17DC
 10
308.321
 20
165.831
 30
0.000000
  70
    32
  0
VERTEX
  8
0
  5
17DD
 10
308.291
 20
165.801
 30
0.000000
  70
    32
  0
VERTEX
  8
0
  5
17DE
 10
308.262
 20
165.771
 30
0.000000
  70
    32
  0
VERTEX
  8
0
  5
17DF
 10
308.233
 20
165.741
 30
0.000000
  70
    32
  0
VERTEX
  8
0
  5
17E0
 10
308.204
 20
165.711
 30
0.000000
  70
    32
  0
VERTEX
  8
0
  5
17E1
 10
308.175
 20
165.681
 30
0.000000
  70
    32
  0
VERTEX
  8
0
  5
17E2
 10
308.147
 20
165.651
 30
0.000000
  70
    32
  0
VERTEX
  8
0
  5
17E3
 10
308.119
 20
165.621
 30
0.000000
  70
    32
  0
VERTEX
  8
0
  5
17E4
 10
308.092
 20
165.591
 30
0.000000
  70
    32
  0
VERTEX
  8
0
  5
17E5
 10
308.065
 20
165.561
 30
0.000000
  70
    32
  0
VERTEX
  8
0
  5
17E6
 10
308.038
 20
165.530
 30
0.000000
  70
    32
  0
VERTEX
  8
0
  5
17E7
 10
308.011
 20
165.500
 30
0.000000
  70
    32
  0
VERTEX
  8
0
  5
17E8
 10
307.985
 20
165.469
 30
0.000000
  70
    32
  0
VERTEX
  8
0
  5
17E9
 10
307.960
 20
165.439
 30
0.000000
  70
    32
  0
VERTEX
  8
0
  5
17EA
 10
307.934
 20
165.408
 30
0.000000
  70
    32
  0
VERTEX
  8
0
  5
17EB
 10
307.909
 20
165.378
 30
0.000000
  70
    32
  0
VERTEX
  8
0
  5
17EC
 10
307.885
 20
165.347
 30
0.000000
  70
    32
  0
VERTEX
  8
0
  5
17ED
 10
307.860
 20
165.316
 30
0.000000
  70
    32
  0
VERTEX
  8
0
  5
17EE
 10
307.837
 20
165.286
 30
0.000000
  70
    32
  0
VERTEX
  8
0
  5
17EF
 10
307.813
 20
165.255
 30
0.000000
  70
    32
  0
VERTEX
  8
0
  5
17F0
 10
307.790
 20
165.224
 30
0.000000
  70
    32
  0
VERTEX
  8
0
  5
17F1
 10
307.767
 20
165.193
 30
0.000000
  70
    32
  0
VERTEX
  8
0
  5
17F2
 10
307.745
 20
165.162
 30
0.000000
  70
    32
  0
VERTEX
  8
0
  5
17F3
 10
307.723
 20
165.131
 30
0.000000
  70
    32
  0
VERTEX
  8
0
  5
17F4
 10
307.701
 20
165.100
 30
0.000000
  70
    32
  0
VERTEX
  8
0
  5
17F5
 10
307.680
 20
165.069
 30
0.000000
  70
    32
  0
VERTEX
  8
0
  5
17F6
 10
307.659
 20
165.038
 30
0.000000
  70
    32
  0
VERTEX
  8
0
  5
17F7
 10
307.638
 20
165.007
 30
0.000000
  70
    32
  0
VERTEX
  8
0
  5
17F8
 10
307.618
 20
164.975
 30
0.000000
  70
    32
  0
VERTEX
  8
0
  5
17F9
 10
307.598
 20
164.944
 30
0.000000
  70
    32
  0
VERTEX
  8
0
  5
17FA
 10
307.578
 20
164.913
 30
0.000000
  70
    32
  0
VERTEX
  8
0
  5
17FB
 10
307.559
 20
164.882
 30
0.000000
  70
    32
  0
VERTEX
  8
0
  5
17FC
 10
307.540
 20
164.850
 30
0.000000
  70
    32
  0
VERTEX
  8
0
  5
17FD
 10
307.522
 20
164.819
 30
0.000000
  70
    32
  0
VERTEX
  8
0
  5
17FE
 10
307.504
 20
164.787
 30
0.000000
  70
    32
  0
VERTEX
  8
0
  5
17FF
 10
307.486
 20
164.756
 30
0.000000
  70
    32
  0
VERTEX
  8
0
  5
1800
 10
307.469
 20
164.724
 30
0.000000
  70
    32
  0
VERTEX
  8
0
  5
1801
 10
307.452
 20
164.693
 30
0.000000
  70
    32
  0
VERTEX
  8
0
  5
1802
 10
307.436
 20
164.661
 30
0.000000
  70
    32
  0
VERTEX
  8
0
  5
1803
 10
307.419
 20
164.630
 30
0.000000
  70
    32
  0
VERTEX
  8
0
  5
1804
 10
307.404
 20
164.598
 30
0.000000
  70
    32
  0
VERTEX
  8
0
  5
1805
 10
307.388
 20
164.566
 30
0.000000
  70
    32
  0
VERTEX
  8
0
  5
1806
 10
307.373
 20
164.535
 30
0.000000
  70
    32
  0
VERTEX
  8
0
  5
1807
 10
307.358
 20
164.503
 30
0.000000
  70
    32
  0
VERTEX
  8
0
  5
1808
 10
307.344
 20
164.471
 30
0.000000
  70
    32
  0
VERTEX
  8
0
  5
1809
 10
307.330
 20
164.439
 30
0.000000
  70
    32
  0
VERTEX
  8
0
  5
180A
 10
307.317
 20
164.408
 30
0.000000
  70
    32
  0
VERTEX
  8
0
  5
180B
 10
307.303
 20
164.376
 30
0.000000
  70
    32
  0
VERTEX
  8
0
  5
180C
 10
307.291
 20
164.344
 30
0.000000
  70
    32
  0
VERTEX
  8
0
  5
180D
 10
307.278
 20
164.312
 30
0.000000
  70
    32
  0
VERTEX
  8
0
  5
180E
 10
307.266
 20
164.280
 30
0.000000
  70
    32
  0
VERTEX
  8
0
  5
180F
 10
307.254
 20
164.248
 30
0.000000
  70
    32
  0
VERTEX
  8
0
  5
1810
 10
307.243
 20
164.216
 30
0.000000
  70
    32
  0
VERTEX
  8
0
  5
1811
 10
307.232
 20
164.184
 30
0.000000
  70
    32
  0
VERTEX
  8
0
  5
1812
 10
307.222
 20
164.152
 30
0.000000
  70
    32
  0
VERTEX
  8
0
  5
1813
 10
307.211
 20
164.120
 30
0.000000
  70
    32
  0
VERTEX
  8
0
  5
1814
 10
307.202
 20
164.088
 30
0.000000
  70
    32
  0
VERTEX
  8
0
  5
1815
 10
307.192
 20
164.056
 30
0.000000
  70
    32
  0
VERTEX
  8
0
  5
1816
 10
307.183
 20
164.024
 30
0.000000
  70
    32
  0
VERTEX
  8
0
  5
1817
 10
307.174
 20
163.992
 30
0.000000
  70
    32
  0
VERTEX
  8
0
  5
1818
 10
307.166
 20
163.960
 30
0.000000
  70
    32
  0
VERTEX
  8
0
  5
1819
 10
307.158
 20
163.927
 30
0.000000
  70
    32
  0
VERTEX
  8
0
  5
181A
 10
307.151
 20
163.895
 30
0.000000
  70
    32
  0
VERTEX
  8
0
  5
181B
 10
307.144
 20
163.863
 30
0.000000
  70
    32
  0
VERTEX
  8
0
  5
181C
 10
307.137
 20
163.831
 30
0.000000
  70
    32
  0
VERTEX
  8
0
  5
181D
 10
307.130
 20
163.799
 30
0.000000
  70
    32
  0
VERTEX
  8
0
  5
181E
 10
307.124
 20
163.766
 30
0.000000
  70
    32
  0
VERTEX
  8
0
  5
181F
 10
307.119
 20
163.734
 30
0.000000
  70
    32
  0
VERTEX
  8
0
  5
1820
 10
307.113
 20
163.702
 30
0.000000
  70
    32
  0
VERTEX
  8
0
  5
1821
 10
307.109
 20
163.670
 30
0.000000
  70
    32
  0
VERTEX
  8
0
  5
1822
 10
307.104
 20
163.638
 30
0.000000
  70
    32
  0
VERTEX
  8
0
  5
1823
 10
307.100
 20
163.605
 30
0.000000
  70
    32
  0
VERTEX
  8
0
  5
1824
 10
307.096
 20
163.573
 30
0.000000
  70
    32
  0
VERTEX
  8
0
  5
1825
 10
307.093
 20
163.541
 30
0.000000
  70
    32
  0
VERTEX
  8
0
  5
1826
 10
307.090
 20
163.508
 30
0.000000
  70
    32
  0
VERTEX
  8
0
  5
1827
 10
307.087
 20
163.476
 30
0.000000
  70
    32
  0
VERTEX
  8
0
  5
1828
 10
307.085
 20
163.444
 30
0.000000
  70
    32
  0
VERTEX
  8
0
  5
1829
 10
307.083
 20
163.411
 30
0.000000
  70
    32
  0
VERTEX
  8
0
  5
182A
 10
307.082
 20
163.379
 30
0.000000
  70
    32
  0
VERTEX
  8
0
  5
182B
 10
307.081
 20
163.347
 30
0.000000
  70
    32
  0
VERTEX
  8
0
  5
182C
 10
307.080
 20
163.315
 30
0.000000
  70
    32
  0
VERTEX
  8
0
  5
182D
 10
307.080
 20
163.282
 30
0.000000
  70
    32
  0
VERTEX
  8
0
  5
182E
 10
307.080
 20
163.250
 30
0.000000
  70
    32
  0
VERTEX
  8
0
  5
182F
 10
307.080
 20
163.218
 30
0.000000
  70
    32
  0
VERTEX
  8
0
  5
1830
 10
307.081
 20
163.185
 30
0.000000
  70
    32
  0
VERTEX
  8
0
  5
1831
 10
307.082
 20
163.153
 30
0.000000
  70
    32
  0
VERTEX
  8
0
  5
1832
 10
307.084
 20
163.121
 30
0.000000
  70
    32
  0
SEQEND
  8
0
  5
1833
  0
ARC
  5
13F5
  8
0
 10
347.94659551503162
 20
155.568169113549
 30
0.0
 40
16.0
 50
164.0225319366626
 51
212.5247298491451
  0
ARC
  5
13F6
  8
0
 10
330.64193519494847
 20
160.5228367317188
 30
0.0
 40
2.0
 50
344.02253193666257
 51
0.0
  0
LINE
  5
13F7
  8
0
 10
332.64364195896923
 20
160.7802450297574
 30
0.0
 11
331.27338018169712
 21
173.00707597207781
 31
0.0
  0
LINE
  5
13F8
  8
0
 10
331.17297348960682
 20
173.34555182364511
 30
0.0
 11
331.27338018169701
 21
173.0070759720787
 31
0.0
  0
LINE
  5
13F9
  8
0
 10
330.5685010928824
 20
174.9025952248754
 30
0.0
 11
330.64203335718821
 21
173.4405288340144
 31
0.0
  0
ARC
  5
13FA
  8
0
 10
330.74190712539172
 20
173.4455518236451
 30
0.0
 40
0.1
 50
182.8791726428968
 51
270.0
  0
LINE
  5
13FB
  8
0
 10
313.51707689343772
 20
178.21542461981539
 30
0.0
 11
313.51707689343772
 21
160.5228367317188
 31
0.0
  0
LINE
  5
13FC
  8
0
 10
313.51537012941691
 20
160.7802450297574
 30
0.0
 11
314.88563190668901
 21
173.00707597207781
 31
0.0
  0
ARC
  5
13FD
  8
0
 10
298.21241657335452
 20
155.568169113549
 30
0.0
 40
16.0
 50
327.4752701508549
 51
15.977468063337369
  0
ARC
  5
13FE
  8
0
 10
315.51707689343772
 20
160.5228367317188
 30
0.0
 40
2.0
 50
180.0
 51
195.97746806333731
  0
LINE
  5
13FF
  8
0
 10
315.59051099550379
 20
174.9025952248754
 30
0.0
 11
315.51697873119798
 21
173.4405288340144
 31
0.0
  0
ARC
  5
1400
  8
0
 10
315.41710496299447
 20
173.4455518236451
 30
0.0
 40
0.1
 50
270.0
 51
357.12082735710311
  0
LINE
  5
1401
  8
0
 10
314.98603859877932
 20
173.34555182364511
 30
0.0
 11
314.88563190668913
 21
173.0070759720787
 31
0.0
  0
ARC
  5
1402
  8
0
 10
337.27130459298257
 20
172.26037191131721
 30
0.0
 40
18.0
 50
116.9726637604859
 51
134.80837889191491
  0
ARC
  5
1403
  8
0
 10
329.78747644516511
 20
186.96555182364509
 30
0.0
 40
1.5
 50
90.0
 51
116.9726637604859
  0
ARC
  5
1404
  8
0
 10
390.7567355025169
 20
228.53903318531999
 30
0.0
 40
80.0
 50
214.0362878740896
 51
219.4398401049931
  0
ARC
  5
1405
  8
0
 10
325.29075911110772
 20
184.32132253540669
 30
0.0
 40
1.0
 50
134.80837889191491
 51
214.0362878740896
  0
ARC
  5
1406
  8
0
 10
315.92180445704457
 20
168.46253634508261
 30
0.0
 40
16.0
 50
23.734790178187481
 51
35.341083939324157
  0
ARC
  5
1407
  8
0
 10
255.4022765858692
 20
228.53903318531999
 30
0.0
 40
80.0
 50
320.5601598950069
 51
325.96371212591038
  0
ARC
  5
1408
  8
0
 10
308.8877074954035
 20
172.26037191131721
 30
0.0
 40
18.0
 50
45.191621108085108
 51
63.027336239514078
  0
ARC
  5
1409
  8
0
 10
320.86825297727842
 20
184.32132253540669
 30
0.0
 40
1.0
 50
325.96371212591038
 51
45.191621108085108
  0
ARC
  5
140A
  8
0
 10
316.37153564322108
 20
186.96555182364509
 30
0.0
 40
1.5
 50
63.027336239514078
 51
90.0
  0
ARC
  5
140B
  8
0
 10
330.23720763134162
 20
168.46253634508261
 30
0.0
 40
16.0
 50
144.65891606067581
 51
156.2652098218125
  0
LINE
  5
140C
  8
2
 10
62.889539793521969
 20
144.5070037079725
 30
0.0
 11
55.889539793521898
 21
140.46555182364509
 31
0.0
  0
LINE
  5
140D
  8
2
 10
70.889539793522019
 20
138.46555182364509
 30
0.0
 11
54.889539793521919
 21
138.46555182364509
 31
0.0
  0
LINE
  5
140E
  8
2
 10
69.889539793522033
 20
140.46555182364509
 30
0.0
 11
55.889539793521919
 21
140.46555182364509
 31
0.0
  0
LINE
  5
140F
  8
2
 10
55.889539793521919
 20
117.4655518236453
 30
0.0
 11
69.889539793522033
 21
117.4655518236453
 31
0.0
  0
LINE
  5
1410
  8
2
 10
55.889539793521919
 20
117.4655518236453
 30
0.0
 11
53.889539793521919
 21
115.4655518236451
 31
0.0
  0
LINE
  5
1411
  8
2
 10
55.889539793521919
 20
117.4655518236453
 30
0.0
 11
55.889539793521919
 21
140.46555182364509
 31
0.0
  0
LINE
  5
1412
  8
2
 10
54.889539793521926
 20
116.4655518236452
 30
0.0
 11
54.889539793521948
 21
138.46555182364509
 31
0.0
  0
LINE
  5
1413
  8
2
 10
55.889539793521941
 20
140.19760263121401
 30
0.0
 11
54.889539793521919
 21
138.46555182364509
 31
0.0
  0
LINE
  5
1414
  8
2
 10
69.889539793522033
 20
117.4655518236453
 30
0.0
 11
71.889539793522033
 21
115.4655518236451
 31
0.0
  0
LINE
  5
1415
  8
2
 10
69.889539793522033
 20
117.4655518236453
 30
0.0
 11
69.889539793522033
 21
140.46555182364509
 31
0.0
  0
LINE
  5
1416
  8
2
 10
70.889539793522019
 20
116.4655518236452
 30
0.0
 11
70.889539793522019
 21
138.46555182364509
 31
0.0
  0
LINE
  5
1417
  8
2
 10
62.889539793521969
 20
144.5070037079725
 30
0.0
 11
69.889539793522047
 21
140.46555182364509
 31
0.0
  0
LINE
  5
1418
  8
2
 10
69.889539793522019
 20
140.19760263121401
 30
0.0
 11
70.889539793522033
 21
138.46555182364509
 31
0.0
  0
LINE
  5
1419
  8
2
 10
330.08950604419312
 20
117.4655518236453
 30
0.0
 11
332.08950604419312
 21
115.4655518236451
 31
0.0
  0
LINE
  5
141A
  8
2
 10
316.089506044193
 20
117.4655518236453
 30
0.0
 11
314.089506044193
 21
115.4655518236451
 31
0.0
  0
LINE
  5
141B
  8
2
 10
323.08950604419312
 20
144.5070037079725
 30
0.0
 11
330.08950604419312
 21
140.46555182364509
 31
0.0
  0
LINE
  5
141C
  8
2
 10
316.089506044193
 20
117.4655518236453
 30
0.0
 11
330.08950604419312
 21
117.4655518236453
 31
0.0
  0
LINE
  5
141D
  8
2
 10
330.08950604419312
 20
140.46555182364509
 30
0.0
 11
316.089506044193
 21
140.46555182364509
 31
0.0
  0
LINE
  5
141E
  8
2
 10
331.089506044193
 20
138.46555182364509
 30
0.0
 11
315.08950604419289
 21
138.46555182364509
 31
0.0
  0
LINE
  5
141F
  8
2
 10
315.089506044193
 20
116.4655518236453
 30
0.0
 11
315.089506044193
 21
138.46555182364509
 31
0.0
  0
LINE
  5
1420
  8
2
 10
316.089506044193
 20
117.4655518236453
 30
0.0
 11
316.089506044193
 21
140.46555182364509
 31
0.0
  0
LINE
  5
1421
  8
2
 10
323.08950604419312
 20
144.5070037079725
 30
0.0
 11
316.089506044193
 21
140.46555182364509
 31
0.0
  0
LINE
  5
1422
  8
2
 10
316.089506044193
 20
140.19760263121401
 30
0.0
 11
315.08950604419289
 21
138.46555182364509
 31
0.0
  0
LINE
  5
1423
  8
2
 10
331.089506044193
 20
116.4655518236453
 30
0.0
 11
331.089506044193
 21
138.46555182364509
 31
0.0
  0
LINE
  5
1424
  8
2
 10
330.08950604419312
 20
117.4655518236453
 30
0.0
 11
330.08950604419312
 21
140.46555182364509
 31
0.0
  0
LINE
  5
1425
  8
2
 10
330.08950604419312
 20
140.19760263121401
 30
0.0
 11
331.089506044193
 21
138.46555182364509
 31
0.0
  0
LINE
  5
142F
  8
1
 10
156.26155938411361
 20
278.27179761155742
 30
0.0
 11
156.26155938411361
 21
226.27179761155739
 31
0.0
  0
LINE
  5
1430
  8
1
 10
276.26155938411358
 20
252.27179761155739
 30
0.0
 11
130.26155938411361
 21
252.27179761155739
 31
0.0
  0
LINE
  5
1432
  8
1
 10
156.26155938411361
 20
70.732397177148755
 30
0.0
 11
156.26155938411361
 21
18.732397177148751
 31
0.0
  0
LINE
  5
1433
  8
1
 10
276.26155938411358
 20
44.732397177148748
 30
0.0
 11
130.26155938411361
 21
44.732397177148748
 31
0.0
  0
LINE
  5
147B
  8
0
 10
152.4615593841136
 20
252.9467976115574
 30
0.0
 11
152.46155938411371
 21
251.59679761155741
 31
0.0
  0
LINE
  5
147C
  8
0
 10
160.06155938411359
 20
252.9467976115574
 30
0.0
 11
160.06155938411359
 21
251.59679761155741
 31
0.0
  0
LINE
  5
147D
  8
0
 10
158.05868130231821
 20
252.9467976115574
 30
0.0
 11
160.06155938411359
 21
252.9467976115574
 31
0.0
  0
LINE
  5
147E
  8
0
 10
158.05868130231809
 20
251.59679761155741
 30
0.0
 11
160.06155938411359
 21
251.59679761155741
 31
0.0
  0
LINE
  5
147F
  8
0
 10
152.4615593841136
 20
252.9467976115574
 30
0.0
 11
154.4644374659091
 21
252.9467976115574
 31
0.0
  0
LINE
  5
1480
  8
0
 10
152.46155938411371
 20
251.59679761155741
 30
0.0
 11
154.46443746590921
 21
251.59679761155741
 31
0.0
  0
CIRCLE
  5
1481
  8
0
 10
156.26155938411361
 20
252.27179761155739
 30
0.0
 40
3.999175415007485
  0
LINE
  5
148D
  8
0
 10
69.629539793522014
 20
163.07311924013729
 30
0.0
 11
56.129539793522
 21
163.0731192401372
 31
0.0
  0
ARC
  5
148E
  8
0
 10
62.879539793522021
 20
153.15155182364509
 30
0.0
 40
12.0
 50
109.4670447595973
 51
124.2288663278127
  0
ARC
  5
148F
  8
0
 10
62.879539793522021
 20
153.15155182364509
 30
0.0
 40
12.0
 50
55.771133672187283
 51
70.532955240402714
  0
LINE
  5
1490
  8
0
 10
66.878715208529457
 20
164.46555182364509
 30
0.0
 11
58.880364378514642
 21
164.46555182364509
 31
0.0
  0
LINE
  5
1491
  8
0
 10
56.129539793521971
 20
163.0731192401372
 30
0.0
 11
56.129539793521971
 21
161.533845863148
 31
0.0
  0
LINE
  5
1492
  8
0
 10
69.629539793522014
 20
163.07311924013729
 30
0.0
 11
69.629539793522014
 21
161.533845863148
 31
0.0
  0
CIRCLE
  5
1493
  8
0
 10
156.26155938411361
 20
252.27179761155739
 30
0.0
 40
6.75
  0
ARC
  5
1494
  8
0
 10
158.6251988070658
 20
253.6364454686661
 30
0.0
 40
0.8925000000000011
 50
163.3417582272229
 51
230.59829508168929
  0
ARC
  5
1495
  8
0
 10
158.6251988070658
 20
250.9071497544488
 30
0.0
 40
0.8925000000000002
 50
129.40170491832279
 51
196.65824177277699
  0
ARC
  5
1496
  8
0
 10
157.28155938411359
 20
250.50510578783721
 30
0.0
 40
0.5099999999999997
 50
223.3417582272217
 51
16.658241772777039
  0
ARC
  5
1497
  8
0
 10
156.2615593841137
 20
249.5425018973402
 30
0.0
 40
0.8925000000000002
 50
43.341758227221717
 51
136.65824177277651
  0
ARC
  5
1498
  8
0
 10
155.24155938411371
 20
250.50510578783721
 30
0.0
 40
0.5100000000000002
 50
163.3417582272229
 51
316.6582417727783
  0
ARC
  5
1499
  8
0
 10
153.89791996116151
 20
250.9071497544488
 30
0.0
 40
0.8925000000000011
 50
343.3417582272229
 51
50.598295081677158
  0
ARC
  5
149A
  8
0
 10
157.28155938411359
 20
254.03848943527771
 30
0.0
 40
0.5100000000000003
 50
343.3417582272229
 51
136.65824177277821
  0
ARC
  5
149B
  8
0
 10
156.2615593841137
 20
255.00109332577469
 30
0.0
 40
0.8924999999999984
 50
223.3417582272217
 51
316.6582417727783
  0
ARC
  5
149C
  8
0
 10
155.24155938411371
 20
254.03848943527771
 30
0.0
 40
0.5099999999999997
 50
43.341758227221717
 51
196.65824177277699
  0
ARC
  5
149D
  8
0
 10
153.89791996116151
 20
253.6364454686661
 30
0.0
 40
0.8925000000000004
 50
309.40170491831071
 51
16.658241772777039
  0
LINE
  5
14A3
  8
0
 10
149.50155938411351
 20
163.0731192401372
 30
0.0
 11
149.50155938411351
 21
160.60305271738929
 31
0.0
  0
LINE
  5
14A4
  8
0
 10
159.2518489123251
 20
164.46555182364509
 30
0.0
 11
152.25238396910621
 21
164.46555182364509
 31
0.0
  0
ARC
  5
14A5
  8
0
 10
156.25155938411359
 20
153.15155182364501
 30
0.0
 40
12.0
 50
109.4670447595973
 51
124.2288663278127
  0
LINE
  5
14A6
  8
0
 10
155.6500740789522
 20
163.07311924013729
 30
0.0
 11
149.50155938411351
 21
163.0731192401372
 31
0.0
  0
TEXT
  5
1595
  8
0
 62
     3
 10
0.0
 20
0.0
 30
0.0
 40
10.0
  1
FKF16-SV
  7
STANDARD1
  0
ENDSEC
  0
EOF
