  0
SECTION
  2
HEADER
  9
$ACADVER
  1
AC1009
  9
$INSBASE
 10
0.0
 20
0.0
 30
0.0
  9
$EXTMIN
 10
-0.0005
 20
-2.960436562073669
 30
0.0
  9
$EXTMAX
 10
331.79342635290112
 20
266.4993456316235
 30
0.0
  9
$LIMMIN
 10
0.0
 20
0.0
  9
$LIMMAX
 10
187.5
 20
135.0
  9
$ORTHOMODE
 70
     0
  9
$REGENMODE
 70
     1
  9
$FILLMODE
 70
     1
  9
$QTEXTMODE
 70
     0
  9
$MIRRTEXT
 70
     0
  9
$DRAGMODE
 70
     2
  9
$LTSCALE
 40
10.0
  9
$OSMODE
 70
    37
  9
$ATTMODE
 70
     1
  9
$TEXTSIZE
 40
4.0
  9
$TRACEWID
 40
0.05
  9
$TEXTSTYLE
  7
STANDARD
  9
$CLAYER
  8
0
  9
$CELTYPE
  6
BYLAYER
  9
$CECOLOR
 62
   256
  9
$DIMSCALE
 40
0.5
  9
$DIMASZ
 40
3.0
  9
$DIMEXO
 40
2.0
  9
$DIMDLI
 40
0.38
  9
$DIMRND
 40
0.0
  9
$DIMDLE
 40
0.0
  9
$DIMEXE
 40
2.0
  9
$DIMTP
 40
0.0
  9
$DIMTM
 40
0.0
  9
$DIMTXT
 40
3.0
  9
$DIMCEN
 40
0.0
  9
$DIMTSZ
 40
0.0
  9
$DIMTOL
 70
     0
  9
$DIMLIM
 70
     0
  9
$DIMTIH
 70
     0
  9
$DIMTOH
 70
     0
  9
$DIMSE1
 70
     0
  9
$DIMSE2
 70
     0
  9
$DIMTAD
 70
     1
  9
$DIMZIN
 70
     0
  9
$DIMBLK
  1

  9
$DIMASO
 70
     0
  9
$DIMSHO
 70
     0
  9
$DIMPOST
  1

  9
$DIMAPOST
  1

  9
$DIMALT
 70
     0
  9
$DIMALTD
 70
     2
  9
$DIMALTF
 40
25.399999999999999
  9
$DIMLFAC
 40
1.0
  9
$DIMTOFL
 70
     0
  9
$DIMTVP
 40
1.6000000000000001
  9
$DIMTIX
 70
     1
  9
$DIMSOXD
 70
     0
  9
$DIMSAH
 70
     0
  9
$DIMBLK1
  1

  9
$DIMBLK2
  1

  9
$DIMSTYLE
  2
STANDARD
  9
$DIMCLRD
 70
     0
  9
$DIMCLRE
 70
     0
  9
$DIMCLRT
 70
     0
  9
$DIMTFAC
 40
1.0
  9
$DIMGAP
 40
0.09
  9
$LUNITS
 70
     2
  9
$LUPREC
 70
     4
  9
$SKETCHINC
 40
0.1
  9
$FILLETRAD
 40
1.25
  9
$AUNITS
 70
     0
  9
$AUPREC
 70
     0
  9
$MENU
  1
E:\r13\win\SUPPORT\ACAD
  9
$ELEVATION
 40
0.0
  9
$PELEVATION
 40
0.0
  9
$THICKNESS
 40
0.0
  9
$LIMCHECK
 70
     0
  9
$BLIPMODE
 70
     0
  9
$CHAMFERA
 40
0.0
  9
$CHAMFERB
 40
0.0
  9
$SKPOLY
 70
     0
  9
$TDCREATE
 40
2449840.6143865739
  9
$TDUPDATE
 40
2456805.3852095832
  9
$TDINDWG
 40
0.2393254745
  9
$TDUSRTIMER
 40
0.2393254745
  9
$USRTIMER
 70
     1
  9
$ANGBASE
 50
0.0
  9
$ANGDIR
 70
     0
  9
$PDMODE
 70
     0
  9
$PDSIZE
 40
0.0
  9
$PLINEWID
 40
0.0
  9
$COORDS
 70
     1
  9
$SPLFRAME
 70
     0
  9
$SPLINETYPE
 70
     6
  9
$SPLINESEGS
 70
     8
  9
$ATTDIA
 70
     0
  9
$ATTREQ
 70
     1
  9
$HANDLING
 70
     1
  9
$HANDSEED
  5
18D5
  9
$SURFTAB1
 70
     6
  9
$SURFTAB2
 70
     6
  9
$SURFTYPE
 70
     6
  9
$SURFU
 70
     6
  9
$SURFV
 70
     6
  9
$UCSNAME
  2

  9
$UCSORG
 10
0.0
 20
0.0
 30
0.0
  9
$UCSXDIR
 10
1.0
 20
0.0
 30
0.0
  9
$UCSYDIR
 10
0.0
 20
1.0
 30
0.0
  9
$PUCSNAME
  2

  9
$PUCSORG
 10
0.0
 20
0.0
 30
0.0
  9
$PUCSXDIR
 10
1.0
 20
0.0
 30
0.0
  9
$PUCSYDIR
 10
0.0
 20
1.0
 30
0.0
  9
$USERI1
 70
     0
  9
$USERI2
 70
     1
  9
$USERI3
 70
     1
  9
$USERI4
 70
     0
  9
$USERI5
 70
     0
  9
$USERR1
 40
0.0
  9
$USERR2
 40
0.0
  9
$USERR3
 40
0.0
  9
$USERR4
 40
0.0
  9
$USERR5
 40
0.0
  9
$WORLDVIEW
 70
     1
  9
$SHADEDGE
 70
     3
  9
$SHADEDIF
 70
    70
  9
$TILEMODE
 70
     1
  9
$MAXACTVP
 70
    16
  9
$PLIMCHECK
 70
     0
  9
$PEXTMIN
 10
1.0000000000000000E+020
 20
1.0000000000000000E+020
 30
1.0000000000000000E+020
  9
$PEXTMAX
 10
-1.0000000000000000E+020
 20
-1.0000000000000000E+020
 30
-1.0000000000000000E+020
  9
$PLIMMIN
 10
0.0
 20
0.0
  9
$PLIMMAX
 10
12.0
 20
9.0
  9
$UNITMODE
 70
     0
  9
$VISRETAIN
 70
     0
  9
$PLINEGEN
 70
     0
  9
$PSLTSCALE
 70
     0
  0
ENDSEC
  0
SECTION
  2
TABLES
  0
TABLE
  2
VPORT
 70
     1
  0
VPORT
  2
*ACTIVE
 70
     0
 10
0.0
 20
0.0
 11
1.0
 21
1.0
 12
314.18636995827541
 22
180.0
 13
0.0
 23
0.0
 14
5.0
 24
5.0
 15
5.0
 25
5.0
 16
0.0
 26
0.0
 36
1.0
 17
0.0
 27
0.0
 37
0.0
 40
360.0
 41
1.7454798331015291
 42
50.0
 43
0.0
 44
0.0
 50
0.0
 51
0.0
 71
     0
 72
   100
 73
     1
 74
     0
 75
     0
 76
     0
 77
     0
 78
     0
  0
ENDTAB
  0
TABLE
  2
LTYPE
 70
     4
  0
LTYPE
  2
CONTINUOUS
 70
     0
  3
Solid Line
 72
    65
 73
     0
 40
0.0
  0
LTYPE
  2
CENTER
 70
     0
  3
____ _ ____ _ ____ _ ____ _ ____ _ ____ _ ____
 72
    65
 73
     4
 40
2.0
 49
1.25
 49
-0.25
 49
0.25
 49
-0.25
  0
LTYPE
  2
HIDDEN
 70
     0
  3
_ _ _ _ _ _ _ _ _ _ _ _ _ _ _ _ _ _ _ _ _ _ _
 72
    65
 73
     2
 40
0.375
 49
0.25
 49
-0.125
  0
LTYPE
  2
PHANTOM2
 70
     0
  3
___ _ _ ___ _ _ ___ _ _ ___ _ _
 72
    65
 73
     6
 40
1.25
 49
0.625
 49
-0.125
 49
0.125
 49
-0.125
 49
0.125
 49
-0.125
  0
ENDTAB
  0
TABLE
  2
LAYER
 70
     5
  0
LAYER
  2
0
 70
     0
 62
     7
  6
CONTINUOUS
  0
LAYER
  2
1
 70
     0
 62
     1
  6
CENTER
  0
LAYER
  2
2
 70
     0
 62
     2
  6
HIDDEN
  0
LAYER
  2
3
 70
     0
 62
     3
  6
CONTINUOUS
  0
LAYER
  2
ITTEN
 70
     0
 62
     1
  6
CENTER
  0
ENDTAB
  0
TABLE
  2
STYLE
 70
     2
  0
STYLE
  2
STANDARD
 70
     0
 40
0.0
 41
1.0
 50
0.0
 71
     0
 42
4.0
  3
TXT
  4
BIGFONT
  0
STYLE
  2
STANDARD1
 70
     0
 40
0.0
 41
1.0
 50
0.0
 71
     0
 42
3.0
  3
txt
  4

  0
ENDTAB
  0
TABLE
  2
VIEW
 70
     1
  0
VIEW
  2
ALL
 70
     0
 40
179.66152299999999
 10
141.903918
 20
89.830760999999995
 41
0.0
 11
0.0
 21
0.0
 31
1.0
 12
0.0
 22
0.0
 32
0.0
 42
0.0
 43
0.0
 44
0.0
 50
0.0
 71
     0
  0
ENDTAB
  0
TABLE
  2
UCS
 70
     0
  0
ENDTAB
  0
TABLE
  2
APPID
 70
     5
  0
APPID
  2
ACAD
 70
     0
  0
APPID
  2
DCO15
 70
     0
  0
APPID
  2
ACAD_MLEADERVER
 70
     0
  0
APPID
  2
ACAD_EXEMPT_FROM_CAD_STANDARDS
 70
     0
  0
APPID
  2
ACAD_NAV_VCDISPLAY
 70
     0
  0
ENDTAB
  0
TABLE
  2
DIMSTYLE
 70
     1
  0
DIMSTYLE
  2
STANDARD
 70
     0
  3

  4

  5

  6

  7

 40
1.0
 41
0.18
 42
0.0625
 43
0.38
 44
0.18
 45
0.0
 46
0.0
 47
0.0
 48
0.0
140
0.18
141
0.09
142
0.0
143
25.399999999999999
144
1.0
145
0.0
146
1.0
147
0.09
 71
     0
 72
     0
 73
     1
 74
     1
 75
     0
 76
     0
 77
     0
 78
     0
170
     0
171
     2
172
     0
173
     0
174
     0
175
     0
176
     0
177
     0
178
     0
  0
ENDTAB
  0
ENDSEC
  0
SECTION
  2
BLOCKS
  0
BLOCK
  8
0
  2
$MODEL_SPACE
 70
     0
 10
0.0
 20
0.0
 30
0.0
  3
$MODEL_SPACE
  1

  0
ENDBLK
  5
1BD
  8
0
  0
BLOCK
 67
     1
  8
0
  2
$PAPER_SPACE
 70
     0
 10
0.0
 20
0.0
 30
0.0
  3
$PAPER_SPACE
  1

  0
ENDBLK
  5
1BB
 67
     1
  8
0
  0
BLOCK
  8
0
  2
BATU
 70
     0
 10
0.0
 20
0.0
 30
0.0
  3
BATU
  1

  0
LINE
  5
12C4
  8
ITTEN
 10
0.5
 20
0.0
 30
0.0
 11
-0.5
 21
0.0
 31
0.0
  0
LINE
  5
12C5
  8
ITTEN
 10
0.0
 20
0.5
 30
0.0
 11
0.0
 21
-0.5
 31
0.0
  0
ENDBLK
  5
12C7
  8
0
  0
ENDSEC
  0
SECTION
  2
ENTITIES
  0
LINE
  5
11FE
  8
0
 10
145.4780191877021
 20
160.79275001328699
 30
0.0
 11
145.4780191877021
 21
139.36904342745831
 31
0.0
  0
LINE
  5
11FF
  8
0
 10
172.4780191877021
 20
139.36904342745831
 30
0.0
 11
172.4780191877021
 21
156.36904342745831
 31
0.0
  0
LINE
  5
1200
  8
0
 10
240.19297305698441
 20
178.33904342745831
 30
0.0
 11
231.33098127830371
 21
178.33904342745831
 31
0.0
  0
LINE
  5
1201
  8
0
 10
246.94396954489281
 20
179.78089689582691
 30
0.0
 11
244.95502553607949
 21
179.11501951766601
 31
0.0
  0
LINE
  5
1202
  8
0
 10
172.4780191877021
 20
139.36904342745831
 30
0.0
 11
145.4780191877021
 21
139.36904342745831
 31
0.0
  0
LINE
  5
1203
  8
1
 10
158.9780191877021
 20
177.36904342745831
 30
0.0
 11
158.9780191877021
 21
124.36904342745829
 31
0.0
  0
LINE
  5
1205
  8
0
 10
168.48801918770209
 20
129.36904342745831
 30
0.0
 11
168.48801918770209
 21
139.36904342745831
 31
0.0
  0
LINE
  5
1206
  8
0
 10
149.48801918770209
 20
139.36904342745831
 30
0.0
 11
149.48801918770209
 21
129.36904342745831
 31
0.0
  0
LINE
  5
1208
  8
0
 10
149.48801918770209
 20
129.36904342745831
 30
0.0
 11
168.48801918770209
 21
129.36904342745831
 31
0.0
  0
LINE
  5
1209
  8
2
 10
152.98801918770221
 20
130.369043427458
 30
0.0
 11
152.98801918770221
 21
146.36904342745839
 31
0.0
  0
LINE
  5
120A
  8
2
 10
153.98801918770221
 20
131.36904342745811
 30
0.0
 11
153.98801918770221
 21
148.36904342745831
 31
0.0
  0
LINE
  5
120B
  8
2
 10
153.98801918770221
 20
131.36904342745811
 30
0.0
 11
151.98801918770269
 21
129.36904342745831
 31
0.0
  0
LINE
  5
120C
  8
2
 10
164.98801918770209
 20
146.36904342745839
 30
0.0
 11
152.98801918770221
 21
146.36904342745839
 31
0.0
  0
LINE
  5
120D
  8
2
 10
163.98801918770209
 20
148.36904342745831
 30
0.0
 11
153.98801918770221
 21
148.36904342745831
 31
0.0
  0
LINE
  5
120E
  8
2
 10
153.98801918770221
 20
131.36904342745811
 30
0.0
 11
163.98801918770209
 21
131.36904342745811
 31
0.0
  0
LINE
  5
120F
  8
2
 10
153.98801918770221
 20
148.1010942350272
 30
0.0
 11
152.98801918770221
 21
146.36904342745839
 31
0.0
  0
LINE
  5
1210
  8
2
 10
158.98801918770209
 20
151.25579477340639
 30
0.0
 11
153.98801918770221
 21
148.36904342745831
 31
0.0
  0
LINE
  5
1211
  8
2
 10
158.98801918770209
 20
151.25579477340639
 30
0.0
 11
163.98801918770209
 21
148.36904342745831
 31
0.0
  0
LINE
  5
1212
  8
2
 10
163.98801918770209
 20
148.1010942350272
 30
0.0
 11
164.98801918770209
 21
146.36904342745839
 31
0.0
  0
LINE
  5
1213
  8
2
 10
163.98801918770209
 20
131.36904342745811
 30
0.0
 11
165.98801918770161
 21
129.36904342745831
 31
0.0
  0
LINE
  5
1214
  8
2
 10
163.98801918770209
 20
131.36904342745811
 30
0.0
 11
163.98801918770209
 21
148.36904342745831
 31
0.0
  0
LINE
  5
1215
  8
2
 10
164.98801918770209
 20
130.369043427458
 30
0.0
 11
164.98801918770209
 21
146.36904342745839
 31
0.0
  0
LINE
  5
1216
  8
0
 10
249.85559726191491
 20
192.36904342745831
 30
0.0
 11
249.98801918770209
 21
192.36904342745831
 31
0.0
  0
LINE
  5
1217
  8
0
 10
253.98801918770209
 20
188.36904342745831
 30
0.0
 11
253.98801918770209
 21
187.53010721899039
 31
0.0
  0
ARC
  5
1218
  8
0
 10
151.4780191877021
 20
160.79275001328699
 30
0.0
 40
6.0
 50
114.1848432038958
 51
180.0
  0
ARC
  5
1219
  8
0
 10
276.02126538065431
 20
-116.5247211776239
 30
0.0
 40
310.0
 50
94.841832834640755
 51
114.18484320389619
  0
ARC
  5
121A
  8
0
 10
249.98801918770209
 20
188.36904342745831
 30
0.0
 40
4.0
 50
0.0
 51
90.0
  0
ARC
  5
121B
  8
0
 10
305.70452874533828
 20
-101.2155277847796
 30
0.0
 40
290.0
 50
105.9892849829359
 51
117.3485107169774
  0
ARC
  5
121C
  8
0
 10
231.33098127830371
 20
158.33904342745831
 30
0.0
 40
20.0
 50
90.0
 51
105.9892849829359
  0
ARC
  5
121D
  8
0
 10
240.19297305698441
 20
193.33904342745831
 30
0.0
 40
15.0
 50
270.0
 51
288.50999999999942
  0
ARC
  5
121E
  8
0
 10
244.368650743286
 20
189.4435949181233
 30
0.0
 40
10.0
 50
284.92366289757967
 51
337.4991251017791
  0
ARC
  5
121F
  8
0
 10
248.98801918770221
 20
187.53010721899039
 30
0.0
 40
5.0
 50
337.4991251017791
 51
0.0
  0
LINE
  5
1220
  8
0
 10
145.4680191877022
 20
245.19153406702381
 30
0.0
 11
145.4680191877022
 21
250.30715719622319
 31
0.0
  0
LINE
  5
122D
  8
1
 10
158.9780191877021
 20
266.4993456316235
 30
0.0
 11
158.9780191877021
 21
228.9993456316235
 31
0.0
  0
LINE
  5
122E
  8
1
 10
258.97801918770222
 20
247.7493456316235
 30
0.0
 11
140.2280191877021
 21
247.7493456316235
 31
0.0
  0
ARC
  5
122F
  8
0
 10
247.47801918770219
 20
247.7493456316235
 30
0.0
 40
6.5
 50
270.0
 51
90.0
  0
ARC
  5
1230
  8
0
 10
158.9780191877021
 20
247.7493456316235
 30
0.0
 40
13.75
 50
190.72076149353649
 51
312.917560328555
  0
CIRCLE
  5
1232
  8
0
 10
160.25186923110221
 20
247.74913774240639
 30
0.0
 40
8.8183418569113723
  0
ARC
  5
1233
  8
0
 10
188.1970851994902
 20
314.43816586479647
 30
0.0
 40
60.0
 50
250.67449694773779
 51
281.65751361817053
  0
LINE
  5
1234
  8
0
 10
247.47801918770219
 20
254.2493456316235
 30
0.0
 11
202.70431229921479
 21
255.87547314581579
 31
0.0
  0
ARC
  5
1235
  8
0
 10
202.34136354855909
 20
245.88206190618411
 30
0.0
 40
10.0
 50
87.919999999999831
 51
101.6575136181721
  0
ARC
  5
1236
  8
0
 10
188.1970851994902
 20
181.06052539845061
 30
0.0
 40
60.0
 50
78.34248638182946
 51
109.32550305226221
  0
LINE
  5
1237
  8
0
 10
247.47801918770219
 20
241.2493456316235
 30
0.0
 11
202.70431229921479
 21
239.62321811743121
 31
0.0
  0
ARC
  5
1238
  8
0
 10
202.34136354855909
 20
249.616629357063
 30
0.0
 40
10.0
 50
258.34248638182788
 51
272.0800000000001
  0
ARC
  5
1239
  8
0
 10
158.9780191877021
 20
247.7493456316235
 30
0.0
 40
13.75
 50
47.08243967144503
 51
169.27923850646351
  0
LINE
  5
123A
  8
1
 10
258.97801918770222
 20
69.445055073603271
 30
0.0
 11
140.2280191877021
 21
69.445055073603214
 31
0.0
  0
ARC
  5
123B
  8
0
 10
188.1970851994902
 20
2.7562348404303521
 30
0.0
 40
60.0
 50
78.34248638182946
 51
109.32550305226221
  0
ARC
  5
123C
  8
0
 10
188.1970851994902
 20
136.1338753067761
 30
0.0
 40
60.0
 50
250.67449694773779
 51
281.65751361817053
  0
LINE
  5
123D
  8
1
 10
158.9780191877021
 20
88.195055073603271
 30
0.0
 11
158.9780191877021
 21
50.695055073603271
 31
0.0
  0
ARC
  5
123E
  8
0
 10
158.9780191877021
 20
69.445055073603271
 30
0.0
 40
13.75
 50
190.72076149353649
 51
312.917560328555
  0
ARC
  5
123F
  8
0
 10
158.9780191877021
 20
69.445055073603271
 30
0.0
 40
13.75
 50
47.08243967144503
 51
169.27923850646351
  0
LINE
  5
1240
  8
0
 10
145.4680191877022
 20
66.887243509003554
 30
0.0
 11
145.4680191877022
 21
72.002866638202988
 31
0.0
  0
LINE
  5
1241
  8
0
 10
247.47801918770219
 20
62.945055073603271
 30
0.0
 11
202.70431229921479
 21
61.318927559410952
 31
0.0
  0
LINE
  5
1242
  8
0
 10
247.47801918770219
 20
75.945055073603243
 30
0.0
 11
202.70431229921479
 21
77.571182587795533
 31
0.0
  0
ARC
  5
1243
  8
0
 10
202.34136354855909
 20
71.312338799042664
 30
0.0
 40
10.0
 50
258.34248638182788
 51
272.0800000000001
  0
ARC
  5
1244
  8
0
 10
202.34136354855909
 20
67.57777134816385
 30
0.0
 40
10.0
 50
87.919999999999831
 51
101.6575136181721
  0
ARC
  5
1245
  8
0
 10
247.47801918770219
 20
69.445055073603243
 30
0.0
 40
6.5
 50
270.0
 51
90.0
  0
CIRCLE
  5
1246
  8
0
 10
158.9780191877021
 20
69.445055073603271
 30
0.0
 40
13.5
  0
CIRCLE
  5
1247
  8
0
 10
158.9780191877021
 20
69.445055073603271
 30
0.0
 40
9.5
  0
CIRCLE
  5
1248
  8
0
 10
158.9780191877021
 20
69.445055073603214
 30
0.0
 40
5.0
  0
CIRCLE
  5
1249
  8
3
 10
158.9780191877021
 20
69.445055073603214
 30
0.0
 40
6.0
  0
LINE
  5
124C
  8
0
 10
82.142513677589307
 20
129.36904342745831
 30
0.0
 11
82.142513677589307
 21
139.36904342745831
 31
0.0
  0
LINE
  5
124D
  8
0
 10
63.142513677589307
 20
139.36904342745831
 30
0.0
 11
63.142513677589307
 21
129.36904342745831
 31
0.0
  0
LINE
  5
124F
  8
0
 10
63.142513677589307
 20
129.36904342745831
 30
0.0
 11
82.142513677589307
 21
129.36904342745831
 31
0.0
  0
LINE
  5
1250
  8
0
 10
78.736773970138785
 20
192.36904342745831
 30
0.0
 11
66.548253385039814
 21
192.36904342745831
 31
0.0
  0
LINE
  5
1252
  8
0
 10
86.142513677589307
 20
139.36904342745831
 30
0.0
 11
59.142513677589307
 21
139.36904342745831
 31
0.0
  0
LINE
  5
1253
  8
1
 10
72.642513677589307
 20
197.36904342745831
 30
0.0
 11
72.642513677589307
 21
124.36904342745829
 31
0.0
  0
LINE
  5
1254
  8
0
 10
74.13237021215761
 20
167.53678129956839
 30
0.0
 11
71.152657143020974
 21
167.53678129956839
 31
0.0
  0
POLYLINE
  5
1255
  8
0
 10
74.132370212157625
 20
167.53678129956845
 30
0.0
 66
     1
 70
     8
  0
VERTEX
  8
0
  5
15C9
 10
74.1324
 20
167.537
 30
0.000000
  70
    32
  0
VERTEX
  8
0
  5
15CA
 10
74.5324
 20
167.567
 30
0.000000
  70
    32
  0
VERTEX
  8
0
  5
15CB
 10
74.9283
 20
167.604
 30
0.000000
  70
    32
  0
VERTEX
  8
0
  5
15CC
 10
75.3194
 20
167.649
 30
0.000000
  70
    32
  0
VERTEX
  8
0
  5
15CD
 10
75.7046
 20
167.700
 30
0.000000
  70
    32
  0
VERTEX
  8
0
  5
15CE
 10
76.0833
 20
167.758
 30
0.000000
  70
    32
  0
VERTEX
  8
0
  5
15CF
 10
76.4545
 20
167.823
 30
0.000000
  70
    32
  0
VERTEX
  8
0
  5
15D0
 10
76.8176
 20
167.894
 30
0.000000
  70
    32
  0
VERTEX
  8
0
  5
15D1
 10
77.1716
 20
167.972
 30
0.000000
  70
    32
  0
VERTEX
  8
0
  5
15D2
 10
77.5159
 20
168.056
 30
0.000000
  70
    32
  0
VERTEX
  8
0
  5
15D3
 10
77.8497
 20
168.147
 30
0.000000
  70
    32
  0
VERTEX
  8
0
  5
15D4
 10
78.1722
 20
168.243
 30
0.000000
  70
    32
  0
VERTEX
  8
0
  5
15D5
 10
78.4829
 20
168.344
 30
0.000000
  70
    32
  0
VERTEX
  8
0
  5
15D6
 10
78.7809
 20
168.451
 30
0.000000
  70
    32
  0
VERTEX
  8
0
  5
15D7
 10
79.0657
 20
168.564
 30
0.000000
  70
    32
  0
VERTEX
  8
0
  5
15D8
 10
79.3367
 20
168.681
 30
0.000000
  70
    32
  0
VERTEX
  8
0
  5
15D9
 10
79.5933
 20
168.803
 30
0.000000
  70
    32
  0
VERTEX
  8
0
  5
15DA
 10
79.8349
 20
168.929
 30
0.000000
  70
    32
  0
VERTEX
  8
0
  5
15DB
 10
80.0610
 20
169.060
 30
0.000000
  70
    32
  0
VERTEX
  8
0
  5
15DC
 10
80.2711
 20
169.195
 30
0.000000
  70
    32
  0
VERTEX
  8
0
  5
15DD
 10
80.4647
 20
169.333
 30
0.000000
  70
    32
  0
VERTEX
  8
0
  5
15DE
 10
80.6415
 20
169.474
 30
0.000000
  70
    32
  0
VERTEX
  8
0
  5
15DF
 10
80.8011
 20
169.619
 30
0.000000
  70
    32
  0
VERTEX
  8
0
  5
15E0
 10
80.9431
 20
169.766
 30
0.000000
  70
    32
  0
VERTEX
  8
0
  5
15E1
 10
81.0672
 20
169.915
 30
0.000000
  70
    32
  0
VERTEX
  8
0
  5
15E2
 10
81.1732
 20
170.067
 30
0.000000
  70
    32
  0
VERTEX
  8
0
  5
15E3
 10
81.2608
 20
170.220
 30
0.000000
  70
    32
  0
VERTEX
  8
0
  5
15E4
 10
81.3298
 20
170.375
 30
0.000000
  70
    32
  0
VERTEX
  8
0
  5
15E5
 10
81.3800
 20
170.531
 30
0.000000
  70
    32
  0
VERTEX
  8
0
  5
15E6
 10
81.4115
 20
170.687
 30
0.000000
  70
    32
  0
VERTEX
  8
0
  5
15E7
 10
81.4241
 20
170.844
 30
0.000000
  70
    32
  0
VERTEX
  8
0
  5
15E8
 10
81.4177
 20
171.001
 30
0.000000
  70
    32
  0
VERTEX
  8
0
  5
15E9
 10
81.3924
 20
171.158
 30
0.000000
  70
    32
  0
VERTEX
  8
0
  5
15EA
 10
81.3483
 20
171.314
 30
0.000000
  70
    32
  0
VERTEX
  8
0
  5
15EB
 10
81.2854
 20
171.469
 30
0.000000
  70
    32
  0
VERTEX
  8
0
  5
15EC
 10
81.2039
 20
171.623
 30
0.000000
  70
    32
  0
VERTEX
  8
0
  5
15ED
 10
81.1040
 20
171.775
 30
0.000000
  70
    32
  0
VERTEX
  8
0
  5
15EE
 10
80.9858
 20
171.926
 30
0.000000
  70
    32
  0
VERTEX
  8
0
  5
15EF
 10
80.8496
 20
172.074
 30
0.000000
  70
    32
  0
VERTEX
  8
0
  5
15F0
 10
80.6958
 20
172.219
 30
0.000000
  70
    32
  0
VERTEX
  8
0
  5
15F1
 10
80.5246
 20
172.362
 30
0.000000
  70
    32
  0
VERTEX
  8
0
  5
15F2
 10
80.3364
 20
172.501
 30
0.000000
  70
    32
  0
VERTEX
  8
0
  5
15F3
 10
80.1316
 20
172.637
 30
0.000000
  70
    32
  0
VERTEX
  8
0
  5
15F4
 10
79.9107
 20
172.769
 30
0.000000
  70
    32
  0
VERTEX
  8
0
  5
15F5
 10
79.6742
 20
172.896
 30
0.000000
  70
    32
  0
VERTEX
  8
0
  5
15F6
 10
79.4224
 20
173.020
 30
0.000000
  70
    32
  0
VERTEX
  8
0
  5
15F7
 10
79.1561
 20
173.139
 30
0.000000
  70
    32
  0
VERTEX
  8
0
  5
15F8
 10
78.8758
 20
173.253
 30
0.000000
  70
    32
  0
VERTEX
  8
0
  5
15F9
 10
78.5820
 20
173.362
 30
0.000000
  70
    32
  0
VERTEX
  8
0
  5
15FA
 10
78.2754
 20
173.465
 30
0.000000
  70
    32
  0
VERTEX
  8
0
  5
15FB
 10
77.9567
 20
173.563
 30
0.000000
  70
    32
  0
VERTEX
  8
0
  5
15FC
 10
77.6265
 20
173.655
 30
0.000000
  70
    32
  0
VERTEX
  8
0
  5
15FD
 10
77.2856
 20
173.741
 30
0.000000
  70
    32
  0
VERTEX
  8
0
  5
15FE
 10
76.9346
 20
173.821
 30
0.000000
  70
    32
  0
VERTEX
  8
0
  5
15FF
 10
76.5745
 20
173.895
 30
0.000000
  70
    32
  0
VERTEX
  8
0
  5
1600
 10
76.2058
 20
173.962
 30
0.000000
  70
    32
  0
VERTEX
  8
0
  5
1601
 10
75.8295
 20
174.022
 30
0.000000
  70
    32
  0
VERTEX
  8
0
  5
1602
 10
75.4463
 20
174.076
 30
0.000000
  70
    32
  0
VERTEX
  8
0
  5
1603
 10
75.0571
 20
174.122
 30
0.000000
  70
    32
  0
VERTEX
  8
0
  5
1604
 10
74.6627
 20
174.162
 30
0.000000
  70
    32
  0
VERTEX
  8
0
  5
1605
 10
74.2639
 20
174.194
 30
0.000000
  70
    32
  0
VERTEX
  8
0
  5
1606
 10
73.8616
 20
174.220
 30
0.000000
  70
    32
  0
VERTEX
  8
0
  5
1607
 10
73.4567
 20
174.238
 30
0.000000
  70
    32
  0
VERTEX
  8
0
  5
1608
 10
73.0501
 20
174.249
 30
0.000000
  70
    32
  0
VERTEX
  8
0
  5
1609
 10
72.6425
 20
174.253
 30
0.000000
  70
    32
  0
VERTEX
  8
0
  5
160A
 10
72.2350
 20
174.249
 30
0.000000
  70
    32
  0
VERTEX
  8
0
  5
160B
 10
71.8283
 20
174.238
 30
0.000000
  70
    32
  0
VERTEX
  8
0
  5
160C
 10
71.4234
 20
174.220
 30
0.000000
  70
    32
  0
VERTEX
  8
0
  5
160D
 10
71.0211
 20
174.194
 30
0.000000
  70
    32
  0
VERTEX
  8
0
  5
160E
 10
70.6224
 20
174.162
 30
0.000000
  70
    32
  0
VERTEX
  8
0
  5
160F
 10
70.2279
 20
174.122
 30
0.000000
  70
    32
  0
VERTEX
  8
0
  5
1610
 10
69.8387
 20
174.076
 30
0.000000
  70
    32
  0
VERTEX
  8
0
  5
1611
 10
69.4555
 20
174.022
 30
0.000000
  70
    32
  0
VERTEX
  8
0
  5
1612
 10
69.0792
 20
173.962
 30
0.000000
  70
    32
  0
VERTEX
  8
0
  5
1613
 10
68.7105
 20
173.895
 30
0.000000
  70
    32
  0
VERTEX
  8
0
  5
1614
 10
68.3504
 20
173.821
 30
0.000000
  70
    32
  0
VERTEX
  8
0
  5
1615
 10
67.9995
 20
173.741
 30
0.000000
  70
    32
  0
VERTEX
  8
0
  5
1616
 10
67.6585
 20
173.655
 30
0.000000
  70
    32
  0
VERTEX
  8
0
  5
1617
 10
67.3284
 20
173.563
 30
0.000000
  70
    32
  0
VERTEX
  8
0
  5
1618
 10
67.0096
 20
173.465
 30
0.000000
  70
    32
  0
VERTEX
  8
0
  5
1619
 10
66.7031
 20
173.362
 30
0.000000
  70
    32
  0
VERTEX
  8
0
  5
161A
 10
66.4093
 20
173.253
 30
0.000000
  70
    32
  0
VERTEX
  8
0
  5
161B
 10
66.1289
 20
173.139
 30
0.000000
  70
    32
  0
VERTEX
  8
0
  5
161C
 10
65.8626
 20
173.020
 30
0.000000
  70
    32
  0
VERTEX
  8
0
  5
161D
 10
65.6109
 20
172.896
 30
0.000000
  70
    32
  0
VERTEX
  8
0
  5
161E
 10
65.3743
 20
172.769
 30
0.000000
  70
    32
  0
VERTEX
  8
0
  5
161F
 10
65.1534
 20
172.637
 30
0.000000
  70
    32
  0
VERTEX
  8
0
  5
1620
 10
64.9486
 20
172.501
 30
0.000000
  70
    32
  0
VERTEX
  8
0
  5
1621
 10
64.7605
 20
172.362
 30
0.000000
  70
    32
  0
VERTEX
  8
0
  5
1622
 10
64.5893
 20
172.219
 30
0.000000
  70
    32
  0
VERTEX
  8
0
  5
1623
 10
64.4354
 20
172.074
 30
0.000000
  70
    32
  0
VERTEX
  8
0
  5
1624
 10
64.2992
 20
171.926
 30
0.000000
  70
    32
  0
VERTEX
  8
0
  5
1625
 10
64.1811
 20
171.775
 30
0.000000
  70
    32
  0
VERTEX
  8
0
  5
1626
 10
64.0811
 20
171.623
 30
0.000000
  70
    32
  0
VERTEX
  8
0
  5
1627
 10
63.9996
 20
171.469
 30
0.000000
  70
    32
  0
VERTEX
  8
0
  5
1628
 10
63.9367
 20
171.314
 30
0.000000
  70
    32
  0
VERTEX
  8
0
  5
1629
 10
63.8926
 20
171.158
 30
0.000000
  70
    32
  0
VERTEX
  8
0
  5
162A
 10
63.8673
 20
171.001
 30
0.000000
  70
    32
  0
VERTEX
  8
0
  5
162B
 10
63.8610
 20
170.844
 30
0.000000
  70
    32
  0
VERTEX
  8
0
  5
162C
 10
63.8735
 20
170.687
 30
0.000000
  70
    32
  0
VERTEX
  8
0
  5
162D
 10
63.9050
 20
170.531
 30
0.000000
  70
    32
  0
VERTEX
  8
0
  5
162E
 10
63.9553
 20
170.375
 30
0.000000
  70
    32
  0
VERTEX
  8
0
  5
162F
 10
64.0243
 20
170.220
 30
0.000000
  70
    32
  0
VERTEX
  8
0
  5
1630
 10
64.1118
 20
170.067
 30
0.000000
  70
    32
  0
VERTEX
  8
0
  5
1631
 10
64.2178
 20
169.915
 30
0.000000
  70
    32
  0
VERTEX
  8
0
  5
1632
 10
64.3419
 20
169.766
 30
0.000000
  70
    32
  0
VERTEX
  8
0
  5
1633
 10
64.4839
 20
169.619
 30
0.000000
  70
    32
  0
VERTEX
  8
0
  5
1634
 10
64.6435
 20
169.474
 30
0.000000
  70
    32
  0
VERTEX
  8
0
  5
1635
 10
64.8203
 20
169.333
 30
0.000000
  70
    32
  0
VERTEX
  8
0
  5
1636
 10
65.0140
 20
169.195
 30
0.000000
  70
    32
  0
VERTEX
  8
0
  5
1637
 10
65.2241
 20
169.060
 30
0.000000
  70
    32
  0
VERTEX
  8
0
  5
1638
 10
65.4502
 20
168.929
 30
0.000000
  70
    32
  0
VERTEX
  8
0
  5
1639
 10
65.6917
 20
168.803
 30
0.000000
  70
    32
  0
VERTEX
  8
0
  5
163A
 10
65.9483
 20
168.681
 30
0.000000
  70
    32
  0
VERTEX
  8
0
  5
163B
 10
66.2193
 20
168.564
 30
0.000000
  70
    32
  0
VERTEX
  8
0
  5
163C
 10
66.5041
 20
168.451
 30
0.000000
  70
    32
  0
VERTEX
  8
0
  5
163D
 10
66.8022
 20
168.344
 30
0.000000
  70
    32
  0
VERTEX
  8
0
  5
163E
 10
67.1128
 20
168.243
 30
0.000000
  70
    32
  0
VERTEX
  8
0
  5
163F
 10
67.4354
 20
168.147
 30
0.000000
  70
    32
  0
VERTEX
  8
0
  5
1640
 10
67.7691
 20
168.056
 30
0.000000
  70
    32
  0
VERTEX
  8
0
  5
1641
 10
68.1134
 20
167.972
 30
0.000000
  70
    32
  0
VERTEX
  8
0
  5
1642
 10
68.4675
 20
167.894
 30
0.000000
  70
    32
  0
VERTEX
  8
0
  5
1643
 10
68.8305
 20
167.823
 30
0.000000
  70
    32
  0
VERTEX
  8
0
  5
1644
 10
69.2017
 20
167.758
 30
0.000000
  70
    32
  0
VERTEX
  8
0
  5
1645
 10
69.5804
 20
167.700
 30
0.000000
  70
    32
  0
VERTEX
  8
0
  5
1646
 10
69.9657
 20
167.649
 30
0.000000
  70
    32
  0
VERTEX
  8
0
  5
1647
 10
70.3567
 20
167.604
 30
0.000000
  70
    32
  0
VERTEX
  8
0
  5
1648
 10
70.7526
 20
167.567
 30
0.000000
  70
    32
  0
VERTEX
  8
0
  5
1649
 10
71.1527
 20
167.537
 30
0.000000
  70
    32
  0
SEQEND
  8
0
  5
164A
  0
POLYLINE
  5
1256
  8
0
 10
86.392513677589307
 20
170.87014186771091
 30
0.0
 66
     1
 70
     8
  0
VERTEX
  8
0
  5
164B
 10
86.3925
 20
170.870
 30
0.000000
  70
    32
  0
VERTEX
  8
0
  5
164C
 10
86.3923
 20
170.896
 30
0.000000
  70
    32
  0
VERTEX
  8
0
  5
164D
 10
86.3916
 20
170.921
 30
0.000000
  70
    32
  0
VERTEX
  8
0
  5
164E
 10
86.3905
 20
170.946
 30
0.000000
  70
    32
  0
VERTEX
  8
0
  5
164F
 10
86.3889
 20
170.972
 30
0.000000
  70
    32
  0
VERTEX
  8
0
  5
1650
 10
86.3869
 20
170.997
 30
0.000000
  70
    32
  0
VERTEX
  8
0
  5
1651
 10
86.3844
 20
171.023
 30
0.000000
  70
    32
  0
VERTEX
  8
0
  5
1652
 10
86.3815
 20
171.048
 30
0.000000
  70
    32
  0
VERTEX
  8
0
  5
1653
 10
86.3781
 20
171.074
 30
0.000000
  70
    32
  0
VERTEX
  8
0
  5
1654
 10
86.3743
 20
171.099
 30
0.000000
  70
    32
  0
VERTEX
  8
0
  5
1655
 10
86.3701
 20
171.125
 30
0.000000
  70
    32
  0
VERTEX
  8
0
  5
1656
 10
86.3653
 20
171.150
 30
0.000000
  70
    32
  0
VERTEX
  8
0
  5
1657
 10
86.3602
 20
171.175
 30
0.000000
  70
    32
  0
VERTEX
  8
0
  5
1658
 10
86.3546
 20
171.201
 30
0.000000
  70
    32
  0
VERTEX
  8
0
  5
1659
 10
86.3485
 20
171.226
 30
0.000000
  70
    32
  0
VERTEX
  8
0
  5
165A
 10
86.3420
 20
171.251
 30
0.000000
  70
    32
  0
VERTEX
  8
0
  5
165B
 10
86.3350
 20
171.277
 30
0.000000
  70
    32
  0
VERTEX
  8
0
  5
165C
 10
86.3276
 20
171.302
 30
0.000000
  70
    32
  0
VERTEX
  8
0
  5
165D
 10
86.3198
 20
171.327
 30
0.000000
  70
    32
  0
VERTEX
  8
0
  5
165E
 10
86.3115
 20
171.353
 30
0.000000
  70
    32
  0
VERTEX
  8
0
  5
165F
 10
86.3028
 20
171.378
 30
0.000000
  70
    32
  0
VERTEX
  8
0
  5
1660
 10
86.2936
 20
171.403
 30
0.000000
  70
    32
  0
VERTEX
  8
0
  5
1661
 10
86.2839
 20
171.429
 30
0.000000
  70
    32
  0
VERTEX
  8
0
  5
1662
 10
86.2739
 20
171.454
 30
0.000000
  70
    32
  0
VERTEX
  8
0
  5
1663
 10
86.2633
 20
171.479
 30
0.000000
  70
    32
  0
VERTEX
  8
0
  5
1664
 10
86.2524
 20
171.504
 30
0.000000
  70
    32
  0
VERTEX
  8
0
  5
1665
 10
86.2409
 20
171.529
 30
0.000000
  70
    32
  0
VERTEX
  8
0
  5
1666
 10
86.2291
 20
171.555
 30
0.000000
  70
    32
  0
VERTEX
  8
0
  5
1667
 10
86.2168
 20
171.580
 30
0.000000
  70
    32
  0
VERTEX
  8
0
  5
1668
 10
86.2040
 20
171.605
 30
0.000000
  70
    32
  0
VERTEX
  8
0
  5
1669
 10
86.1908
 20
171.630
 30
0.000000
  70
    32
  0
VERTEX
  8
0
  5
166A
 10
86.1772
 20
171.655
 30
0.000000
  70
    32
  0
VERTEX
  8
0
  5
166B
 10
86.1631
 20
171.680
 30
0.000000
  70
    32
  0
VERTEX
  8
0
  5
166C
 10
86.1486
 20
171.705
 30
0.000000
  70
    32
  0
VERTEX
  8
0
  5
166D
 10
86.1337
 20
171.730
 30
0.000000
  70
    32
  0
VERTEX
  8
0
  5
166E
 10
86.1183
 20
171.755
 30
0.000000
  70
    32
  0
VERTEX
  8
0
  5
166F
 10
86.1024
 20
171.780
 30
0.000000
  70
    32
  0
VERTEX
  8
0
  5
1670
 10
86.0861
 20
171.805
 30
0.000000
  70
    32
  0
VERTEX
  8
0
  5
1671
 10
86.0694
 20
171.830
 30
0.000000
  70
    32
  0
VERTEX
  8
0
  5
1672
 10
86.0523
 20
171.855
 30
0.000000
  70
    32
  0
VERTEX
  8
0
  5
1673
 10
86.0347
 20
171.879
 30
0.000000
  70
    32
  0
VERTEX
  8
0
  5
1674
 10
86.0166
 20
171.904
 30
0.000000
  70
    32
  0
VERTEX
  8
0
  5
1675
 10
85.9982
 20
171.929
 30
0.000000
  70
    32
  0
VERTEX
  8
0
  5
1676
 10
85.9793
 20
171.954
 30
0.000000
  70
    32
  0
VERTEX
  8
0
  5
1677
 10
85.9599
 20
171.978
 30
0.000000
  70
    32
  0
VERTEX
  8
0
  5
1678
 10
85.9401
 20
172.003
 30
0.000000
  70
    32
  0
VERTEX
  8
0
  5
1679
 10
85.9199
 20
172.027
 30
0.000000
  70
    32
  0
VERTEX
  8
0
  5
167A
 10
85.8993
 20
172.052
 30
0.000000
  70
    32
  0
VERTEX
  8
0
  5
167B
 10
85.8782
 20
172.076
 30
0.000000
  70
    32
  0
VERTEX
  8
0
  5
167C
 10
85.8567
 20
172.101
 30
0.000000
  70
    32
  0
VERTEX
  8
0
  5
167D
 10
85.8348
 20
172.125
 30
0.000000
  70
    32
  0
VERTEX
  8
0
  5
167E
 10
85.8124
 20
172.150
 30
0.000000
  70
    32
  0
VERTEX
  8
0
  5
167F
 10
85.7896
 20
172.174
 30
0.000000
  70
    32
  0
VERTEX
  8
0
  5
1680
 10
85.7663
 20
172.198
 30
0.000000
  70
    32
  0
VERTEX
  8
0
  5
1681
 10
85.7427
 20
172.223
 30
0.000000
  70
    32
  0
VERTEX
  8
0
  5
1682
 10
85.7186
 20
172.247
 30
0.000000
  70
    32
  0
VERTEX
  8
0
  5
1683
 10
85.6941
 20
172.271
 30
0.000000
  70
    32
  0
VERTEX
  8
0
  5
1684
 10
85.6691
 20
172.295
 30
0.000000
  70
    32
  0
VERTEX
  8
0
  5
1685
 10
85.6438
 20
172.319
 30
0.000000
  70
    32
  0
VERTEX
  8
0
  5
1686
 10
85.6180
 20
172.343
 30
0.000000
  70
    32
  0
VERTEX
  8
0
  5
1687
 10
85.5917
 20
172.367
 30
0.000000
  70
    32
  0
VERTEX
  8
0
  5
1688
 10
85.5651
 20
172.391
 30
0.000000
  70
    32
  0
VERTEX
  8
0
  5
1689
 10
85.5380
 20
172.415
 30
0.000000
  70
    32
  0
VERTEX
  8
0
  5
168A
 10
85.5106
 20
172.439
 30
0.000000
  70
    32
  0
VERTEX
  8
0
  5
168B
 10
85.4827
 20
172.463
 30
0.000000
  70
    32
  0
VERTEX
  8
0
  5
168C
 10
85.4543
 20
172.487
 30
0.000000
  70
    32
  0
VERTEX
  8
0
  5
168D
 10
85.4256
 20
172.510
 30
0.000000
  70
    32
  0
VERTEX
  8
0
  5
168E
 10
85.3964
 20
172.534
 30
0.000000
  70
    32
  0
VERTEX
  8
0
  5
168F
 10
85.3668
 20
172.558
 30
0.000000
  70
    32
  0
VERTEX
  8
0
  5
1690
 10
85.3368
 20
172.581
 30
0.000000
  70
    32
  0
VERTEX
  8
0
  5
1691
 10
85.3064
 20
172.605
 30
0.000000
  70
    32
  0
VERTEX
  8
0
  5
1692
 10
85.2756
 20
172.628
 30
0.000000
  70
    32
  0
VERTEX
  8
0
  5
1693
 10
85.2444
 20
172.651
 30
0.000000
  70
    32
  0
VERTEX
  8
0
  5
1694
 10
85.2127
 20
172.675
 30
0.000000
  70
    32
  0
VERTEX
  8
0
  5
1695
 10
85.1807
 20
172.698
 30
0.000000
  70
    32
  0
VERTEX
  8
0
  5
1696
 10
85.1482
 20
172.721
 30
0.000000
  70
    32
  0
VERTEX
  8
0
  5
1697
 10
85.1153
 20
172.744
 30
0.000000
  70
    32
  0
VERTEX
  8
0
  5
1698
 10
85.0821
 20
172.767
 30
0.000000
  70
    32
  0
VERTEX
  8
0
  5
1699
 10
85.0484
 20
172.790
 30
0.000000
  70
    32
  0
VERTEX
  8
0
  5
169A
 10
85.0143
 20
172.813
 30
0.000000
  70
    32
  0
VERTEX
  8
0
  5
169B
 10
84.9798
 20
172.836
 30
0.000000
  70
    32
  0
VERTEX
  8
0
  5
169C
 10
84.9449
 20
172.859
 30
0.000000
  70
    32
  0
VERTEX
  8
0
  5
169D
 10
84.9096
 20
172.882
 30
0.000000
  70
    32
  0
VERTEX
  8
0
  5
169E
 10
84.8739
 20
172.904
 30
0.000000
  70
    32
  0
VERTEX
  8
0
  5
169F
 10
84.8378
 20
172.927
 30
0.000000
  70
    32
  0
VERTEX
  8
0
  5
16A0
 10
84.8012
 20
172.949
 30
0.000000
  70
    32
  0
VERTEX
  8
0
  5
16A1
 10
84.7643
 20
172.972
 30
0.000000
  70
    32
  0
VERTEX
  8
0
  5
16A2
 10
84.7271
 20
172.994
 30
0.000000
  70
    32
  0
VERTEX
  8
0
  5
16A3
 10
84.6894
 20
173.017
 30
0.000000
  70
    32
  0
VERTEX
  8
0
  5
16A4
 10
84.6513
 20
173.039
 30
0.000000
  70
    32
  0
VERTEX
  8
0
  5
16A5
 10
84.6128
 20
173.061
 30
0.000000
  70
    32
  0
VERTEX
  8
0
  5
16A6
 10
84.5739
 20
173.083
 30
0.000000
  70
    32
  0
VERTEX
  8
0
  5
16A7
 10
84.5347
 20
173.105
 30
0.000000
  70
    32
  0
VERTEX
  8
0
  5
16A8
 10
84.4950
 20
173.127
 30
0.000000
  70
    32
  0
VERTEX
  8
0
  5
16A9
 10
84.4550
 20
173.149
 30
0.000000
  70
    32
  0
VERTEX
  8
0
  5
16AA
 10
84.4146
 20
173.171
 30
0.000000
  70
    32
  0
VERTEX
  8
0
  5
16AB
 10
84.3738
 20
173.193
 30
0.000000
  70
    32
  0
VERTEX
  8
0
  5
16AC
 10
84.3326
 20
173.214
 30
0.000000
  70
    32
  0
VERTEX
  8
0
  5
16AD
 10
84.2910
 20
173.236
 30
0.000000
  70
    32
  0
VERTEX
  8
0
  5
16AE
 10
84.2491
 20
173.257
 30
0.000000
  70
    32
  0
VERTEX
  8
0
  5
16AF
 10
84.2067
 20
173.279
 30
0.000000
  70
    32
  0
VERTEX
  8
0
  5
16B0
 10
84.1640
 20
173.300
 30
0.000000
  70
    32
  0
VERTEX
  8
0
  5
16B1
 10
84.1209
 20
173.322
 30
0.000000
  70
    32
  0
VERTEX
  8
0
  5
16B2
 10
84.0775
 20
173.343
 30
0.000000
  70
    32
  0
VERTEX
  8
0
  5
16B3
 10
84.0336
 20
173.364
 30
0.000000
  70
    32
  0
VERTEX
  8
0
  5
16B4
 10
83.9894
 20
173.385
 30
0.000000
  70
    32
  0
VERTEX
  8
0
  5
16B5
 10
83.9449
 20
173.406
 30
0.000000
  70
    32
  0
VERTEX
  8
0
  5
16B6
 10
83.8999
 20
173.427
 30
0.000000
  70
    32
  0
VERTEX
  8
0
  5
16B7
 10
83.8546
 20
173.448
 30
0.000000
  70
    32
  0
VERTEX
  8
0
  5
16B8
 10
83.8089
 20
173.468
 30
0.000000
  70
    32
  0
VERTEX
  8
0
  5
16B9
 10
83.7629
 20
173.489
 30
0.000000
  70
    32
  0
VERTEX
  8
0
  5
16BA
 10
83.7165
 20
173.509
 30
0.000000
  70
    32
  0
VERTEX
  8
0
  5
16BB
 10
83.6697
 20
173.530
 30
0.000000
  70
    32
  0
VERTEX
  8
0
  5
16BC
 10
83.6226
 20
173.550
 30
0.000000
  70
    32
  0
VERTEX
  8
0
  5
16BD
 10
83.5751
 20
173.570
 30
0.000000
  70
    32
  0
VERTEX
  8
0
  5
16BE
 10
83.5272
 20
173.591
 30
0.000000
  70
    32
  0
VERTEX
  8
0
  5
16BF
 10
83.4790
 20
173.611
 30
0.000000
  70
    32
  0
VERTEX
  8
0
  5
16C0
 10
83.4305
 20
173.631
 30
0.000000
  70
    32
  0
VERTEX
  8
0
  5
16C1
 10
83.3816
 20
173.651
 30
0.000000
  70
    32
  0
VERTEX
  8
0
  5
16C2
 10
83.3323
 20
173.671
 30
0.000000
  70
    32
  0
VERTEX
  8
0
  5
16C3
 10
83.2827
 20
173.690
 30
0.000000
  70
    32
  0
VERTEX
  8
0
  5
16C4
 10
83.2328
 20
173.710
 30
0.000000
  70
    32
  0
VERTEX
  8
0
  5
16C5
 10
83.1825
 20
173.729
 30
0.000000
  70
    32
  0
VERTEX
  8
0
  5
16C6
 10
83.1318
 20
173.749
 30
0.000000
  70
    32
  0
VERTEX
  8
0
  5
16C7
 10
83.0808
 20
173.768
 30
0.000000
  70
    32
  0
VERTEX
  8
0
  5
16C8
 10
83.0295
 20
173.788
 30
0.000000
  70
    32
  0
VERTEX
  8
0
  5
16C9
 10
82.9778
 20
173.807
 30
0.000000
  70
    32
  0
VERTEX
  8
0
  5
16CA
 10
82.9258
 20
173.826
 30
0.000000
  70
    32
  0
VERTEX
  8
0
  5
16CB
 10
82.8735
 20
173.845
 30
0.000000
  70
    32
  0
SEQEND
  8
0
  5
16CC
  0
POLYLINE
  5
1257
  8
0
 10
58.892513677589307
 20
170.87014186771091
 30
0.0
 66
     1
 70
     8
  0
VERTEX
  8
0
  5
16CD
 10
58.8925
 20
170.870
 30
0.000000
  70
    32
  0
VERTEX
  8
0
  5
16CE
 10
58.8967
 20
170.709
 30
0.000000
  70
    32
  0
VERTEX
  8
0
  5
16CF
 10
58.9091
 20
170.547
 30
0.000000
  70
    32
  0
VERTEX
  8
0
  5
16D0
 10
58.9298
 20
170.386
 30
0.000000
  70
    32
  0
VERTEX
  8
0
  5
16D1
 10
58.9587
 20
170.225
 30
0.000000
  70
    32
  0
VERTEX
  8
0
  5
16D2
 10
58.9959
 20
170.065
 30
0.000000
  70
    32
  0
VERTEX
  8
0
  5
16D3
 10
59.0413
 20
169.905
 30
0.000000
  70
    32
  0
VERTEX
  8
0
  5
16D4
 10
59.0949
 20
169.746
 30
0.000000
  70
    32
  0
VERTEX
  8
0
  5
16D5
 10
59.1567
 20
169.587
 30
0.000000
  70
    32
  0
VERTEX
  8
0
  5
16D6
 10
59.2266
 20
169.429
 30
0.000000
  70
    32
  0
VERTEX
  8
0
  5
16D7
 10
59.3046
 20
169.272
 30
0.000000
  70
    32
  0
VERTEX
  8
0
  5
16D8
 10
59.3906
 20
169.116
 30
0.000000
  70
    32
  0
VERTEX
  8
0
  5
16D9
 10
59.4846
 20
168.961
 30
0.000000
  70
    32
  0
VERTEX
  8
0
  5
16DA
 10
59.5865
 20
168.807
 30
0.000000
  70
    32
  0
VERTEX
  8
0
  5
16DB
 10
59.6963
 20
168.654
 30
0.000000
  70
    32
  0
VERTEX
  8
0
  5
16DC
 10
59.8139
 20
168.503
 30
0.000000
  70
    32
  0
VERTEX
  8
0
  5
16DD
 10
59.9392
 20
168.353
 30
0.000000
  70
    32
  0
VERTEX
  8
0
  5
16DE
 10
60.0721
 20
168.205
 30
0.000000
  70
    32
  0
VERTEX
  8
0
  5
16DF
 10
60.2127
 20
168.058
 30
0.000000
  70
    32
  0
VERTEX
  8
0
  5
16E0
 10
60.3607
 20
167.913
 30
0.000000
  70
    32
  0
VERTEX
  8
0
  5
16E1
 10
60.5161
 20
167.770
 30
0.000000
  70
    32
  0
VERTEX
  8
0
  5
16E2
 10
60.6788
 20
167.628
 30
0.000000
  70
    32
  0
VERTEX
  8
0
  5
16E3
 10
60.8487
 20
167.489
 30
0.000000
  70
    32
  0
VERTEX
  8
0
  5
16E4
 10
61.0258
 20
167.351
 30
0.000000
  70
    32
  0
VERTEX
  8
0
  5
16E5
 10
61.2098
 20
167.216
 30
0.000000
  70
    32
  0
VERTEX
  8
0
  5
16E6
 10
61.4007
 20
167.083
 30
0.000000
  70
    32
  0
VERTEX
  8
0
  5
16E7
 10
61.5984
 20
166.952
 30
0.000000
  70
    32
  0
VERTEX
  8
0
  5
16E8
 10
61.8028
 20
166.824
 30
0.000000
  70
    32
  0
VERTEX
  8
0
  5
16E9
 10
62.0136
 20
166.698
 30
0.000000
  70
    32
  0
VERTEX
  8
0
  5
16EA
 10
62.2309
 20
166.574
 30
0.000000
  70
    32
  0
VERTEX
  8
0
  5
16EB
 10
62.4544
 20
166.453
 30
0.000000
  70
    32
  0
VERTEX
  8
0
  5
16EC
 10
62.6841
 20
166.335
 30
0.000000
  70
    32
  0
VERTEX
  8
0
  5
16ED
 10
62.9198
 20
166.219
 30
0.000000
  70
    32
  0
VERTEX
  8
0
  5
16EE
 10
63.1613
 20
166.107
 30
0.000000
  70
    32
  0
VERTEX
  8
0
  5
16EF
 10
63.4086
 20
165.997
 30
0.000000
  70
    32
  0
VERTEX
  8
0
  5
16F0
 10
63.6614
 20
165.890
 30
0.000000
  70
    32
  0
VERTEX
  8
0
  5
16F1
 10
63.9196
 20
165.786
 30
0.000000
  70
    32
  0
VERTEX
  8
0
  5
16F2
 10
64.1831
 20
165.685
 30
0.000000
  70
    32
  0
VERTEX
  8
0
  5
16F3
 10
64.4516
 20
165.587
 30
0.000000
  70
    32
  0
VERTEX
  8
0
  5
16F4
 10
64.7252
 20
165.493
 30
0.000000
  70
    32
  0
VERTEX
  8
0
  5
16F5
 10
65.0034
 20
165.401
 30
0.000000
  70
    32
  0
VERTEX
  8
0
  5
16F6
 10
65.2863
 20
165.313
 30
0.000000
  70
    32
  0
VERTEX
  8
0
  5
16F7
 10
65.5736
 20
165.229
 30
0.000000
  70
    32
  0
VERTEX
  8
0
  5
16F8
 10
65.8652
 20
165.147
 30
0.000000
  70
    32
  0
VERTEX
  8
0
  5
16F9
 10
66.1608
 20
165.069
 30
0.000000
  70
    32
  0
VERTEX
  8
0
  5
16FA
 10
66.4604
 20
164.995
 30
0.000000
  70
    32
  0
VERTEX
  8
0
  5
16FB
 10
66.7636
 20
164.924
 30
0.000000
  70
    32
  0
VERTEX
  8
0
  5
16FC
 10
67.0704
 20
164.857
 30
0.000000
  70
    32
  0
VERTEX
  8
0
  5
16FD
 10
67.3806
 20
164.793
 30
0.000000
  70
    32
  0
VERTEX
  8
0
  5
16FE
 10
67.6940
 20
164.734
 30
0.000000
  70
    32
  0
VERTEX
  8
0
  5
16FF
 10
68.0103
 20
164.677
 30
0.000000
  70
    32
  0
VERTEX
  8
0
  5
1700
 10
68.3294
 20
164.625
 30
0.000000
  70
    32
  0
VERTEX
  8
0
  5
1701
 10
68.6511
 20
164.576
 30
0.000000
  70
    32
  0
VERTEX
  8
0
  5
1702
 10
68.9752
 20
164.531
 30
0.000000
  70
    32
  0
VERTEX
  8
0
  5
1703
 10
69.3015
 20
164.490
 30
0.000000
  70
    32
  0
VERTEX
  8
0
  5
1704
 10
69.6299
 20
164.453
 30
0.000000
  70
    32
  0
VERTEX
  8
0
  5
1705
 10
69.9600
 20
164.419
 30
0.000000
  70
    32
  0
VERTEX
  8
0
  5
1706
 10
70.2918
 20
164.390
 30
0.000000
  70
    32
  0
VERTEX
  8
0
  5
1707
 10
70.6250
 20
164.364
 30
0.000000
  70
    32
  0
VERTEX
  8
0
  5
1708
 10
70.9594
 20
164.342
 30
0.000000
  70
    32
  0
VERTEX
  8
0
  5
1709
 10
71.2948
 20
164.324
 30
0.000000
  70
    32
  0
VERTEX
  8
0
  5
170A
 10
71.6310
 20
164.311
 30
0.000000
  70
    32
  0
VERTEX
  8
0
  5
170B
 10
71.9678
 20
164.301
 30
0.000000
  70
    32
  0
VERTEX
  8
0
  5
170C
 10
72.3051
 20
164.295
 30
0.000000
  70
    32
  0
VERTEX
  8
0
  5
170D
 10
72.6425
 20
164.293
 30
0.000000
  70
    32
  0
VERTEX
  8
0
  5
170E
 10
72.9800
 20
164.295
 30
0.000000
  70
    32
  0
VERTEX
  8
0
  5
170F
 10
73.3172
 20
164.301
 30
0.000000
  70
    32
  0
VERTEX
  8
0
  5
1710
 10
73.6540
 20
164.311
 30
0.000000
  70
    32
  0
VERTEX
  8
0
  5
1711
 10
73.9902
 20
164.324
 30
0.000000
  70
    32
  0
VERTEX
  8
0
  5
1712
 10
74.3257
 20
164.342
 30
0.000000
  70
    32
  0
VERTEX
  8
0
  5
1713
 10
74.6601
 20
164.364
 30
0.000000
  70
    32
  0
VERTEX
  8
0
  5
1714
 10
74.9932
 20
164.390
 30
0.000000
  70
    32
  0
VERTEX
  8
0
  5
1715
 10
75.3250
 20
164.419
 30
0.000000
  70
    32
  0
VERTEX
  8
0
  5
1716
 10
75.6552
 20
164.453
 30
0.000000
  70
    32
  0
VERTEX
  8
0
  5
1717
 10
75.9835
 20
164.490
 30
0.000000
  70
    32
  0
VERTEX
  8
0
  5
1718
 10
76.3098
 20
164.531
 30
0.000000
  70
    32
  0
VERTEX
  8
0
  5
1719
 10
76.6339
 20
164.576
 30
0.000000
  70
    32
  0
VERTEX
  8
0
  5
171A
 10
76.9556
 20
164.625
 30
0.000000
  70
    32
  0
VERTEX
  8
0
  5
171B
 10
77.2747
 20
164.677
 30
0.000000
  70
    32
  0
VERTEX
  8
0
  5
171C
 10
77.5911
 20
164.734
 30
0.000000
  70
    32
  0
VERTEX
  8
0
  5
171D
 10
77.9044
 20
164.793
 30
0.000000
  70
    32
  0
VERTEX
  8
0
  5
171E
 10
78.2146
 20
164.857
 30
0.000000
  70
    32
  0
VERTEX
  8
0
  5
171F
 10
78.5214
 20
164.924
 30
0.000000
  70
    32
  0
VERTEX
  8
0
  5
1720
 10
78.8247
 20
164.995
 30
0.000000
  70
    32
  0
VERTEX
  8
0
  5
1721
 10
79.1242
 20
165.069
 30
0.000000
  70
    32
  0
VERTEX
  8
0
  5
1722
 10
79.4199
 20
165.147
 30
0.000000
  70
    32
  0
VERTEX
  8
0
  5
1723
 10
79.7114
 20
165.229
 30
0.000000
  70
    32
  0
VERTEX
  8
0
  5
1724
 10
79.9987
 20
165.313
 30
0.000000
  70
    32
  0
VERTEX
  8
0
  5
1725
 10
80.2816
 20
165.401
 30
0.000000
  70
    32
  0
VERTEX
  8
0
  5
1726
 10
80.5599
 20
165.493
 30
0.000000
  70
    32
  0
VERTEX
  8
0
  5
1727
 10
80.8334
 20
165.587
 30
0.000000
  70
    32
  0
VERTEX
  8
0
  5
1728
 10
81.1019
 20
165.685
 30
0.000000
  70
    32
  0
VERTEX
  8
0
  5
1729
 10
81.3654
 20
165.786
 30
0.000000
  70
    32
  0
VERTEX
  8
0
  5
172A
 10
81.6236
 20
165.890
 30
0.000000
  70
    32
  0
VERTEX
  8
0
  5
172B
 10
81.8764
 20
165.997
 30
0.000000
  70
    32
  0
VERTEX
  8
0
  5
172C
 10
82.1237
 20
166.107
 30
0.000000
  70
    32
  0
VERTEX
  8
0
  5
172D
 10
82.3652
 20
166.219
 30
0.000000
  70
    32
  0
VERTEX
  8
0
  5
172E
 10
82.6009
 20
166.335
 30
0.000000
  70
    32
  0
VERTEX
  8
0
  5
172F
 10
82.8306
 20
166.453
 30
0.000000
  70
    32
  0
VERTEX
  8
0
  5
1730
 10
83.0541
 20
166.574
 30
0.000000
  70
    32
  0
VERTEX
  8
0
  5
1731
 10
83.2714
 20
166.698
 30
0.000000
  70
    32
  0
VERTEX
  8
0
  5
1732
 10
83.4823
 20
166.824
 30
0.000000
  70
    32
  0
VERTEX
  8
0
  5
1733
 10
83.6866
 20
166.952
 30
0.000000
  70
    32
  0
VERTEX
  8
0
  5
1734
 10
83.8843
 20
167.083
 30
0.000000
  70
    32
  0
VERTEX
  8
0
  5
1735
 10
84.0752
 20
167.216
 30
0.000000
  70
    32
  0
VERTEX
  8
0
  5
1736
 10
84.2593
 20
167.351
 30
0.000000
  70
    32
  0
VERTEX
  8
0
  5
1737
 10
84.4363
 20
167.489
 30
0.000000
  70
    32
  0
VERTEX
  8
0
  5
1738
 10
84.6062
 20
167.628
 30
0.000000
  70
    32
  0
VERTEX
  8
0
  5
1739
 10
84.7689
 20
167.770
 30
0.000000
  70
    32
  0
VERTEX
  8
0
  5
173A
 10
84.9243
 20
167.913
 30
0.000000
  70
    32
  0
VERTEX
  8
0
  5
173B
 10
85.0724
 20
168.058
 30
0.000000
  70
    32
  0
VERTEX
  8
0
  5
173C
 10
85.2129
 20
168.205
 30
0.000000
  70
    32
  0
VERTEX
  8
0
  5
173D
 10
85.3459
 20
168.353
 30
0.000000
  70
    32
  0
VERTEX
  8
0
  5
173E
 10
85.4712
 20
168.503
 30
0.000000
  70
    32
  0
VERTEX
  8
0
  5
173F
 10
85.5887
 20
168.654
 30
0.000000
  70
    32
  0
VERTEX
  8
0
  5
1740
 10
85.6985
 20
168.807
 30
0.000000
  70
    32
  0
VERTEX
  8
0
  5
1741
 10
85.8004
 20
168.961
 30
0.000000
  70
    32
  0
VERTEX
  8
0
  5
1742
 10
85.8944
 20
169.116
 30
0.000000
  70
    32
  0
VERTEX
  8
0
  5
1743
 10
85.9804
 20
169.272
 30
0.000000
  70
    32
  0
VERTEX
  8
0
  5
1744
 10
86.0584
 20
169.429
 30
0.000000
  70
    32
  0
VERTEX
  8
0
  5
1745
 10
86.1283
 20
169.587
 30
0.000000
  70
    32
  0
VERTEX
  8
0
  5
1746
 10
86.1901
 20
169.746
 30
0.000000
  70
    32
  0
VERTEX
  8
0
  5
1747
 10
86.2437
 20
169.905
 30
0.000000
  70
    32
  0
VERTEX
  8
0
  5
1748
 10
86.2891
 20
170.065
 30
0.000000
  70
    32
  0
VERTEX
  8
0
  5
1749
 10
86.3263
 20
170.225
 30
0.000000
  70
    32
  0
VERTEX
  8
0
  5
174A
 10
86.3553
 20
170.386
 30
0.000000
  70
    32
  0
VERTEX
  8
0
  5
174B
 10
86.3760
 20
170.547
 30
0.000000
  70
    32
  0
VERTEX
  8
0
  5
174C
 10
86.3884
 20
170.709
 30
0.000000
  70
    32
  0
VERTEX
  8
0
  5
174D
 10
86.3925
 20
170.870
 30
0.000000
  70
    32
  0
SEQEND
  8
0
  5
174E
  0
LINE
  5
1258
  8
0
 10
86.392513677589307
 20
170.87014186771091
 30
0.0
 11
86.142513677589307
 21
139.36904342745831
 31
0.0
  0
LINE
  5
1259
  8
0
 10
80.737681061163727
 20
184.78812921823419
 30
0.0
 11
79.226059458276751
 21
191.97199832582459
 31
0.0
  0
ARC
  5
125A
  8
0
 10
78.736773970138785
 20
191.86904342745831
 30
0.0
 40
0.5
 50
11.882762862839719
 51
90.0
  0
ARC
  5
125B
  8
0
 10
85.323164006638137
 20
180.6235582196916
 30
0.0
 40
6.0
 50
141.32779275757619
 51
207.67186019459629
  0
ARC
  5
125C
  8
0
 10
80.248395573025789
 20
184.68517431986791
 30
0.0
 40
0.5
 50
321.32779275757628
 51
11.88276286284132
  0
LINE
  5
125D
  8
0
 10
80.748395573025789
 20
184.68517431986791
 30
0.0
 11
80.748395573025761
 21
176.3372031744907
 31
0.0
  0
ARC
  5
125E
  8
0
 10
89.317926716421454
 20
181.49114690549629
 30
0.0
 40
10.0
 50
201.4323956628549
 51
229.77460563426351
  0
LINE
  5
125F
  8
0
 10
58.892513677589307
 20
170.87014186771091
 30
0.0
 11
59.142513677589307
 21
139.36904342745831
 31
0.0
  0
LINE
  5
1260
  8
0
 10
64.547346294014886
 20
184.78812921823419
 30
0.0
 11
66.058967896901862
 21
191.97199832582459
 31
0.0
  0
ARC
  5
1261
  8
0
 10
65.036631782152824
 20
184.68517431986791
 30
0.0
 40
0.5
 50
168.1172371371587
 51
218.67220724242381
  0
ARC
  5
1262
  8
0
 10
66.548253385039814
 20
191.86904342745831
 30
0.0
 40
0.5
 50
90.0
 51
168.1172371371602
  0
POLYLINE
  5
1263
  8
0
 10
62.411552840689794
 20
173.84484240706996
 30
0.0
 66
     1
 70
     8
  0
VERTEX
  8
0
  5
174F
 10
62.4116
 20
173.845
 30
0.000000
  70
    32
  0
VERTEX
  8
0
  5
1750
 10
62.3592
 20
173.826
 30
0.000000
  70
    32
  0
VERTEX
  8
0
  5
1751
 10
62.3072
 20
173.807
 30
0.000000
  70
    32
  0
VERTEX
  8
0
  5
1752
 10
62.2555
 20
173.788
 30
0.000000
  70
    32
  0
VERTEX
  8
0
  5
1753
 10
62.2042
 20
173.768
 30
0.000000
  70
    32
  0
VERTEX
  8
0
  5
1754
 10
62.1532
 20
173.749
 30
0.000000
  70
    32
  0
VERTEX
  8
0
  5
1755
 10
62.1026
 20
173.729
 30
0.000000
  70
    32
  0
VERTEX
  8
0
  5
1756
 10
62.0523
 20
173.710
 30
0.000000
  70
    32
  0
VERTEX
  8
0
  5
1757
 10
62.0023
 20
173.690
 30
0.000000
  70
    32
  0
VERTEX
  8
0
  5
1758
 10
61.9527
 20
173.671
 30
0.000000
  70
    32
  0
VERTEX
  8
0
  5
1759
 10
61.9034
 20
173.651
 30
0.000000
  70
    32
  0
VERTEX
  8
0
  5
175A
 10
61.8545
 20
173.631
 30
0.000000
  70
    32
  0
VERTEX
  8
0
  5
175B
 10
61.8060
 20
173.611
 30
0.000000
  70
    32
  0
VERTEX
  8
0
  5
175C
 10
61.7578
 20
173.591
 30
0.000000
  70
    32
  0
VERTEX
  8
0
  5
175D
 10
61.7099
 20
173.570
 30
0.000000
  70
    32
  0
VERTEX
  8
0
  5
175E
 10
61.6625
 20
173.550
 30
0.000000
  70
    32
  0
VERTEX
  8
0
  5
175F
 10
61.6153
 20
173.530
 30
0.000000
  70
    32
  0
VERTEX
  8
0
  5
1760
 10
61.5686
 20
173.509
 30
0.000000
  70
    32
  0
VERTEX
  8
0
  5
1761
 10
61.5221
 20
173.489
 30
0.000000
  70
    32
  0
VERTEX
  8
0
  5
1762
 10
61.4761
 20
173.468
 30
0.000000
  70
    32
  0
VERTEX
  8
0
  5
1763
 10
61.4304
 20
173.448
 30
0.000000
  70
    32
  0
VERTEX
  8
0
  5
1764
 10
61.3851
 20
173.427
 30
0.000000
  70
    32
  0
VERTEX
  8
0
  5
1765
 10
61.3402
 20
173.406
 30
0.000000
  70
    32
  0
VERTEX
  8
0
  5
1766
 10
61.2956
 20
173.385
 30
0.000000
  70
    32
  0
VERTEX
  8
0
  5
1767
 10
61.2514
 20
173.364
 30
0.000000
  70
    32
  0
VERTEX
  8
0
  5
1768
 10
61.2076
 20
173.343
 30
0.000000
  70
    32
  0
VERTEX
  8
0
  5
1769
 10
61.1641
 20
173.322
 30
0.000000
  70
    32
  0
VERTEX
  8
0
  5
176A
 10
61.1210
 20
173.300
 30
0.000000
  70
    32
  0
VERTEX
  8
0
  5
176B
 10
61.0783
 20
173.279
 30
0.000000
  70
    32
  0
VERTEX
  8
0
  5
176C
 10
61.0360
 20
173.257
 30
0.000000
  70
    32
  0
VERTEX
  8
0
  5
176D
 10
60.9940
 20
173.236
 30
0.000000
  70
    32
  0
VERTEX
  8
0
  5
176E
 10
60.9525
 20
173.214
 30
0.000000
  70
    32
  0
VERTEX
  8
0
  5
176F
 10
60.9113
 20
173.193
 30
0.000000
  70
    32
  0
VERTEX
  8
0
  5
1770
 10
60.8705
 20
173.171
 30
0.000000
  70
    32
  0
VERTEX
  8
0
  5
1771
 10
60.8300
 20
173.149
 30
0.000000
  70
    32
  0
VERTEX
  8
0
  5
1772
 10
60.7900
 20
173.127
 30
0.000000
  70
    32
  0
VERTEX
  8
0
  5
1773
 10
60.7504
 20
173.105
 30
0.000000
  70
    32
  0
VERTEX
  8
0
  5
1774
 10
60.7111
 20
173.083
 30
0.000000
  70
    32
  0
VERTEX
  8
0
  5
1775
 10
60.6722
 20
173.061
 30
0.000000
  70
    32
  0
VERTEX
  8
0
  5
1776
 10
60.6338
 20
173.039
 30
0.000000
  70
    32
  0
VERTEX
  8
0
  5
1777
 10
60.5957
 20
173.017
 30
0.000000
  70
    32
  0
VERTEX
  8
0
  5
1778
 10
60.5580
 20
172.994
 30
0.000000
  70
    32
  0
VERTEX
  8
0
  5
1779
 10
60.5207
 20
172.972
 30
0.000000
  70
    32
  0
VERTEX
  8
0
  5
177A
 10
60.4838
 20
172.949
 30
0.000000
  70
    32
  0
VERTEX
  8
0
  5
177B
 10
60.4473
 20
172.927
 30
0.000000
  70
    32
  0
VERTEX
  8
0
  5
177C
 10
60.4112
 20
172.904
 30
0.000000
  70
    32
  0
VERTEX
  8
0
  5
177D
 10
60.3755
 20
172.882
 30
0.000000
  70
    32
  0
VERTEX
  8
0
  5
177E
 10
60.3402
 20
172.859
 30
0.000000
  70
    32
  0
VERTEX
  8
0
  5
177F
 10
60.3053
 20
172.836
 30
0.000000
  70
    32
  0
VERTEX
  8
0
  5
1780
 10
60.2708
 20
172.813
 30
0.000000
  70
    32
  0
VERTEX
  8
0
  5
1781
 10
60.2367
 20
172.790
 30
0.000000
  70
    32
  0
VERTEX
  8
0
  5
1782
 10
60.2030
 20
172.767
 30
0.000000
  70
    32
  0
VERTEX
  8
0
  5
1783
 10
60.1697
 20
172.744
 30
0.000000
  70
    32
  0
VERTEX
  8
0
  5
1784
 10
60.1368
 20
172.721
 30
0.000000
  70
    32
  0
VERTEX
  8
0
  5
1785
 10
60.1043
 20
172.698
 30
0.000000
  70
    32
  0
VERTEX
  8
0
  5
1786
 10
60.0723
 20
172.675
 30
0.000000
  70
    32
  0
VERTEX
  8
0
  5
1787
 10
60.0406
 20
172.651
 30
0.000000
  70
    32
  0
VERTEX
  8
0
  5
1788
 10
60.0094
 20
172.628
 30
0.000000
  70
    32
  0
VERTEX
  8
0
  5
1789
 10
59.9786
 20
172.605
 30
0.000000
  70
    32
  0
VERTEX
  8
0
  5
178A
 10
59.9482
 20
172.581
 30
0.000000
  70
    32
  0
VERTEX
  8
0
  5
178B
 10
59.9182
 20
172.558
 30
0.000000
  70
    32
  0
VERTEX
  8
0
  5
178C
 10
59.8886
 20
172.534
 30
0.000000
  70
    32
  0
VERTEX
  8
0
  5
178D
 10
59.8594
 20
172.510
 30
0.000000
  70
    32
  0
VERTEX
  8
0
  5
178E
 10
59.8307
 20
172.487
 30
0.000000
  70
    32
  0
VERTEX
  8
0
  5
178F
 10
59.8024
 20
172.463
 30
0.000000
  70
    32
  0
VERTEX
  8
0
  5
1790
 10
59.7745
 20
172.439
 30
0.000000
  70
    32
  0
VERTEX
  8
0
  5
1791
 10
59.7470
 20
172.415
 30
0.000000
  70
    32
  0
VERTEX
  8
0
  5
1792
 10
59.7199
 20
172.391
 30
0.000000
  70
    32
  0
VERTEX
  8
0
  5
1793
 10
59.6933
 20
172.367
 30
0.000000
  70
    32
  0
VERTEX
  8
0
  5
1794
 10
59.6671
 20
172.343
 30
0.000000
  70
    32
  0
VERTEX
  8
0
  5
1795
 10
59.6413
 20
172.319
 30
0.000000
  70
    32
  0
VERTEX
  8
0
  5
1796
 10
59.6159
 20
172.295
 30
0.000000
  70
    32
  0
VERTEX
  8
0
  5
1797
 10
59.5910
 20
172.271
 30
0.000000
  70
    32
  0
VERTEX
  8
0
  5
1798
 10
59.5664
 20
172.247
 30
0.000000
  70
    32
  0
VERTEX
  8
0
  5
1799
 10
59.5423
 20
172.223
 30
0.000000
  70
    32
  0
VERTEX
  8
0
  5
179A
 10
59.5187
 20
172.198
 30
0.000000
  70
    32
  0
VERTEX
  8
0
  5
179B
 10
59.4955
 20
172.174
 30
0.000000
  70
    32
  0
VERTEX
  8
0
  5
179C
 10
59.4726
 20
172.150
 30
0.000000
  70
    32
  0
VERTEX
  8
0
  5
179D
 10
59.4503
 20
172.125
 30
0.000000
  70
    32
  0
VERTEX
  8
0
  5
179E
 10
59.4283
 20
172.101
 30
0.000000
  70
    32
  0
VERTEX
  8
0
  5
179F
 10
59.4068
 20
172.076
 30
0.000000
  70
    32
  0
VERTEX
  8
0
  5
17A0
 10
59.3857
 20
172.052
 30
0.000000
  70
    32
  0
VERTEX
  8
0
  5
17A1
 10
59.3651
 20
172.027
 30
0.000000
  70
    32
  0
VERTEX
  8
0
  5
17A2
 10
59.3449
 20
172.003
 30
0.000000
  70
    32
  0
VERTEX
  8
0
  5
17A3
 10
59.3251
 20
171.978
 30
0.000000
  70
    32
  0
VERTEX
  8
0
  5
17A4
 10
59.3058
 20
171.954
 30
0.000000
  70
    32
  0
VERTEX
  8
0
  5
17A5
 10
59.2869
 20
171.929
 30
0.000000
  70
    32
  0
VERTEX
  8
0
  5
17A6
 10
59.2684
 20
171.904
 30
0.000000
  70
    32
  0
VERTEX
  8
0
  5
17A7
 10
59.2504
 20
171.879
 30
0.000000
  70
    32
  0
VERTEX
  8
0
  5
17A8
 10
59.2328
 20
171.855
 30
0.000000
  70
    32
  0
VERTEX
  8
0
  5
17A9
 10
59.2156
 20
171.830
 30
0.000000
  70
    32
  0
VERTEX
  8
0
  5
17AA
 10
59.1989
 20
171.805
 30
0.000000
  70
    32
  0
VERTEX
  8
0
  5
17AB
 10
59.1826
 20
171.780
 30
0.000000
  70
    32
  0
VERTEX
  8
0
  5
17AC
 10
59.1668
 20
171.755
 30
0.000000
  70
    32
  0
VERTEX
  8
0
  5
17AD
 10
59.1514
 20
171.730
 30
0.000000
  70
    32
  0
VERTEX
  8
0
  5
17AE
 10
59.1364
 20
171.705
 30
0.000000
  70
    32
  0
VERTEX
  8
0
  5
17AF
 10
59.1219
 20
171.680
 30
0.000000
  70
    32
  0
VERTEX
  8
0
  5
17B0
 10
59.1078
 20
171.655
 30
0.000000
  70
    32
  0
VERTEX
  8
0
  5
17B1
 10
59.0942
 20
171.630
 30
0.000000
  70
    32
  0
VERTEX
  8
0
  5
17B2
 10
59.0810
 20
171.605
 30
0.000000
  70
    32
  0
VERTEX
  8
0
  5
17B3
 10
59.0682
 20
171.580
 30
0.000000
  70
    32
  0
VERTEX
  8
0
  5
17B4
 10
59.0559
 20
171.555
 30
0.000000
  70
    32
  0
VERTEX
  8
0
  5
17B5
 10
59.0441
 20
171.529
 30
0.000000
  70
    32
  0
VERTEX
  8
0
  5
17B6
 10
59.0327
 20
171.504
 30
0.000000
  70
    32
  0
VERTEX
  8
0
  5
17B7
 10
59.0217
 20
171.479
 30
0.000000
  70
    32
  0
VERTEX
  8
0
  5
17B8
 10
59.0112
 20
171.454
 30
0.000000
  70
    32
  0
VERTEX
  8
0
  5
17B9
 10
59.0011
 20
171.429
 30
0.000000
  70
    32
  0
VERTEX
  8
0
  5
17BA
 10
58.9915
 20
171.403
 30
0.000000
  70
    32
  0
VERTEX
  8
0
  5
17BB
 10
58.9823
 20
171.378
 30
0.000000
  70
    32
  0
VERTEX
  8
0
  5
17BC
 10
58.9735
 20
171.353
 30
0.000000
  70
    32
  0
VERTEX
  8
0
  5
17BD
 10
58.9652
 20
171.327
 30
0.000000
  70
    32
  0
VERTEX
  8
0
  5
17BE
 10
58.9574
 20
171.302
 30
0.000000
  70
    32
  0
VERTEX
  8
0
  5
17BF
 10
58.9500
 20
171.277
 30
0.000000
  70
    32
  0
VERTEX
  8
0
  5
17C0
 10
58.9430
 20
171.251
 30
0.000000
  70
    32
  0
VERTEX
  8
0
  5
17C1
 10
58.9365
 20
171.226
 30
0.000000
  70
    32
  0
VERTEX
  8
0
  5
17C2
 10
58.9305
 20
171.201
 30
0.000000
  70
    32
  0
VERTEX
  8
0
  5
17C3
 10
58.9248
 20
171.175
 30
0.000000
  70
    32
  0
VERTEX
  8
0
  5
17C4
 10
58.9197
 20
171.150
 30
0.000000
  70
    32
  0
VERTEX
  8
0
  5
17C5
 10
58.9150
 20
171.125
 30
0.000000
  70
    32
  0
VERTEX
  8
0
  5
17C6
 10
58.9107
 20
171.099
 30
0.000000
  70
    32
  0
VERTEX
  8
0
  5
17C7
 10
58.9069
 20
171.074
 30
0.000000
  70
    32
  0
VERTEX
  8
0
  5
17C8
 10
58.9035
 20
171.048
 30
0.000000
  70
    32
  0
VERTEX
  8
0
  5
17C9
 10
58.9006
 20
171.023
 30
0.000000
  70
    32
  0
VERTEX
  8
0
  5
17CA
 10
58.8981
 20
170.997
 30
0.000000
  70
    32
  0
VERTEX
  8
0
  5
17CB
 10
58.8961
 20
170.972
 30
0.000000
  70
    32
  0
VERTEX
  8
0
  5
17CC
 10
58.8945
 20
170.946
 30
0.000000
  70
    32
  0
VERTEX
  8
0
  5
17CD
 10
58.8934
 20
170.921
 30
0.000000
  70
    32
  0
VERTEX
  8
0
  5
17CE
 10
58.8927
 20
170.896
 30
0.000000
  70
    32
  0
VERTEX
  8
0
  5
17CF
 10
58.8925
 20
170.870
 30
0.000000
  70
    32
  0
SEQEND
  8
0
  5
17D0
  0
LINE
  5
1264
  8
0
 10
64.536631782152824
 20
184.68517431986791
 30
0.0
 11
64.536631782152824
 21
176.3372031744907
 31
0.0
  0
ARC
  5
1265
  8
0
 10
59.961863348540483
 20
180.6235582196916
 30
0.0
 40
6.0
 50
332.32813980540368
 51
38.672207242423767
  0
ARC
  5
1266
  8
0
 10
55.967100638757167
 20
181.49114690549629
 30
0.0
 40
10.0
 50
310.22539436573652
 51
338.5676043371451
  0
LINE
  5
1267
  8
0
 10
317.19333340473457
 20
188.36902217026221
 30
0.0
 11
318.89351930106773
 21
188.36902217026221
 31
0.0
  0
LINE
  5
1268
  8
0
 10
316.72657131997698
 20
187.7080730886224
 30
0.0
 11
319.36028138582532
 21
187.7080730886224
 31
0.0
  0
LINE
  5
1269
  8
0
 10
311.44239574664431
 20
179.03173141731699
 30
0.0
 11
324.64445695915799
 21
179.03173141731699
 31
0.0
  0
LINE
  5
126A
  8
0
 10
311.5563578239238
 20
180.4262653866765
 30
0.0
 11
324.5304948818785
 21
180.4262653866765
 31
0.0
  0
LINE
  5
126B
  8
0
 10
325.15531370101951
 20
178.33904342745831
 30
0.0
 11
310.93153900478279
 21
178.33904342745831
 31
0.0
  0
LINE
  5
126C
  8
0
 10
324.54342635290112
 20
192.1242287620299
 30
0.0
 11
324.54342635290112
 21
180.28906629534239
 31
0.0
  0
LINE
  5
126D
  8
0
 10
331.54342635290112
 20
139.36904342745831
 30
0.0
 11
304.54342635290112
 21
139.36904342745831
 31
0.0
  0
POLYLINE
  5
126E
  8
0
 66
     1
 10
0.0
 20
0.0
 30
0.0
  0
VERTEX
  5
1572
  8
0
 10
310.31063550902007
 20
158.64666091329221
 30
0.0
  0
VERTEX
  5
1573
  8
0
 10
310.15833597325758
 20
158.2660405755866
 30
0.0
  0
VERTEX
  5
1574
  8
0
 10
309.8276084119658
 20
157.50532418010201
 30
0.0
  0
VERTEX
  5
1575
  8
0
 10
309.46374453038248
 20
156.7468503659376
 30
0.0
  0
VERTEX
  5
1576
  8
0
 10
309.27007035661762
 20
156.36904342745831
 30
0.0
  0
SEQEND
  5
1577
  8
0
  0
POLYLINE
  5
126F
  8
0
 66
     1
 10
0.0
 20
0.0
 30
0.0
  0
VERTEX
  5
1578
  8
0
 10
310.16881687627949
 20
169.02468206550151
 30
0.0
  0
VERTEX
  5
1579
  8
0
 10
310.54477306580492
 20
168.2589217619265
 30
0.0
  0
VERTEX
  5
157A
  8
0
 10
311.09898453191403
 20
166.6422422568366
 30
0.0
  0
VERTEX
  5
157B
  8
0
 10
311.37850038455969
 20
164.9241495081728
 30
0.0
  0
VERTEX
  5
157C
  8
0
 10
311.41342635290113
 20
164.0324863060093
 30
0.0
  0
SEQEND
  5
157D
  8
0
  0
POLYLINE
  5
1270
  8
0
 66
     1
 10
0.0
 20
0.0
 30
0.0
  0
VERTEX
  5
157E
  8
0
 10
311.41342635290113
 20
164.0324863060093
 30
0.0
  0
VERTEX
  5
157F
  8
0
 10
311.38170853580539
 20
163.1630218953201
 30
0.0
  0
VERTEX
  5
1580
  8
0
 10
311.13083647903352
 20
161.38227610837879
 30
0.0
  0
VERTEX
  5
1581
  8
0
 10
310.6402751167887
 20
159.56332303608141
 30
0.0
  0
VERTEX
  5
1582
  8
0
 10
310.31063550902007
 20
158.64666091329221
 30
0.0
  0
SEQEND
  5
1583
  8
0
  0
POLYLINE
  5
1271
  8
0
 66
     1
 10
0.0
 20
0.0
 30
0.0
  0
VERTEX
  5
1584
  8
0
 10
309.92604327598082
 20
170.10254745643519
 30
0.0
  0
VERTEX
  5
1585
  8
0
 10
309.92366977572709
 20
170.07592242282439
 30
0.0
  0
VERTEX
  5
1586
  8
0
 10
309.92023368950851
 20
170.0227621208698
 30
0.0
  0
VERTEX
  5
1587
  8
0
 10
309.91852687857568
 20
169.9697367474231
 30
0.0
  0
VERTEX
  5
1588
  8
0
 10
309.9183146600688
 20
169.9432804012408
 30
0.0
  0
SEQEND
  5
1589
  8
0
  0
POLYLINE
  5
1272
  8
0
 66
     1
 10
0.0
 20
0.0
 30
0.0
  0
VERTEX
  5
158A
  8
0
 10
309.9183146600688
 20
169.9432804012408
 30
0.0
  0
VERTEX
  5
158B
  8
0
 10
309.92498785805731
 20
169.7944993123657
 30
0.0
  0
VERTEX
  5
158C
  8
0
 10
309.97957075690272
 20
169.49071201635451
 30
0.0
  0
VERTEX
  5
158D
  8
0
 10
310.09116078257949
 20
169.18093625233931
 30
0.0
  0
VERTEX
  5
158E
  8
0
 10
310.16881687627961
 20
169.02468206550151
 30
0.0
  0
SEQEND
  5
158F
  8
0
  0
LINE
  5
1273
  8
0
 10
310.84009134326669
 20
178.01949957775869
 30
0.0
 11
325.24676136253561
 21
178.01949957775869
 31
0.0
  0
LINE
  5
1274
  8
0
 10
327.54342635290112
 20
129.36904342745831
 30
0.0
 11
327.54342635290112
 21
139.36904342745831
 31
0.0
  0
LINE
  5
1275
  8
0
 10
308.54342635290112
 20
139.36904342745831
 30
0.0
 11
308.54342635290112
 21
129.36904342745831
 31
0.0
  0
LINE
  5
1276
  8
0
 10
308.54342635290112
 20
129.36904342745831
 30
0.0
 11
327.54342635290112
 21
129.36904342745831
 31
0.0
  0
LINE
  5
1277
  8
1
 10
318.04342635290112
 20
197.36904342745831
 30
0.0
 11
318.04342635290112
 21
124.36904342745829
 31
0.0
  0
LINE
  5
1278
  8
0
 10
324.13768664545057
 20
192.36904342745831
 30
0.0
 11
311.94916606035162
 21
192.36904342745831
 31
0.0
  0
ARC
  5
1279
  8
0
 10
311.94916606035162
 20
191.86904342745831
 30
0.0
 40
0.5
 50
90.0
 51
168.1172371371602
  0
ARC
  5
127A
  8
0
 10
324.13768664545057
 20
191.86904342745831
 30
0.0
 40
0.5
 50
11.882762862839719
 51
90.0
  0
LINE
  5
127B
  8
0
 10
326.13859373647563
 20
184.78812921823419
 30
0.0
 11
324.62697213358848
 21
191.97199832582459
 31
0.0
  0
LINE
  5
127C
  8
0
 10
309.94825896932667
 20
184.78812921823419
 30
0.0
 11
311.45988057221359
 21
191.97199832582459
 31
0.0
  0
LINE
  5
127D
  8
0
 10
309.9375444574647
 20
184.68517431986791
 30
0.0
 11
309.9375444574647
 21
170.21755364644289
 31
0.0
  0
ARC
  5
127E
  8
0
 10
310.43754445746458
 20
184.68517431986791
 30
0.0
 40
0.5
 50
168.1172371371587
 51
180.0
  0
ARC
  5
127F
  8
0
 10
325.6493082483376
 20
184.68517431986791
 30
0.0
 40
0.5
 50
0.0
 51
11.88276286284132
  0
LINE
  5
1280
  8
0
 10
326.1493082483376
 20
184.68517431986791
 30
0.0
 11
326.14930824833749
 21
170.19478825608189
 31
0.0
  0
LINE
  5
1281
  8
0
 10
304.29342635290112
 20
170.87014186771091
 30
0.0
 11
304.54342635290112
 21
139.36904342745831
 31
0.0
  0
LINE
  5
1282
  8
0
 10
331.79342635290112
 20
170.87014186771091
 30
0.0
 11
331.54342635290112
 21
139.36904342745831
 31
0.0
  0
POLYLINE
  5
1283
  8
0
 10
331.79342635290112
 20
170.87014186771091
 30
0.0
 66
     1
 70
     8
  0
VERTEX
  8
0
  5
17D1
 10
331.793
 20
170.870
 30
0.000000
  70
    32
  0
VERTEX
  8
0
  5
17D2
 10
331.793
 20
170.896
 30
0.000000
  70
    32
  0
VERTEX
  8
0
  5
17D3
 10
331.793
 20
170.921
 30
0.000000
  70
    32
  0
VERTEX
  8
0
  5
17D4
 10
331.791
 20
170.946
 30
0.000000
  70
    32
  0
VERTEX
  8
0
  5
17D5
 10
331.790
 20
170.972
 30
0.000000
  70
    32
  0
VERTEX
  8
0
  5
17D6
 10
331.788
 20
170.997
 30
0.000000
  70
    32
  0
VERTEX
  8
0
  5
17D7
 10
331.785
 20
171.023
 30
0.000000
  70
    32
  0
VERTEX
  8
0
  5
17D8
 10
331.782
 20
171.048
 30
0.000000
  70
    32
  0
VERTEX
  8
0
  5
17D9
 10
331.779
 20
171.074
 30
0.000000
  70
    32
  0
VERTEX
  8
0
  5
17DA
 10
331.775
 20
171.099
 30
0.000000
  70
    32
  0
VERTEX
  8
0
  5
17DB
 10
331.771
 20
171.125
 30
0.000000
  70
    32
  0
VERTEX
  8
0
  5
17DC
 10
331.766
 20
171.150
 30
0.000000
  70
    32
  0
VERTEX
  8
0
  5
17DD
 10
331.761
 20
171.175
 30
0.000000
  70
    32
  0
VERTEX
  8
0
  5
17DE
 10
331.755
 20
171.201
 30
0.000000
  70
    32
  0
VERTEX
  8
0
  5
17DF
 10
331.749
 20
171.226
 30
0.000000
  70
    32
  0
VERTEX
  8
0
  5
17E0
 10
331.743
 20
171.251
 30
0.000000
  70
    32
  0
VERTEX
  8
0
  5
17E1
 10
331.736
 20
171.277
 30
0.000000
  70
    32
  0
VERTEX
  8
0
  5
17E2
 10
331.729
 20
171.302
 30
0.000000
  70
    32
  0
VERTEX
  8
0
  5
17E3
 10
331.721
 20
171.327
 30
0.000000
  70
    32
  0
VERTEX
  8
0
  5
17E4
 10
331.712
 20
171.353
 30
0.000000
  70
    32
  0
VERTEX
  8
0
  5
17E5
 10
331.704
 20
171.378
 30
0.000000
  70
    32
  0
VERTEX
  8
0
  5
17E6
 10
331.694
 20
171.403
 30
0.000000
  70
    32
  0
VERTEX
  8
0
  5
17E7
 10
331.685
 20
171.429
 30
0.000000
  70
    32
  0
VERTEX
  8
0
  5
17E8
 10
331.675
 20
171.454
 30
0.000000
  70
    32
  0
VERTEX
  8
0
  5
17E9
 10
331.664
 20
171.479
 30
0.000000
  70
    32
  0
VERTEX
  8
0
  5
17EA
 10
331.653
 20
171.504
 30
0.000000
  70
    32
  0
VERTEX
  8
0
  5
17EB
 10
331.642
 20
171.529
 30
0.000000
  70
    32
  0
VERTEX
  8
0
  5
17EC
 10
331.630
 20
171.555
 30
0.000000
  70
    32
  0
VERTEX
  8
0
  5
17ED
 10
331.618
 20
171.580
 30
0.000000
  70
    32
  0
VERTEX
  8
0
  5
17EE
 10
331.605
 20
171.605
 30
0.000000
  70
    32
  0
VERTEX
  8
0
  5
17EF
 10
331.592
 20
171.630
 30
0.000000
  70
    32
  0
VERTEX
  8
0
  5
17F0
 10
331.578
 20
171.655
 30
0.000000
  70
    32
  0
VERTEX
  8
0
  5
17F1
 10
331.564
 20
171.680
 30
0.000000
  70
    32
  0
VERTEX
  8
0
  5
17F2
 10
331.550
 20
171.705
 30
0.000000
  70
    32
  0
VERTEX
  8
0
  5
17F3
 10
331.535
 20
171.730
 30
0.000000
  70
    32
  0
VERTEX
  8
0
  5
17F4
 10
331.519
 20
171.755
 30
0.000000
  70
    32
  0
VERTEX
  8
0
  5
17F5
 10
331.503
 20
171.780
 30
0.000000
  70
    32
  0
VERTEX
  8
0
  5
17F6
 10
331.487
 20
171.805
 30
0.000000
  70
    32
  0
VERTEX
  8
0
  5
17F7
 10
331.470
 20
171.830
 30
0.000000
  70
    32
  0
VERTEX
  8
0
  5
17F8
 10
331.453
 20
171.855
 30
0.000000
  70
    32
  0
VERTEX
  8
0
  5
17F9
 10
331.436
 20
171.879
 30
0.000000
  70
    32
  0
VERTEX
  8
0
  5
17FA
 10
331.418
 20
171.904
 30
0.000000
  70
    32
  0
VERTEX
  8
0
  5
17FB
 10
331.399
 20
171.929
 30
0.000000
  70
    32
  0
VERTEX
  8
0
  5
17FC
 10
331.380
 20
171.954
 30
0.000000
  70
    32
  0
VERTEX
  8
0
  5
17FD
 10
331.361
 20
171.978
 30
0.000000
  70
    32
  0
VERTEX
  8
0
  5
17FE
 10
331.341
 20
172.003
 30
0.000000
  70
    32
  0
VERTEX
  8
0
  5
17FF
 10
331.321
 20
172.027
 30
0.000000
  70
    32
  0
VERTEX
  8
0
  5
1800
 10
331.300
 20
172.052
 30
0.000000
  70
    32
  0
VERTEX
  8
0
  5
1801
 10
331.279
 20
172.076
 30
0.000000
  70
    32
  0
VERTEX
  8
0
  5
1802
 10
331.258
 20
172.101
 30
0.000000
  70
    32
  0
VERTEX
  8
0
  5
1803
 10
331.236
 20
172.125
 30
0.000000
  70
    32
  0
VERTEX
  8
0
  5
1804
 10
331.213
 20
172.150
 30
0.000000
  70
    32
  0
VERTEX
  8
0
  5
1805
 10
331.190
 20
172.174
 30
0.000000
  70
    32
  0
VERTEX
  8
0
  5
1806
 10
331.167
 20
172.198
 30
0.000000
  70
    32
  0
VERTEX
  8
0
  5
1807
 10
331.144
 20
172.223
 30
0.000000
  70
    32
  0
VERTEX
  8
0
  5
1808
 10
331.120
 20
172.247
 30
0.000000
  70
    32
  0
VERTEX
  8
0
  5
1809
 10
331.095
 20
172.271
 30
0.000000
  70
    32
  0
VERTEX
  8
0
  5
180A
 10
331.070
 20
172.295
 30
0.000000
  70
    32
  0
VERTEX
  8
0
  5
180B
 10
331.045
 20
172.319
 30
0.000000
  70
    32
  0
VERTEX
  8
0
  5
180C
 10
331.019
 20
172.343
 30
0.000000
  70
    32
  0
VERTEX
  8
0
  5
180D
 10
330.993
 20
172.367
 30
0.000000
  70
    32
  0
VERTEX
  8
0
  5
180E
 10
330.966
 20
172.391
 30
0.000000
  70
    32
  0
VERTEX
  8
0
  5
180F
 10
330.939
 20
172.415
 30
0.000000
  70
    32
  0
VERTEX
  8
0
  5
1810
 10
330.911
 20
172.439
 30
0.000000
  70
    32
  0
VERTEX
  8
0
  5
1811
 10
330.884
 20
172.463
 30
0.000000
  70
    32
  0
VERTEX
  8
0
  5
1812
 10
330.855
 20
172.487
 30
0.000000
  70
    32
  0
VERTEX
  8
0
  5
1813
 10
330.826
 20
172.510
 30
0.000000
  70
    32
  0
VERTEX
  8
0
  5
1814
 10
330.797
 20
172.534
 30
0.000000
  70
    32
  0
VERTEX
  8
0
  5
1815
 10
330.768
 20
172.558
 30
0.000000
  70
    32
  0
VERTEX
  8
0
  5
1816
 10
330.738
 20
172.581
 30
0.000000
  70
    32
  0
VERTEX
  8
0
  5
1817
 10
330.707
 20
172.605
 30
0.000000
  70
    32
  0
VERTEX
  8
0
  5
1818
 10
330.677
 20
172.628
 30
0.000000
  70
    32
  0
VERTEX
  8
0
  5
1819
 10
330.645
 20
172.651
 30
0.000000
  70
    32
  0
VERTEX
  8
0
  5
181A
 10
330.614
 20
172.675
 30
0.000000
  70
    32
  0
VERTEX
  8
0
  5
181B
 10
330.582
 20
172.698
 30
0.000000
  70
    32
  0
VERTEX
  8
0
  5
181C
 10
330.549
 20
172.721
 30
0.000000
  70
    32
  0
VERTEX
  8
0
  5
181D
 10
330.516
 20
172.744
 30
0.000000
  70
    32
  0
VERTEX
  8
0
  5
181E
 10
330.483
 20
172.767
 30
0.000000
  70
    32
  0
VERTEX
  8
0
  5
181F
 10
330.449
 20
172.790
 30
0.000000
  70
    32
  0
VERTEX
  8
0
  5
1820
 10
330.415
 20
172.813
 30
0.000000
  70
    32
  0
VERTEX
  8
0
  5
1821
 10
330.381
 20
172.836
 30
0.000000
  70
    32
  0
VERTEX
  8
0
  5
1822
 10
330.346
 20
172.859
 30
0.000000
  70
    32
  0
VERTEX
  8
0
  5
1823
 10
330.310
 20
172.882
 30
0.000000
  70
    32
  0
VERTEX
  8
0
  5
1824
 10
330.275
 20
172.904
 30
0.000000
  70
    32
  0
VERTEX
  8
0
  5
1825
 10
330.239
 20
172.927
 30
0.000000
  70
    32
  0
VERTEX
  8
0
  5
1826
 10
330.202
 20
172.949
 30
0.000000
  70
    32
  0
VERTEX
  8
0
  5
1827
 10
330.165
 20
172.972
 30
0.000000
  70
    32
  0
VERTEX
  8
0
  5
1828
 10
330.128
 20
172.994
 30
0.000000
  70
    32
  0
VERTEX
  8
0
  5
1829
 10
330.090
 20
173.017
 30
0.000000
  70
    32
  0
VERTEX
  8
0
  5
182A
 10
330.052
 20
173.039
 30
0.000000
  70
    32
  0
VERTEX
  8
0
  5
182B
 10
330.014
 20
173.061
 30
0.000000
  70
    32
  0
VERTEX
  8
0
  5
182C
 10
329.975
 20
173.083
 30
0.000000
  70
    32
  0
VERTEX
  8
0
  5
182D
 10
329.936
 20
173.105
 30
0.000000
  70
    32
  0
VERTEX
  8
0
  5
182E
 10
329.896
 20
173.127
 30
0.000000
  70
    32
  0
VERTEX
  8
0
  5
182F
 10
329.856
 20
173.149
 30
0.000000
  70
    32
  0
VERTEX
  8
0
  5
1830
 10
329.815
 20
173.171
 30
0.000000
  70
    32
  0
VERTEX
  8
0
  5
1831
 10
329.775
 20
173.193
 30
0.000000
  70
    32
  0
VERTEX
  8
0
  5
1832
 10
329.733
 20
173.214
 30
0.000000
  70
    32
  0
VERTEX
  8
0
  5
1833
 10
329.692
 20
173.236
 30
0.000000
  70
    32
  0
VERTEX
  8
0
  5
1834
 10
329.650
 20
173.257
 30
0.000000
  70
    32
  0
VERTEX
  8
0
  5
1835
 10
329.608
 20
173.279
 30
0.000000
  70
    32
  0
VERTEX
  8
0
  5
1836
 10
329.565
 20
173.300
 30
0.000000
  70
    32
  0
VERTEX
  8
0
  5
1837
 10
329.522
 20
173.322
 30
0.000000
  70
    32
  0
VERTEX
  8
0
  5
1838
 10
329.478
 20
173.343
 30
0.000000
  70
    32
  0
VERTEX
  8
0
  5
1839
 10
329.435
 20
173.364
 30
0.000000
  70
    32
  0
VERTEX
  8
0
  5
183A
 10
329.390
 20
173.385
 30
0.000000
  70
    32
  0
VERTEX
  8
0
  5
183B
 10
329.346
 20
173.406
 30
0.000000
  70
    32
  0
VERTEX
  8
0
  5
183C
 10
329.301
 20
173.427
 30
0.000000
  70
    32
  0
VERTEX
  8
0
  5
183D
 10
329.256
 20
173.448
 30
0.000000
  70
    32
  0
VERTEX
  8
0
  5
183E
 10
329.210
 20
173.468
 30
0.000000
  70
    32
  0
VERTEX
  8
0
  5
183F
 10
329.164
 20
173.489
 30
0.000000
  70
    32
  0
VERTEX
  8
0
  5
1840
 10
329.117
 20
173.509
 30
0.000000
  70
    32
  0
VERTEX
  8
0
  5
1841
 10
329.071
 20
173.530
 30
0.000000
  70
    32
  0
VERTEX
  8
0
  5
1842
 10
329.023
 20
173.550
 30
0.000000
  70
    32
  0
VERTEX
  8
0
  5
1843
 10
328.976
 20
173.570
 30
0.000000
  70
    32
  0
VERTEX
  8
0
  5
1844
 10
328.928
 20
173.591
 30
0.000000
  70
    32
  0
VERTEX
  8
0
  5
1845
 10
328.880
 20
173.611
 30
0.000000
  70
    32
  0
VERTEX
  8
0
  5
1846
 10
328.831
 20
173.631
 30
0.000000
  70
    32
  0
VERTEX
  8
0
  5
1847
 10
328.782
 20
173.651
 30
0.000000
  70
    32
  0
VERTEX
  8
0
  5
1848
 10
328.733
 20
173.671
 30
0.000000
  70
    32
  0
VERTEX
  8
0
  5
1849
 10
328.684
 20
173.690
 30
0.000000
  70
    32
  0
VERTEX
  8
0
  5
184A
 10
328.634
 20
173.710
 30
0.000000
  70
    32
  0
VERTEX
  8
0
  5
184B
 10
328.583
 20
173.729
 30
0.000000
  70
    32
  0
VERTEX
  8
0
  5
184C
 10
328.533
 20
173.749
 30
0.000000
  70
    32
  0
VERTEX
  8
0
  5
184D
 10
328.482
 20
173.768
 30
0.000000
  70
    32
  0
VERTEX
  8
0
  5
184E
 10
328.430
 20
173.788
 30
0.000000
  70
    32
  0
VERTEX
  8
0
  5
184F
 10
328.379
 20
173.807
 30
0.000000
  70
    32
  0
VERTEX
  8
0
  5
1850
 10
328.327
 20
173.826
 30
0.000000
  70
    32
  0
VERTEX
  8
0
  5
1851
 10
328.274
 20
173.845
 30
0.000000
  70
    32
  0
SEQEND
  8
0
  5
1852
  0
ARC
  5
1284
  8
0
 10
334.7188393917333
 20
181.49114690549629
 30
0.0
 40
10.0
 50
211.0238190760582
 51
229.77460563426351
  0
ARC
  5
1285
  8
0
 10
301.368013314069
 20
181.49114690549629
 30
0.0
 40
10.0
 50
310.22539436573652
 51
328.97618092394111
  0
POLYLINE
  5
1286
  8
0
 10
307.81246551600162
 20
173.84484240706996
 30
0.0
 66
     1
 70
     8
  0
VERTEX
  8
0
  5
1853
 10
307.812
 20
173.845
 30
0.000000
  70
    32
  0
VERTEX
  8
0
  5
1854
 10
307.760
 20
173.826
 30
0.000000
  70
    32
  0
VERTEX
  8
0
  5
1855
 10
307.708
 20
173.807
 30
0.000000
  70
    32
  0
VERTEX
  8
0
  5
1856
 10
307.656
 20
173.788
 30
0.000000
  70
    32
  0
VERTEX
  8
0
  5
1857
 10
307.605
 20
173.768
 30
0.000000
  70
    32
  0
VERTEX
  8
0
  5
1858
 10
307.554
 20
173.749
 30
0.000000
  70
    32
  0
VERTEX
  8
0
  5
1859
 10
307.503
 20
173.729
 30
0.000000
  70
    32
  0
VERTEX
  8
0
  5
185A
 10
307.453
 20
173.710
 30
0.000000
  70
    32
  0
VERTEX
  8
0
  5
185B
 10
307.403
 20
173.690
 30
0.000000
  70
    32
  0
VERTEX
  8
0
  5
185C
 10
307.354
 20
173.671
 30
0.000000
  70
    32
  0
VERTEX
  8
0
  5
185D
 10
307.304
 20
173.651
 30
0.000000
  70
    32
  0
VERTEX
  8
0
  5
185E
 10
307.255
 20
173.631
 30
0.000000
  70
    32
  0
VERTEX
  8
0
  5
185F
 10
307.207
 20
173.611
 30
0.000000
  70
    32
  0
VERTEX
  8
0
  5
1860
 10
307.159
 20
173.591
 30
0.000000
  70
    32
  0
VERTEX
  8
0
  5
1861
 10
307.111
 20
173.570
 30
0.000000
  70
    32
  0
VERTEX
  8
0
  5
1862
 10
307.063
 20
173.550
 30
0.000000
  70
    32
  0
VERTEX
  8
0
  5
1863
 10
307.016
 20
173.530
 30
0.000000
  70
    32
  0
VERTEX
  8
0
  5
1864
 10
306.969
 20
173.509
 30
0.000000
  70
    32
  0
VERTEX
  8
0
  5
1865
 10
306.923
 20
173.489
 30
0.000000
  70
    32
  0
VERTEX
  8
0
  5
1866
 10
306.877
 20
173.468
 30
0.000000
  70
    32
  0
VERTEX
  8
0
  5
1867
 10
306.831
 20
173.448
 30
0.000000
  70
    32
  0
VERTEX
  8
0
  5
1868
 10
306.786
 20
173.427
 30
0.000000
  70
    32
  0
VERTEX
  8
0
  5
1869
 10
306.741
 20
173.406
 30
0.000000
  70
    32
  0
VERTEX
  8
0
  5
186A
 10
306.697
 20
173.385
 30
0.000000
  70
    32
  0
VERTEX
  8
0
  5
186B
 10
306.652
 20
173.364
 30
0.000000
  70
    32
  0
VERTEX
  8
0
  5
186C
 10
306.608
 20
173.343
 30
0.000000
  70
    32
  0
VERTEX
  8
0
  5
186D
 10
306.565
 20
173.322
 30
0.000000
  70
    32
  0
VERTEX
  8
0
  5
186E
 10
306.522
 20
173.300
 30
0.000000
  70
    32
  0
VERTEX
  8
0
  5
186F
 10
306.479
 20
173.279
 30
0.000000
  70
    32
  0
VERTEX
  8
0
  5
1870
 10
306.437
 20
173.257
 30
0.000000
  70
    32
  0
VERTEX
  8
0
  5
1871
 10
306.395
 20
173.236
 30
0.000000
  70
    32
  0
VERTEX
  8
0
  5
1872
 10
306.353
 20
173.214
 30
0.000000
  70
    32
  0
VERTEX
  8
0
  5
1873
 10
306.312
 20
173.193
 30
0.000000
  70
    32
  0
VERTEX
  8
0
  5
1874
 10
306.271
 20
173.171
 30
0.000000
  70
    32
  0
VERTEX
  8
0
  5
1875
 10
306.231
 20
173.149
 30
0.000000
  70
    32
  0
VERTEX
  8
0
  5
1876
 10
306.191
 20
173.127
 30
0.000000
  70
    32
  0
VERTEX
  8
0
  5
1877
 10
306.151
 20
173.105
 30
0.000000
  70
    32
  0
VERTEX
  8
0
  5
1878
 10
306.112
 20
173.083
 30
0.000000
  70
    32
  0
VERTEX
  8
0
  5
1879
 10
306.073
 20
173.061
 30
0.000000
  70
    32
  0
VERTEX
  8
0
  5
187A
 10
306.035
 20
173.039
 30
0.000000
  70
    32
  0
VERTEX
  8
0
  5
187B
 10
305.997
 20
173.017
 30
0.000000
  70
    32
  0
VERTEX
  8
0
  5
187C
 10
305.959
 20
172.994
 30
0.000000
  70
    32
  0
VERTEX
  8
0
  5
187D
 10
305.922
 20
172.972
 30
0.000000
  70
    32
  0
VERTEX
  8
0
  5
187E
 10
305.885
 20
172.949
 30
0.000000
  70
    32
  0
VERTEX
  8
0
  5
187F
 10
305.848
 20
172.927
 30
0.000000
  70
    32
  0
VERTEX
  8
0
  5
1880
 10
305.812
 20
172.904
 30
0.000000
  70
    32
  0
VERTEX
  8
0
  5
1881
 10
305.776
 20
172.882
 30
0.000000
  70
    32
  0
VERTEX
  8
0
  5
1882
 10
305.741
 20
172.859
 30
0.000000
  70
    32
  0
VERTEX
  8
0
  5
1883
 10
305.706
 20
172.836
 30
0.000000
  70
    32
  0
VERTEX
  8
0
  5
1884
 10
305.672
 20
172.813
 30
0.000000
  70
    32
  0
VERTEX
  8
0
  5
1885
 10
305.638
 20
172.790
 30
0.000000
  70
    32
  0
VERTEX
  8
0
  5
1886
 10
305.604
 20
172.767
 30
0.000000
  70
    32
  0
VERTEX
  8
0
  5
1887
 10
305.571
 20
172.744
 30
0.000000
  70
    32
  0
VERTEX
  8
0
  5
1888
 10
305.538
 20
172.721
 30
0.000000
  70
    32
  0
VERTEX
  8
0
  5
1889
 10
305.505
 20
172.698
 30
0.000000
  70
    32
  0
VERTEX
  8
0
  5
188A
 10
305.473
 20
172.675
 30
0.000000
  70
    32
  0
VERTEX
  8
0
  5
188B
 10
305.442
 20
172.651
 30
0.000000
  70
    32
  0
VERTEX
  8
0
  5
188C
 10
305.410
 20
172.628
 30
0.000000
  70
    32
  0
VERTEX
  8
0
  5
188D
 10
305.380
 20
172.605
 30
0.000000
  70
    32
  0
VERTEX
  8
0
  5
188E
 10
305.349
 20
172.581
 30
0.000000
  70
    32
  0
VERTEX
  8
0
  5
188F
 10
305.319
 20
172.558
 30
0.000000
  70
    32
  0
VERTEX
  8
0
  5
1890
 10
305.290
 20
172.534
 30
0.000000
  70
    32
  0
VERTEX
  8
0
  5
1891
 10
305.260
 20
172.510
 30
0.000000
  70
    32
  0
VERTEX
  8
0
  5
1892
 10
305.232
 20
172.487
 30
0.000000
  70
    32
  0
VERTEX
  8
0
  5
1893
 10
305.203
 20
172.463
 30
0.000000
  70
    32
  0
VERTEX
  8
0
  5
1894
 10
305.175
 20
172.439
 30
0.000000
  70
    32
  0
VERTEX
  8
0
  5
1895
 10
305.148
 20
172.415
 30
0.000000
  70
    32
  0
VERTEX
  8
0
  5
1896
 10
305.121
 20
172.391
 30
0.000000
  70
    32
  0
VERTEX
  8
0
  5
1897
 10
305.094
 20
172.367
 30
0.000000
  70
    32
  0
VERTEX
  8
0
  5
1898
 10
305.068
 20
172.343
 30
0.000000
  70
    32
  0
VERTEX
  8
0
  5
1899
 10
305.042
 20
172.319
 30
0.000000
  70
    32
  0
VERTEX
  8
0
  5
189A
 10
305.017
 20
172.295
 30
0.000000
  70
    32
  0
VERTEX
  8
0
  5
189B
 10
304.992
 20
172.271
 30
0.000000
  70
    32
  0
VERTEX
  8
0
  5
189C
 10
304.967
 20
172.247
 30
0.000000
  70
    32
  0
VERTEX
  8
0
  5
189D
 10
304.943
 20
172.223
 30
0.000000
  70
    32
  0
VERTEX
  8
0
  5
189E
 10
304.920
 20
172.198
 30
0.000000
  70
    32
  0
VERTEX
  8
0
  5
189F
 10
304.896
 20
172.174
 30
0.000000
  70
    32
  0
VERTEX
  8
0
  5
18A0
 10
304.874
 20
172.150
 30
0.000000
  70
    32
  0
VERTEX
  8
0
  5
18A1
 10
304.851
 20
172.125
 30
0.000000
  70
    32
  0
VERTEX
  8
0
  5
18A2
 10
304.829
 20
172.101
 30
0.000000
  70
    32
  0
VERTEX
  8
0
  5
18A3
 10
304.808
 20
172.076
 30
0.000000
  70
    32
  0
VERTEX
  8
0
  5
18A4
 10
304.787
 20
172.052
 30
0.000000
  70
    32
  0
VERTEX
  8
0
  5
18A5
 10
304.766
 20
172.027
 30
0.000000
  70
    32
  0
VERTEX
  8
0
  5
18A6
 10
304.746
 20
172.003
 30
0.000000
  70
    32
  0
VERTEX
  8
0
  5
18A7
 10
304.726
 20
171.978
 30
0.000000
  70
    32
  0
VERTEX
  8
0
  5
18A8
 10
304.707
 20
171.954
 30
0.000000
  70
    32
  0
VERTEX
  8
0
  5
18A9
 10
304.688
 20
171.929
 30
0.000000
  70
    32
  0
VERTEX
  8
0
  5
18AA
 10
304.669
 20
171.904
 30
0.000000
  70
    32
  0
VERTEX
  8
0
  5
18AB
 10
304.651
 20
171.879
 30
0.000000
  70
    32
  0
VERTEX
  8
0
  5
18AC
 10
304.634
 20
171.855
 30
0.000000
  70
    32
  0
VERTEX
  8
0
  5
18AD
 10
304.617
 20
171.830
 30
0.000000
  70
    32
  0
VERTEX
  8
0
  5
18AE
 10
304.600
 20
171.805
 30
0.000000
  70
    32
  0
VERTEX
  8
0
  5
18AF
 10
304.584
 20
171.780
 30
0.000000
  70
    32
  0
VERTEX
  8
0
  5
18B0
 10
304.568
 20
171.755
 30
0.000000
  70
    32
  0
VERTEX
  8
0
  5
18B1
 10
304.552
 20
171.730
 30
0.000000
  70
    32
  0
VERTEX
  8
0
  5
18B2
 10
304.537
 20
171.705
 30
0.000000
  70
    32
  0
VERTEX
  8
0
  5
18B3
 10
304.523
 20
171.680
 30
0.000000
  70
    32
  0
VERTEX
  8
0
  5
18B4
 10
304.509
 20
171.655
 30
0.000000
  70
    32
  0
VERTEX
  8
0
  5
18B5
 10
304.495
 20
171.630
 30
0.000000
  70
    32
  0
VERTEX
  8
0
  5
18B6
 10
304.482
 20
171.605
 30
0.000000
  70
    32
  0
VERTEX
  8
0
  5
18B7
 10
304.469
 20
171.580
 30
0.000000
  70
    32
  0
VERTEX
  8
0
  5
18B8
 10
304.457
 20
171.555
 30
0.000000
  70
    32
  0
VERTEX
  8
0
  5
18B9
 10
304.445
 20
171.529
 30
0.000000
  70
    32
  0
VERTEX
  8
0
  5
18BA
 10
304.434
 20
171.504
 30
0.000000
  70
    32
  0
VERTEX
  8
0
  5
18BB
 10
304.423
 20
171.479
 30
0.000000
  70
    32
  0
VERTEX
  8
0
  5
18BC
 10
304.412
 20
171.454
 30
0.000000
  70
    32
  0
VERTEX
  8
0
  5
18BD
 10
304.402
 20
171.429
 30
0.000000
  70
    32
  0
VERTEX
  8
0
  5
18BE
 10
304.392
 20
171.403
 30
0.000000
  70
    32
  0
VERTEX
  8
0
  5
18BF
 10
304.383
 20
171.378
 30
0.000000
  70
    32
  0
VERTEX
  8
0
  5
18C0
 10
304.374
 20
171.353
 30
0.000000
  70
    32
  0
VERTEX
  8
0
  5
18C1
 10
304.366
 20
171.327
 30
0.000000
  70
    32
  0
VERTEX
  8
0
  5
18C2
 10
304.358
 20
171.302
 30
0.000000
  70
    32
  0
VERTEX
  8
0
  5
18C3
 10
304.351
 20
171.277
 30
0.000000
  70
    32
  0
VERTEX
  8
0
  5
18C4
 10
304.344
 20
171.251
 30
0.000000
  70
    32
  0
VERTEX
  8
0
  5
18C5
 10
304.337
 20
171.226
 30
0.000000
  70
    32
  0
VERTEX
  8
0
  5
18C6
 10
304.331
 20
171.201
 30
0.000000
  70
    32
  0
VERTEX
  8
0
  5
18C7
 10
304.326
 20
171.175
 30
0.000000
  70
    32
  0
VERTEX
  8
0
  5
18C8
 10
304.321
 20
171.150
 30
0.000000
  70
    32
  0
VERTEX
  8
0
  5
18C9
 10
304.316
 20
171.125
 30
0.000000
  70
    32
  0
VERTEX
  8
0
  5
18CA
 10
304.312
 20
171.099
 30
0.000000
  70
    32
  0
VERTEX
  8
0
  5
18CB
 10
304.308
 20
171.074
 30
0.000000
  70
    32
  0
VERTEX
  8
0
  5
18CC
 10
304.304
 20
171.048
 30
0.000000
  70
    32
  0
VERTEX
  8
0
  5
18CD
 10
304.302
 20
171.023
 30
0.000000
  70
    32
  0
VERTEX
  8
0
  5
18CE
 10
304.299
 20
170.997
 30
0.000000
  70
    32
  0
VERTEX
  8
0
  5
18CF
 10
304.297
 20
170.972
 30
0.000000
  70
    32
  0
VERTEX
  8
0
  5
18D0
 10
304.295
 20
170.946
 30
0.000000
  70
    32
  0
VERTEX
  8
0
  5
18D1
 10
304.294
 20
170.921
 30
0.000000
  70
    32
  0
VERTEX
  8
0
  5
18D2
 10
304.294
 20
170.896
 30
0.000000
  70
    32
  0
VERTEX
  8
0
  5
18D3
 10
304.293
 20
170.870
 30
0.000000
  70
    32
  0
SEQEND
  8
0
  5
18D4
  0
ARC
  5
1287
  8
0
 10
338.19659153153441
 20
163.64316003390539
 30
0.0
 40
13.5
 50
154.9957370749591
 51
212.6035820132258
  0
ARC
  5
1288
  8
0
 10
324.14930824833749
 20
170.19478825608189
 30
0.0
 40
2.0
 50
334.99573707495921
 51
0.0
  0
LINE
  5
1289
  8
0
 10
325.24676136253561
 20
178.01949957775861
 30
0.0
 11
326.14916142692141
 21
170.2190217887993
 31
0.0
  0
LINE
  5
128A
  8
0
 10
325.15531370101951
 20
178.33904342745831
 30
0.0
 11
325.24676136253561
 21
178.01949957775869
 31
0.0
  0
LINE
  5
128B
  8
0
 10
324.5304948818785
 20
180.4262653866765
 30
0.0
 11
324.70106379984122
 21
178.33904342745831
 31
0.0
  0
ARC
  5
128C
  8
0
 10
332.15362152452389
 20
174.3633823650635
 30
0.0
 40
20.0
 50
117.22668439682791
 51
131.85703956953191
  0
ARC
  5
128D
  8
0
 10
323.91840361874017
 20
190.36904342745831
 30
0.0
 40
2.0
 50
90.0
 51
117.22668439682791
  0
ARC
  5
128E
  8
0
 10
392.64226986042007
 20
239.95508415346089
 30
0.0
 40
90.0
 50
214.79142625443711
 51
219.8857855585226
  0
ARC
  5
128F
  8
0
 10
319.1417730199974
 20
188.88721789481431
 30
0.0
 40
0.5
 50
131.85703956953191
 51
214.79142625443771
  0
ARC
  5
1290
  8
0
 10
317.02276286710452
 20
177.66330320916899
 30
0.0
 40
8.0
 50
20.2044001903514
 51
34.911162194464822
  0
ARC
  5
1291
  8
0
 10
303.9332311812783
 20
174.3633823650635
 30
0.0
 40
20.0
 50
48.14296043046803
 51
62.773315603172058
  0
ARC
  5
1292
  8
0
 10
312.16844908706202
 20
190.36904342745831
 30
0.0
 40
2.0
 50
62.773315603172058
 51
90.0
  0
ARC
  5
1293
  8
0
 10
316.94507968580479
 20
188.88721789481431
 30
0.0
 40
0.5
 50
325.20857374556232
 51
48.14296043046803
  0
ARC
  5
1294
  8
0
 10
243.4445828453822
 20
239.95508415346089
 30
0.0
 40
90.0
 50
320.11421444147737
 51
325.208573745563
  0
ARC
  5
1295
  8
0
 10
319.06408983869778
 20
177.66330320916899
 30
0.0
 40
8.0
 50
145.08883780553521
 51
159.79559980964859
  0
LINE
  5
1296
  8
0
 10
311.5563578239238
 20
180.4262653866765
 30
0.0
 11
311.38578890596108
 21
178.33904342745831
 31
0.0
  0
LINE
  5
1297
  8
0
 10
310.93153900478279
 20
178.33904342745831
 30
0.0
 11
310.84009134326669
 21
178.01949957775869
 31
0.0
  0
LINE
  5
1298
  8
0
 10
310.84009134326669
 20
178.01949957775861
 30
0.0
 11
309.93769127888078
 21
170.2190217887993
 31
0.0
  0
LINE
  5
1299
  8
0
 10
311.54342635290112
 20
192.1242287620299
 30
0.0
 11
311.54342635290112
 21
180.28906629534239
 31
0.0
  0
LINE
  5
129A
  8
2
 10
77.652513677589241
 20
131.36904342745811
 30
0.0
 11
77.652513677589241
 21
148.36904342745831
 31
0.0
  0
LINE
  5
129B
  8
2
 10
78.652513677589241
 20
130.369043427458
 30
0.0
 11
78.652513677589241
 21
146.36904342745839
 31
0.0
  0
LINE
  5
129C
  8
2
 10
66.652513677589354
 20
130.369043427458
 30
0.0
 11
66.652513677589354
 21
146.36904342745839
 31
0.0
  0
LINE
  5
129D
  8
2
 10
67.652513677589411
 20
131.36904342745811
 30
0.0
 11
67.652513677589411
 21
148.36904342745831
 31
0.0
  0
LINE
  5
129E
  8
2
 10
67.652513677589411
 20
131.36904342745811
 30
0.0
 11
65.652513677589866
 21
129.36904342745831
 31
0.0
  0
LINE
  5
129F
  8
2
 10
67.652513677589411
 20
131.36904342745811
 30
0.0
 11
77.652513677589241
 21
131.36904342745811
 31
0.0
  0
LINE
  5
12A0
  8
2
 10
77.652513677589241
 20
131.36904342745811
 30
0.0
 11
79.652513677588786
 21
129.36904342745831
 31
0.0
  0
LINE
  5
12A1
  8
2
 10
67.652513677589411
 20
148.1010942350272
 30
0.0
 11
66.652513677589354
 21
146.36904342745839
 31
0.0
  0
LINE
  5
12A2
  8
2
 10
78.652513677589241
 20
146.36904342745839
 30
0.0
 11
66.652513677589354
 21
146.36904342745839
 31
0.0
  0
LINE
  5
12A3
  8
2
 10
72.652513677589297
 20
151.25579477340639
 30
0.0
 11
77.652513677589241
 21
148.36904342745831
 31
0.0
  0
LINE
  5
12A4
  8
2
 10
77.652513677589241
 20
148.36904342745831
 30
0.0
 11
67.652513677589411
 21
148.36904342745831
 31
0.0
  0
LINE
  5
12A5
  8
2
 10
72.652513677589297
 20
151.25579477340639
 30
0.0
 11
67.652513677589411
 21
148.36904342745831
 31
0.0
  0
LINE
  5
12A6
  8
2
 10
77.652513677589241
 20
148.1010942350272
 30
0.0
 11
78.652513677589241
 21
146.36904342745839
 31
0.0
  0
LINE
  5
12A7
  8
2
 10
323.05342635290111
 20
131.36904342745811
 30
0.0
 11
323.05342635290111
 21
148.36904342745831
 31
0.0
  0
LINE
  5
12A8
  8
2
 10
324.053426352901
 20
130.369043427458
 30
0.0
 11
324.053426352901
 21
146.36904342745839
 31
0.0
  0
LINE
  5
12A9
  8
2
 10
312.05342635290123
 20
130.369043427458
 30
0.0
 11
312.05342635290123
 21
146.36904342745839
 31
0.0
  0
LINE
  5
12AA
  8
2
 10
313.05342635290123
 20
131.36904342745811
 30
0.0
 11
313.05342635290123
 21
148.36904342745831
 31
0.0
  0
LINE
  5
12AB
  8
2
 10
313.05342635290123
 20
131.36904342745811
 30
0.0
 11
311.05342635290168
 21
129.36904342745831
 31
0.0
  0
LINE
  5
12AC
  8
2
 10
313.05342635290123
 20
131.36904342745811
 30
0.0
 11
323.05342635290111
 21
131.36904342745811
 31
0.0
  0
LINE
  5
12AD
  8
2
 10
323.05342635290111
 20
131.36904342745811
 30
0.0
 11
325.0534263529006
 21
129.36904342745831
 31
0.0
  0
LINE
  5
12AE
  8
2
 10
313.05342635290123
 20
148.1010942350272
 30
0.0
 11
312.05342635290123
 21
146.36904342745839
 31
0.0
  0
LINE
  5
12AF
  8
2
 10
324.053426352901
 20
146.36904342745839
 30
0.0
 11
312.05342635290123
 21
146.36904342745839
 31
0.0
  0
LINE
  5
12B0
  8
2
 10
318.05342635290111
 20
151.25579477340639
 30
0.0
 11
323.05342635290111
 21
148.36904342745831
 31
0.0
  0
LINE
  5
12B1
  8
2
 10
323.05342635290111
 20
148.36904342745831
 30
0.0
 11
313.05342635290123
 21
148.36904342745831
 31
0.0
  0
LINE
  5
12B2
  8
2
 10
318.05342635290111
 20
151.25579477340639
 30
0.0
 11
313.05342635290123
 21
148.36904342745831
 31
0.0
  0
LINE
  5
12B3
  8
2
 10
323.05342635290111
 20
148.1010942350272
 30
0.0
 11
324.053426352901
 21
146.36904342745839
 31
0.0
  0
INSERT
  5
12C8
  8
0
  2
BATU
 10
0.0
 20
0.0
 30
0.0
 41
0.001
 42
0.001
 43
0.001
  0
LINE
  5
130A
  8
0
 10
155.17801918770209
 20
248.42434563162351
 30
0.0
 11
155.1780191877022
 21
247.07434563162349
 31
0.0
  0
LINE
  5
130B
  8
0
 10
162.7780191877022
 20
248.42434563162351
 30
0.0
 11
162.7780191877022
 21
247.07434563162349
 31
0.0
  0
LINE
  5
130C
  8
0
 10
160.7751411059067
 20
248.42434563162351
 30
0.0
 11
162.7780191877022
 21
248.42434563162351
 31
0.0
  0
LINE
  5
130D
  8
0
 10
160.7751411059067
 20
247.07434563162349
 30
0.0
 11
162.7780191877022
 21
247.07434563162349
 31
0.0
  0
LINE
  5
130E
  8
0
 10
155.17801918770209
 20
248.42434563162351
 30
0.0
 11
157.18089726949759
 21
248.42434563162351
 31
0.0
  0
LINE
  5
130F
  8
0
 10
155.1780191877022
 20
247.07434563162349
 30
0.0
 11
157.18089726949771
 21
247.07434563162349
 31
0.0
  0
CIRCLE
  5
1310
  8
0
 10
158.9780191877021
 20
247.7493456316235
 30
0.0
 40
3.999175415007485
  0
LINE
  5
131C
  8
0
 10
79.392513677589335
 20
170.97661084395051
 30
0.0
 11
65.892513677589321
 21
170.97661084395051
 31
0.0
  0
ARC
  5
131D
  8
0
 10
72.642513677589349
 20
161.05504342745829
 30
0.0
 40
12.0
 50
109.4670447595973
 51
124.2288663278127
  0
ARC
  5
131E
  8
0
 10
72.642513677589349
 20
161.05504342745829
 30
0.0
 40
12.0
 50
55.771133672187283
 51
70.532955240402714
  0
LINE
  5
131F
  8
0
 10
76.641689092596778
 20
172.36904342745831
 30
0.0
 11
68.643338262581963
 21
172.36904342745831
 31
0.0
  0
LINE
  5
1320
  8
0
 10
65.892513677589292
 20
170.97661084395051
 30
0.0
 11
65.892513677589292
 21
168.7064680669952
 31
0.0
  0
LINE
  5
1321
  8
0
 10
79.392513677589335
 20
170.97661084395051
 30
0.0
 11
79.392513677589335
 21
168.7064680669952
 31
0.0
  0
CIRCLE
  5
1322
  8
0
 10
158.9780191877021
 20
247.7493456316235
 30
0.0
 40
6.75
  0
ARC
  5
1323
  8
0
 10
161.34165861065429
 20
249.11399348873221
 30
0.0
 40
0.8925000000000011
 50
163.3417582272229
 51
230.59829508168929
  0
ARC
  5
1324
  8
0
 10
161.34165861065429
 20
246.3846977745149
 30
0.0
 40
0.8925000000000002
 50
129.40170491832279
 51
196.65824177277699
  0
ARC
  5
1325
  8
0
 10
159.99801918770211
 20
245.9826538079032
 30
0.0
 40
0.5099999999999997
 50
223.3417582272217
 51
16.658241772777039
  0
ARC
  5
1326
  8
0
 10
158.97801918770219
 20
245.02004991740631
 30
0.0
 40
0.8925000000000002
 50
43.341758227221717
 51
136.65824177277651
  0
ARC
  5
1327
  8
0
 10
157.95801918770221
 20
245.9826538079032
 30
0.0
 40
0.5100000000000002
 50
163.3417582272229
 51
316.6582417727783
  0
ARC
  5
1328
  8
0
 10
156.61437976475
 20
246.3846977745149
 30
0.0
 40
0.8925000000000011
 50
343.3417582272229
 51
50.598295081677158
  0
ARC
  5
1329
  8
0
 10
159.99801918770211
 20
249.51603745534379
 30
0.0
 40
0.5100000000000003
 50
343.3417582272229
 51
136.65824177277821
  0
ARC
  5
132A
  8
0
 10
158.97801918770219
 20
250.4786413458408
 30
0.0
 40
0.8924999999999984
 50
223.3417582272217
 51
316.6582417727783
  0
ARC
  5
132B
  8
0
 10
157.95801918770221
 20
249.51603745534379
 30
0.0
 40
0.5099999999999997
 50
43.341758227221717
 51
196.65824177277699
  0
ARC
  5
132C
  8
0
 10
156.61437976475
 20
249.11399348873221
 30
0.0
 40
0.8925000000000004
 50
309.40170491831071
 51
16.658241772777039
  0
LINE
  5
1332
  8
0
 10
160.07738203262929
 20
170.97661084395051
 30
0.0
 11
152.2280191877021
 21
170.97661084395051
 31
0.0
  0
LINE
  5
1333
  8
0
 10
152.2280191877021
 20
170.97661084395051
 30
0.0
 11
152.2280191877021
 21
167.68511714084659
 31
0.0
  0
LINE
  5
1334
  8
0
 10
162.9771946027096
 20
172.36904342745831
 30
0.0
 11
154.97884377269469
 21
172.36904342745831
 31
0.0
  0
ARC
  5
1335
  8
0
 10
158.9780191877021
 20
161.05504342745829
 30
0.0
 40
12.0
 50
109.4670447595973
 51
124.2288663278127
  0
ARC
  5
1336
  8
0
 10
158.9780191877021
 20
161.05504342745829
 30
0.0
 40
12.0
 50
68.926730289442503
 51
70.532955240402714
  0
TEXT
  5
1426
  8
0
 62
     3
 10
0.0
 20
0.0
 30
0.0
 40
10.0
  1
FKF12-CR-SUS
  7
STANDARD1
  0
ENDSEC
  0
EOF
