  0
SECTION
  2
HEADER
  9
$ACADVER
  1
AC1009
  9
$INSBASE
 10
0.0
 20
0.0
 30
0.0
  9
$EXTMIN
 10
0.0
 20
-2.960436562073669
 30
0.0
  9
$EXTMAX
 10
284.49542530314932
 20
184.90176325247279
 30
0.0000000000000631
  9
$LIMMIN
 10
0.0
 20
0.0
  9
$LIMMAX
 10
375.0
 20
270.0
  9
$ORTHOMODE
 70
     1
  9
$REGENMODE
 70
     1
  9
$FILLMODE
 70
     1
  9
$QTEXTMODE
 70
     0
  9
$MIRRTEXT
 70
     0
  9
$DRAGMODE
 70
     2
  9
$LTSCALE
 40
5.0
  9
$OSMODE
 70
    55
  9
$ATTMODE
 70
     1
  9
$TEXTSIZE
 40
0.2
  9
$TRACEWID
 40
0.05
  9
$TEXTSTYLE
  7
STANDARD
  9
$CLAYER
  8
0
  9
$CELTYPE
  6
BYLAYER
  9
$CECOLOR
 62
   256
  9
$DIMSCALE
 40
1.0
  9
$DIMASZ
 40
3.0
  9
$DIMEXO
 40
0.0625
  9
$DIMDLI
 40
0.38
  9
$DIMRND
 40
0.0
  9
$DIMDLE
 40
0.0
  9
$DIMEXE
 40
0.18
  9
$DIMTP
 40
0.0
  9
$DIMTM
 40
0.0
  9
$DIMTXT
 40
3.0
  9
$DIMCEN
 40
0.09
  9
$DIMTSZ
 40
0.0
  9
$DIMTOL
 70
     0
  9
$DIMLIM
 70
     0
  9
$DIMTIH
 70
     1
  9
$DIMTOH
 70
     1
  9
$DIMSE1
 70
     0
  9
$DIMSE2
 70
     0
  9
$DIMTAD
 70
     0
  9
$DIMZIN
 70
     0
  9
$DIMBLK
  1

  9
$DIMASO
 70
     1
  9
$DIMSHO
 70
     1
  9
$DIMPOST
  1

  9
$DIMAPOST
  1

  9
$DIMALT
 70
     0
  9
$DIMALTD
 70
     2
  9
$DIMALTF
 40
25.399999999999999
  9
$DIMLFAC
 40
1.0
  9
$DIMTOFL
 70
     0
  9
$DIMTVP
 40
0.0
  9
$DIMTIX
 70
     0
  9
$DIMSOXD
 70
     0
  9
$DIMSAH
 70
     0
  9
$DIMBLK1
  1

  9
$DIMBLK2
  1

  9
$DIMSTYLE
  2
STANDARD
  9
$DIMCLRD
 70
     0
  9
$DIMCLRE
 70
     0
  9
$DIMCLRT
 70
     0
  9
$DIMTFAC
 40
1.0
  9
$DIMGAP
 40
0.09
  9
$LUNITS
 70
     2
  9
$LUPREC
 70
     4
  9
$SKETCHINC
 40
0.1
  9
$FILLETRAD
 40
2.0
  9
$AUNITS
 70
     0
  9
$AUPREC
 70
     0
  9
$MENU
  1
E:\r13\win\SUPPORT\ACAD
  9
$ELEVATION
 40
0.0
  9
$PELEVATION
 40
0.0
  9
$THICKNESS
 40
0.0
  9
$LIMCHECK
 70
     0
  9
$BLIPMODE
 70
     0
  9
$CHAMFERA
 40
0.0
  9
$CHAMFERB
 40
0.0
  9
$SKPOLY
 70
     0
  9
$TDCREATE
 40
2450382.6899885419
  9
$TDUPDATE
 40
2456598.6463350458
  9
$TDINDWG
 40
0.3071214583
  9
$TDUSRTIMER
 40
0.3071214583
  9
$USRTIMER
 70
     1
  9
$ANGBASE
 50
0.0
  9
$ANGDIR
 70
     0
  9
$PDMODE
 70
     0
  9
$PDSIZE
 40
0.0
  9
$PLINEWID
 40
0.0
  9
$COORDS
 70
     1
  9
$SPLFRAME
 70
     0
  9
$SPLINETYPE
 70
     6
  9
$SPLINESEGS
 70
     8
  9
$ATTDIA
 70
     0
  9
$ATTREQ
 70
     1
  9
$HANDLING
 70
     1
  9
$HANDSEED
  5
771
  9
$SURFTAB1
 70
     6
  9
$SURFTAB2
 70
     6
  9
$SURFTYPE
 70
     6
  9
$SURFU
 70
     6
  9
$SURFV
 70
     6
  9
$UCSNAME
  2

  9
$UCSORG
 10
0.0
 20
0.0
 30
0.0
  9
$UCSXDIR
 10
1.0
 20
0.0
 30
0.0
  9
$UCSYDIR
 10
0.0
 20
1.0
 30
0.0
  9
$PUCSNAME
  2

  9
$PUCSORG
 10
0.0
 20
0.0
 30
0.0
  9
$PUCSXDIR
 10
1.0
 20
0.0
 30
0.0
  9
$PUCSYDIR
 10
0.0
 20
1.0
 30
0.0
  9
$USERI1
 70
     3
  9
$USERI2
 70
     1
  9
$USERI3
 70
     1
  9
$USERI4
 70
     0
  9
$USERI5
 70
     0
  9
$USERR1
 40
1.0
  9
$USERR2
 40
3.0
  9
$USERR3
 40
3.0
  9
$USERR4
 40
3.0
  9
$USERR5
 40
10.0
  9
$WORLDVIEW
 70
     1
  9
$SHADEDGE
 70
     3
  9
$SHADEDIF
 70
    70
  9
$TILEMODE
 70
     1
  9
$MAXACTVP
 70
    16
  9
$PLIMCHECK
 70
     0
  9
$PEXTMIN
 10
1.0000000000000000E+020
 20
1.0000000000000000E+020
 30
1.0000000000000000E+020
  9
$PEXTMAX
 10
-1.0000000000000000E+020
 20
-1.0000000000000000E+020
 30
-1.0000000000000000E+020
  9
$PLIMMIN
 10
0.0
 20
0.0
  9
$PLIMMAX
 10
12.0
 20
9.0
  9
$UNITMODE
 70
     0
  9
$VISRETAIN
 70
     0
  9
$PLINEGEN
 70
     0
  9
$PSLTSCALE
 70
     0
  0
ENDSEC
  0
SECTION
  2
TABLES
  0
TABLE
  2
VPORT
 70
     1
  0
VPORT
  2
*ACTIVE
 70
     0
 10
0.0
 20
0.0
 11
1.0
 21
1.0
 12
187.49427839065231
 22
174.91677254346851
 13
0.0
 23
0.0
 14
5.0
 24
5.0
 15
0.0
 25
0.0
 16
0.0
 26
0.0
 36
1.0
 17
0.0
 27
0.0
 37
0.0
 40
358.92027899574339
 41
1.7807262569832401
 42
50.0
 43
0.0
 44
0.0
 50
0.0
 51
0.0
 71
     0
 72
  2000
 73
     1
 74
     0
 75
     0
 76
     0
 77
     0
 78
     0
  0
ENDTAB
  0
TABLE
  2
LTYPE
 70
     4
  0
LTYPE
  2
CONTINUOUS
 70
     0
  3
Solid Line
 72
    65
 73
     0
 40
0.0
  0
LTYPE
  2
CENTER
 70
     0
  3
____ _ ____ _ ____ _ ____ _ ____ _ ____ _ ____
 72
    65
 73
     4
 40
2.0
 49
1.25
 49
-0.25
 49
0.25
 49
-0.25
  0
LTYPE
  2
HIDDEN
 70
     0
  3
_ _ _ _ _ _ _ _ _ _ _ _ _ _ _ _ _ _ _ _ _ _ _
 72
    65
 73
     2
 40
0.375
 49
0.25
 49
-0.125
  0
LTYPE
  2
PHANTOM2
 70
     0
  3
___ _ _ ___ _ _ ___ _ _ ___ _ _
 72
    65
 73
     6
 40
1.25
 49
0.625
 49
-0.125
 49
0.125
 49
-0.125
 49
0.125
 49
-0.125
  0
ENDTAB
  0
TABLE
  2
LAYER
 70
     3
  0
LAYER
  2
0
 70
     0
 62
     7
  6
CONTINUOUS
  0
LAYER
  2
1
 70
     0
 62
     1
  6
CENTER
  0
LAYER
  2
2
 70
     0
 62
     2
  6
HIDDEN
  0
ENDTAB
  0
TABLE
  2
STYLE
 70
     2
  0
STYLE
  2
STANDARD
 70
     0
 40
0.0
 41
1.0
 50
0.0
 71
     0
 42
0.2
  3
SIMPLEX
  4
BIGFONT
  0
STYLE
  2
STANDARD1
 70
     0
 40
0.0
 41
1.0
 50
0.0
 71
     0
 42
3.0
  3
txt
  4

  0
ENDTAB
  0
TABLE
  2
VIEW
 70
     0
  0
ENDTAB
  0
TABLE
  2
UCS
 70
     0
  0
ENDTAB
  0
TABLE
  2
APPID
 70
     8
  0
APPID
  2
ACAD
 70
     0
  0
APPID
  2
GENIUS_GENODEF_13
 70
     0
  0
APPID
  2
GENIUS_GENOBJ-N-FIL_13
 70
     0
  0
APPID
  2
GENIUS_GENOREF_13
 70
     0
  0
APPID
  2
GENIUS_GENREC_14
 70
     0
  0
APPID
  2
GENIUS_GENOBJ-N-REC_13
 70
     0
  0
APPID
  2
ACAD_MLEADERVER
 70
     0
  0
APPID
  2
ACAD_NAV_VCDISPLAY
 70
     0
  0
ENDTAB
  0
TABLE
  2
DIMSTYLE
 70
     1
  0
DIMSTYLE
  2
STANDARD
 70
     0
  3

  4

  5

  6

  7

 40
1.0
 41
0.18
 42
0.0625
 43
0.38
 44
0.18
 45
0.0
 46
0.0
 47
0.0
 48
0.0
140
0.18
141
0.09
142
0.0
143
25.399999999999999
144
1.0
145
0.0
146
1.0
147
0.09
 71
     0
 72
     0
 73
     1
 74
     1
 75
     0
 76
     0
 77
     0
 78
     0
170
     0
171
     2
172
     0
173
     0
174
     0
175
     0
176
     0
177
     0
178
     0
  0
ENDTAB
  0
ENDSEC
  0
SECTION
  2
BLOCKS
  0
BLOCK
  8
0
  2
$MODEL_SPACE
 70
     0
 10
0.0
 20
0.0
 30
0.0
  3
$MODEL_SPACE
  1

  0
ENDBLK
  5
19D
  8
0
  0
BLOCK
 67
     1
  8
0
  2
$PAPER_SPACE
 70
     0
 10
0.0
 20
0.0
 30
0.0
  3
$PAPER_SPACE
  1

  0
ENDBLK
  5
19B
 67
     1
  8
0
  0
ENDSEC
  0
SECTION
  2
ENTITIES
  0
LINE
  5
4ED
  8
1
 10
249.99542530314929
 20
142.90176325247251
 30
0.0
 11
284.49542530314932
 21
142.9017632524731
 31
0.0
  0
LINE
  5
4F0
  8
0
 10
273.90485325379262
 20
111.3352749547752
 30
0.0
 11
260.16263347825299
 21
111.5762460314112
 31
0.0
  0
CIRCLE
  5
4F2
  8
0
 10
131.9555136763268
 20
142.90176325247279
 30
0.0
 40
11.81357084030191
  0
LINE
  5
4F3
  8
0
 10
279.49542530314932
 20
155.1517632524729
 30
0.0
 11
279.49542530314932
 21
130.65176325247299
 31
0.0
  0
ARC
  5
4F4
  8
0
 10
238.8871055318148
 20
138.99118265639581
 30
0.0
 40
36.581494591137407
 50
345.33956246938141
 51
6.1282586357427533
  0
ARC
  5
4F5
  8
0
 10
239.09136657363081
 20
138.99652510999769
 30
0.0
 40
38.850042453344543
 50
347.14681557320642
 51
5.7691624145552201
  0
ARC
  5
4F6
  8
0
 10
78.794187784121078
 20
125.6286013922391
 30
0.0
 40
26.200884639376341
 50
356.00578259776017
 51
41.243363595959501
  0
ARC
  5
4F7
  8
0
 10
185.1168395685321
 20
125.6286013922391
 30
0.0
 40
26.200884639376341
 50
138.75663640404051
 51
183.99421740223971
  0
ARC
  5
4F8
  8
0
 10
146.46600063627969
 20
122.9297913435605
 30
0.0
 40
12.54406246144894
 50
248.00578259775929
 51
3.9942174022397579
  0
ARC
  5
4F9
  8
0
 10
131.9555136763268
 20
87.004637286400154
 30
0.0
 40
26.200884639376341
 50
68.005782597759278
 51
111.99421740224069
  0
ARC
  5
4FA
  8
0
 10
117.4450267163736
 20
122.9297913435623
 30
0.0
 40
12.54406246144894
 50
176.0057825977602
 51
291.99421740224068
  0
LINE
  5
4FB
  8
0
 10
277.0393548603721
 20
117.17481660315519
 30
0.0
 11
275.87176969827328
 21
112.8173294560375
 31
0.0
  0
ARC
  5
4FC
  8
0
 10
329.79035608319731
 20
118.3016651332448
 30
0.0
 40
54.179973818361191
 50
167.14681557320631
 51
185.7610310060825
  0
ARC
  5
4FD
  8
0
 10
329.58609504138121
 20
118.2963226796429
 30
0.0
 40
56.478502489319951
 50
168.3172725116753
 51
187.0731941028607
  0
LINE
  5
4FF
  8
0
 10
276.09335959190048
 20
118.43019472545789
 30
0.0
 11
275.61406072140039
 21
118.4246092912673
 31
0.0
  0
ARC
  5
500
  8
0
 10
276.07595278474298
 20
117.4329594113067
 30
0.0
 40
0.9973872210563998
 50
344.99999999999892
 51
88.999999999991701
1001
GENIUS_GENODEF_13
1002
{
1000
HIER
1070
     0
1002
}
1002
{
1000
MANEDIT
1070
     0
1002
}
1002
{
1000
NOSEL
1070
     0
1002
}
1002
{
1000
BEHIND
1070
     0
1002
}
1002
{
1000
REACTOR
1002
}
1001
GENIUS_GENOBJ-N-FIL_13
1002
{
1000
OWNER
1000
GEN
1002
}
  0
ARC
  5
501
  8
0
 10
278.49542530314932
 20
130.65176325247299
 30
0.0
 40
1.0
 50
270.0
 51
0.0
1001
GENIUS_GENODEF_13
1002
{
1000
HIER
1070
     0
1002
}
1002
{
1000
MANEDIT
1070
     0
1002
}
1002
{
1000
NOSEL
1070
     0
1002
}
1002
{
1000
BEHIND
1070
     0
1002
}
1002
{
1000
OTHER
1070
     0
1002
}
1002
{
1000
REACTOR
1002
}
1001
GENIUS_GENOBJ-N-FIL_13
1002
{
1000
OWNER
1000
GEN
1002
}
  0
LINE
  5
502
  8
0
 10
278.4954253031492
 20
129.65176325247299
 30
0.0
 11
276.8125792740276
 21
129.65176325247299
 31
0.0
  0
ARC
  5
504
  8
0
 10
164.81101996471921
 20
188.1234880957451
 30
0.0
 40
26.200884639376341
 50
212.00578259775889
 51
255.9942174022375
  0
ARC
  5
505
  8
0
 10
155.43397477084289
 20
150.53037769932041
 30
0.0
 40
12.54406246144894
 50
320.00578259775961
 51
75.994217402237524
  0
ARC
  5
506
  8
0
 10
108.4770525818103
 20
150.53037769932041
 30
0.0
 40
12.54406246144894
 50
104.0057825977624
 51
219.99421740224039
  0
ARC
  5
507
  8
0
 10
99.100007387933573
 20
188.1234880957451
 30
0.0
 40
26.200884639376341
 50
284.00578259776239
 51
327.99421740224102
  0
CIRCLE
  5
508
  8
0
 10
131.9555136763268
 20
142.90176325247279
 30
0.0
 40
9.75
  0
ARC
  5
511
  8
0
 10
131.95551367632629
 20
167.08207926829849
 30
0.0
 40
12.819650620464341
 50
33.925394998737922
 51
146.07460500126211
  0
ARC
  5
512
  8
0
 10
245.50892776377671
 20
163.94594369977821
 30
0.0
 40
29.516497539372541
 50
355.88706040355629
 51
13.4949357105101
  0
ARC
  5
513
  8
0
 10
245.50892776377671
 20
163.94594369977821
 30
0.0
 40
31.986497539372539
 50
348.14944756303441
 51
13.4949357105101
  0
ARC
  5
515
  8
0
 10
321.4660402323953
 20
153.12024398964991
 30
0.0
 40
44.854817968148609
 50
174.55412513831871
 51
193.1683087919759
  0
ARC
  5
516
  8
0
 10
321.4660402323953
 20
153.12024398964991
 30
0.0
 40
47.324817968148608
 50
169.39601842255311
 51
192.46963875493711
  0
LINE
  5
518
  8
2
 10
279.41939297937643
 20
137.90176325247359
 30
0.0
 11
265.4954253031492
 21
137.9017632524727
 31
0.0
  0
LINE
  5
519
  8
2
 10
279.41939297937643
 20
138.9017632524737
 30
0.0
 11
265.4954253031492
 21
138.9017632524727
 31
0.0
  0
LINE
  5
51A
  8
2
 10
279.41939297937608
 20
146.90176325247279
 30
0.0
 11
265.49542530314932
 21
146.90176325247279
 31
0.0
  0
LINE
  5
51B
  8
2
 10
279.41939297937608
 20
147.9017632524729
 30
0.0
 11
265.49542530314932
 21
147.90176325247279
 31
0.0
  0
ARC
  5
51C
  8
0
 10
278.49542530314932
 20
155.1517632524729
 30
0.0
 40
1.0
 50
0.0
 51
90.0
1001
GENIUS_GENOBJ-N-FIL_13
1002
{
1000
OWNER
1000
GEN
1002
}
1001
GENIUS_GENODEF_13
1002
{
1000
HIER
1070
     0
1002
}
1002
{
1000
MANEDIT
1070
     0
1002
}
1002
{
1000
NOSEL
1070
     0
1002
}
1002
{
1000
BEHIND
1070
     0
1002
}
1002
{
1000
OTHER
1070
     0
1002
}
1002
{
1000
REACTOR
1002
}
  0
LINE
  5
51D
  8
0
 10
278.49542530314932
 20
156.1517632524729
 30
0.0
 11
276.71378234617367
 21
156.1517632524729
 31
0.0
  0
LINE
  5
51E
  8
0
 10
274.22645892342911
 20
170.77101106324741
 30
0.0
 11
271.78219392502677
 21
179.8931322244471
 31
0.0
  0
LINE
  5
520
  8
0
 10
276.61229571436309
 20
171.4102941046506
 30
0.0
 11
274.73287005256219
 21
178.42440616353991
 31
0.0
  0
LINE
  5
521
  8
2
 10
257.06060019046868
 20
133.15176325247259
 30
0.0
 11
254.99542530314949
 21
131.08819241216881
 31
0.0
  0
LINE
  5
522
  8
0
 10
254.9954253031492
 20
131.08819241217051
 30
0.0
 11
254.9954253031494
 21
154.715334092776
 31
0.0
  0
ARC
  5
523
  8
0
 10
295.55827634079691
 20
138.3462678025376
 30
0.0
 40
36.581494591137407
 50
172.8463822627244
 51
193.9861783067314
  0
ARC
  5
524
  8
0
 10
204.62203467660751
 20
118.72016580784801
 30
0.0
 40
56.478502489319951
 50
352.72457249644691
 51
11.008468264435001
  0
ARC
  5
525
  8
0
 10
371.4592129316689
 20
142.90176325247299
 30
0.0
 40
117.0614124499603
 50
185.79201931093169
 51
194.7659452309754
  0
ARC
  5
527
  8
0
 10
212.68953305670601
 20
154.93930423482399
 30
0.0
 40
48.102536789862683
 50
345.50783982996029
 51
11.85286600693872
  0
ARC
  5
528
  8
0
 10
371.4592129316689
 20
142.90176325247299
 30
0.0
 40
117.0614124499603
 50
162.3892307531184
 51
174.20798068906831
  0
LINE
  5
529
  8
2
 10
257.06060019046799
 20
152.65176325247259
 30
0.0
 11
257.06060019046799
 21
133.15176325247259
 31
0.0
  0
LINE
  5
52A
  8
2
 10
257.06060019046788
 20
152.65176325247259
 30
0.0
 11
254.99542530314869
 21
154.715334092776
 31
0.0
  0
ARC
  5
52B
  8
0
 10
285.5170773200195
 20
168.5717736192741
 30
0.0
 40
26.02257917665391
 50
154.63962374981901
 51
188.29049560411869
  0
LINE
  5
52D
  8
0
 10
272.76591545937208
 20
179.90645999549699
 30
0.0000000000000004
 11
261.75518665320311
 21
179.71317574251071
 31
0.0
  0
LINE
  5
52F
  8
1
 10
131.9555136763268
 20
184.90176325247279
 30
0.0
 11
131.9555136763268
 21
100.9017632524728
 31
0.0
  0
LINE
  5
530
  8
1
 10
173.9555136763268
 20
142.90176325247279
 30
0.0
 11
89.955513676326802
 21
142.90176325247279
 31
0.0
  0
ARC
  5
535
  8
0
 10
272.801018399984
 20
177.90676807333489
 30
0.0000000000000631
 40
2.0
 50
14.99999999999968
 51
91.005676811102646
  0
ARC
  5
537
  8
0
 10
273.93991804569509
 20
113.3349675462424
 30
0.0
 40
2.0
 50
268.99541623711173
 51
345.00000000000449
  0
ARC
  5
53E
  8
0
 10
261.79028959381509
 20
177.71348382034861
 30
0.0
 40
2.0
 50
91.005676811103044
 51
162.3892307531186
  0
ARC
  5
53F
  8
0
 10
260.1976982701554
 20
113.5759386228785
 30
0.0
 40
2.0
 50
194.76594523097461
 51
268.9954162371119
  0
LINE
  5
542
  8
2
 10
265.49542530314932
 20
152.6517632524727
 30
0.0
 11
265.49542530314932
 21
133.1517632524727
 31
0.0
  0
LINE
  5
543
  8
2
 10
257.06060019046799
 20
152.65176325247259
 30
0.0
 11
265.49542530314932
 21
152.6517632524727
 31
0.0
  0
LINE
  5
544
  8
2
 10
257.06060019046868
 20
133.1517632524727
 30
0.0
 11
265.4954253031492
 21
133.1517632524727
 31
0.0
  0
LINE
  5
5C1
  8
0
 10
126.9555136763268
 20
147.90176325247279
 30
0.0
 11
126.9555136763268
 21
137.90176325247279
 31
0.0
1001
GENIUS_GENREC_14
1002
{
1000
PYDIR
1011
126.9555136763268
1021
0.0
1031
0.0
1021
137.90176325247279
1031
0.0
1002
}
1002
{
1000
PXDIR
1011
136.9555136763268
1021
0.0
1031
0.0
1021
147.90176325247279
1031
0.0
1002
}
1002
{
1000
PORI
1011
136.9555136763268
1021
0.0
1031
0.0
1021
137.90176325247279
1031
0.0
1002
}
1002
{
1000
PINS
1011
131.9555136763268
1021
0.0
1031
0.0
1021
142.90176325247279
1031
0.0
1002
}
1002
{
1000
HVAL
1000
10
1002
}
1002
{
1000
H
1070
     4
1002
}
1002
{
1000
WVAL
1000
10
1002
}
1002
{
1000
W
1070
     2
1002
}
1002
{
1000
C
1070
     4
1002
}
1001
GENIUS_GENOBJ-N-REC_13
1002
{
1000
OWNER
1000
GEN
1002
}
1001
GENIUS_GENODEF_13
1002
{
1000
HIER
1070
     0
1002
}
1002
{
1000
MANEDIT
1070
     0
1002
}
1002
{
1000
NOSEL
1070
     0
1002
}
1002
{
1000
BEHIND
1070
     0
1002
}
1002
{
1000
OTHER
1070
     0
1002
}
1002
{
1000
REACTOR
1002
}
  0
LINE
  5
5C2
  8
0
 10
136.9555136763268
 20
137.90176325247279
 30
0.0
 11
136.9555136763268
 21
147.90176325247279
 31
0.0
1001
GENIUS_GENREC_14
1002
{
1000
PYDIR
1011
126.9555136763268
1021
0.0
1031
0.0
1021
137.90176325247279
1031
0.0
1002
}
1002
{
1000
PXDIR
1011
136.9555136763268
1021
0.0
1031
0.0
1021
147.90176325247279
1031
0.0
1002
}
1002
{
1000
PORI
1011
136.9555136763268
1021
0.0
1031
0.0
1021
137.90176325247279
1031
0.0
1002
}
1002
{
1000
PINS
1011
131.9555136763268
1021
0.0
1031
0.0
1021
142.90176325247279
1031
0.0
1002
}
1002
{
1000
HVAL
1000
10
1002
}
1002
{
1000
H
1070
     4
1002
}
1002
{
1000
WVAL
1000
10
1002
}
1002
{
1000
W
1070
     2
1002
}
1002
{
1000
C
1070
     4
1002
}
1001
GENIUS_GENOBJ-N-REC_13
1002
{
1000
OWNER
1000
GEN
1002
}
1001
GENIUS_GENODEF_13
1002
{
1000
HIER
1070
     0
1002
}
1002
{
1000
MANEDIT
1070
     0
1002
}
1002
{
1000
NOSEL
1070
     0
1002
}
1002
{
1000
BEHIND
1070
     0
1002
}
1002
{
1000
OTHER
1070
     0
1002
}
1002
{
1000
REACTOR
1002
}
  0
LINE
  5
5C3
  8
0
 10
127.9555136763268
 20
146.90176325247279
 30
0.0
 11
127.9555136763268
 21
138.90176325247279
 31
0.0
1001
GENIUS_GENREC_14
1002
{
1000
PYDIR
1011
127.9555136763268
1021
0.0
1031
0.0
1021
138.90176325247279
1031
0.0
1002
}
1002
{
1000
PXDIR
1011
135.9555136763268
1021
0.0
1031
0.0
1021
146.90176325247279
1031
0.0
1002
}
1002
{
1000
PORI
1011
135.9555136763268
1021
0.0
1031
0.0
1021
138.90176325247279
1031
0.0
1002
}
1002
{
1000
PINS
1011
131.9555136763268
1021
0.0
1031
0.0
1021
142.90176325247279
1031
0.0
1002
}
1002
{
1000
HVAL
1000
8
1002
}
1002
{
1000
H
1070
     4
1002
}
1002
{
1000
WVAL
1000
8
1002
}
1002
{
1000
W
1070
     2
1002
}
1002
{
1000
C
1070
     4
1002
}
1001
GENIUS_GENOBJ-N-REC_13
1002
{
1000
OWNER
1000
GEN
1002
}
1001
GENIUS_GENODEF_13
1002
{
1000
HIER
1070
     0
1002
}
1002
{
1000
MANEDIT
1070
     0
1002
}
1002
{
1000
NOSEL
1070
     0
1002
}
1002
{
1000
BEHIND
1070
     0
1002
}
1002
{
1000
OTHER
1070
     0
1002
}
1002
{
1000
REACTOR
1002
}
  0
LINE
  5
5C4
  8
0
 10
135.9555136763268
 20
138.90176325247279
 30
0.0
 11
135.9555136763268
 21
146.90176325247279
 31
0.0
1001
GENIUS_GENREC_14
1002
{
1000
PYDIR
1011
127.9555136763268
1021
0.0
1031
0.0
1021
138.90176325247279
1031
0.0
1002
}
1002
{
1000
PXDIR
1011
135.9555136763268
1021
0.0
1031
0.0
1021
146.90176325247279
1031
0.0
1002
}
1002
{
1000
PORI
1011
135.9555136763268
1021
0.0
1031
0.0
1021
138.90176325247279
1031
0.0
1002
}
1002
{
1000
PINS
1011
131.9555136763268
1021
0.0
1031
0.0
1021
142.90176325247279
1031
0.0
1002
}
1002
{
1000
HVAL
1000
8
1002
}
1002
{
1000
H
1070
     4
1002
}
1002
{
1000
WVAL
1000
8
1002
}
1002
{
1000
W
1070
     2
1002
}
1002
{
1000
C
1070
     4
1002
}
1001
GENIUS_GENOBJ-N-REC_13
1002
{
1000
OWNER
1000
GEN
1002
}
1001
GENIUS_GENODEF_13
1002
{
1000
HIER
1070
     0
1002
}
1002
{
1000
MANEDIT
1070
     0
1002
}
1002
{
1000
NOSEL
1070
     0
1002
}
1002
{
1000
BEHIND
1070
     0
1002
}
1002
{
1000
OTHER
1070
     0
1002
}
1002
{
1000
REACTOR
1002
}
  0
LINE
  5
5C5
  8
0
 10
127.9555136763268
 20
138.90176325247279
 30
0.0
 11
135.9555136763268
 21
138.90176325247279
 31
0.0
1001
GENIUS_GENREC_14
1002
{
1000
PYDIR
1011
127.9555136763268
1021
0.0
1031
0.0
1021
138.90176325247279
1031
0.0
1002
}
1002
{
1000
PXDIR
1011
135.9555136763268
1021
0.0
1031
0.0
1021
146.90176325247279
1031
0.0
1002
}
1002
{
1000
PORI
1011
135.9555136763268
1021
0.0
1031
0.0
1021
138.90176325247279
1031
0.0
1002
}
1002
{
1000
PINS
1011
131.9555136763268
1021
0.0
1031
0.0
1021
142.90176325247279
1031
0.0
1002
}
1002
{
1000
HVAL
1000
8
1002
}
1002
{
1000
H
1070
     4
1002
}
1002
{
1000
WVAL
1000
8
1002
}
1002
{
1000
W
1070
     2
1002
}
1002
{
1000
C
1070
     4
1002
}
1001
GENIUS_GENOBJ-N-REC_13
1002
{
1000
OWNER
1000
GEN
1002
}
1001
GENIUS_GENODEF_13
1002
{
1000
HIER
1070
     0
1002
}
1002
{
1000
MANEDIT
1070
     0
1002
}
1002
{
1000
NOSEL
1070
     0
1002
}
1002
{
1000
BEHIND
1070
     0
1002
}
1002
{
1000
OTHER
1070
     0
1002
}
1002
{
1000
REACTOR
1002
}
  0
LINE
  5
5C6
  8
0
 10
126.9555136763268
 20
137.90176325247279
 30
0.0
 11
136.9555136763268
 21
137.90176325247279
 31
0.0
1001
GENIUS_GENREC_14
1002
{
1000
PYDIR
1011
126.9555136763268
1021
0.0
1031
0.0
1021
137.90176325247279
1031
0.0
1002
}
1002
{
1000
PXDIR
1011
136.9555136763268
1021
0.0
1031
0.0
1021
147.90176325247279
1031
0.0
1002
}
1002
{
1000
PORI
1011
136.9555136763268
1021
0.0
1031
0.0
1021
137.90176325247279
1031
0.0
1002
}
1002
{
1000
PINS
1011
131.9555136763268
1021
0.0
1031
0.0
1021
142.90176325247279
1031
0.0
1002
}
1002
{
1000
HVAL
1000
10
1002
}
1002
{
1000
H
1070
     4
1002
}
1002
{
1000
WVAL
1000
10
1002
}
1002
{
1000
W
1070
     2
1002
}
1002
{
1000
C
1070
     4
1002
}
1001
GENIUS_GENOBJ-N-REC_13
1002
{
1000
OWNER
1000
GEN
1002
}
1001
GENIUS_GENODEF_13
1002
{
1000
HIER
1070
     0
1002
}
1002
{
1000
MANEDIT
1070
     0
1002
}
1002
{
1000
NOSEL
1070
     0
1002
}
1002
{
1000
BEHIND
1070
     0
1002
}
1002
{
1000
OTHER
1070
     0
1002
}
1002
{
1000
REACTOR
1002
}
  0
LINE
  5
5C7
  8
0
 10
135.9555136763268
 20
146.90176325247279
 30
0.0
 11
127.9555136763268
 21
146.90176325247279
 31
0.0
1001
GENIUS_GENREC_14
1002
{
1000
PYDIR
1011
127.9555136763268
1021
0.0
1031
0.0
1021
138.90176325247279
1031
0.0
1002
}
1002
{
1000
PXDIR
1011
135.9555136763268
1021
0.0
1031
0.0
1021
146.90176325247279
1031
0.0
1002
}
1002
{
1000
PORI
1011
135.9555136763268
1021
0.0
1031
0.0
1021
138.90176325247279
1031
0.0
1002
}
1002
{
1000
PINS
1011
131.9555136763268
1021
0.0
1031
0.0
1021
142.90176325247279
1031
0.0
1002
}
1002
{
1000
HVAL
1000
8
1002
}
1002
{
1000
H
1070
     4
1002
}
1002
{
1000
WVAL
1000
8
1002
}
1002
{
1000
W
1070
     2
1002
}
1002
{
1000
C
1070
     4
1002
}
1001
GENIUS_GENOBJ-N-REC_13
1002
{
1000
OWNER
1000
GEN
1002
}
1001
GENIUS_GENODEF_13
1002
{
1000
HIER
1070
     0
1002
}
1002
{
1000
MANEDIT
1070
     0
1002
}
1002
{
1000
NOSEL
1070
     0
1002
}
1002
{
1000
BEHIND
1070
     0
1002
}
1002
{
1000
OTHER
1070
     0
1002
}
1002
{
1000
REACTOR
1002
}
  0
LINE
  5
5C8
  8
0
 10
136.9555136763268
 20
147.90176325247279
 30
0.0
 11
126.9555136763268
 21
147.90176325247279
 31
0.0
1001
GENIUS_GENREC_14
1002
{
1000
PYDIR
1011
126.9555136763268
1021
0.0
1031
0.0
1021
137.90176325247279
1031
0.0
1002
}
1002
{
1000
PXDIR
1011
136.9555136763268
1021
0.0
1031
0.0
1021
147.90176325247279
1031
0.0
1002
}
1002
{
1000
PORI
1011
136.9555136763268
1021
0.0
1031
0.0
1021
137.90176325247279
1031
0.0
1002
}
1002
{
1000
PINS
1011
131.9555136763268
1021
0.0
1031
0.0
1021
142.90176325247279
1031
0.0
1002
}
1002
{
1000
HVAL
1000
10
1002
}
1002
{
1000
H
1070
     4
1002
}
1002
{
1000
WVAL
1000
10
1002
}
1002
{
1000
W
1070
     2
1002
}
1002
{
1000
C
1070
     4
1002
}
1001
GENIUS_GENOBJ-N-REC_13
1002
{
1000
OWNER
1000
GEN
1002
}
1001
GENIUS_GENODEF_13
1002
{
1000
HIER
1070
     0
1002
}
1002
{
1000
MANEDIT
1070
     0
1002
}
1002
{
1000
NOSEL
1070
     0
1002
}
1002
{
1000
BEHIND
1070
     0
1002
}
1002
{
1000
OTHER
1070
     0
1002
}
1002
{
1000
REACTOR
1002
}
  0
LINE
  5
5EA
  8
0
 10
261.21514736578371
 20
142.46817963813379
 30
0.0
 11
273.30515161266408
 21
142.46817963813379
 31
0.0
  0
LINE
  5
5EB
  8
0
 10
262.87917481833023
 20
123.8035579726415
 30
0.0
 11
271.36749309302672
 21
123.8035579726415
 31
0.0
  0
LINE
  5
5F3
  8
0
 10
262.18713072587178
 20
162.7015215572732
 30
0.0
 11
272.9972716637925
 21
162.70152155727311
 31
0.0
  0
LINE
  5
5F4
  8
0
 10
262.17204053452571
 20
174.23689213370491
 30
0.0
 11
271.22722652871749
 21
174.23689213370491
 31
0.0
  0
TEXT
  5
6E3
  8
0
 62
     3
 10
0.0
 20
0.0
 30
0.0
 40
10.0
  1
FK74S8-PA
  7
STANDARD1
  0
ENDSEC
  0
EOF
