  0
SECTION
  2
HEADER
  9
$ACADVER
  1
AC1009
  9
$INSBASE
 10
0.0
 20
0.0
 30
0.0
  9
$EXTMIN
 10
0.0
 20
-2.960436562073669
 30
0.0
  9
$EXTMAX
 10
258.3551231169983
 20
158.11406229520651
 30
0.0
  9
$LIMMIN
 10
0.0
 20
0.0
  9
$LIMMAX
 10
375.0
 20
270.0
  9
$ORTHOMODE
 70
     1
  9
$REGENMODE
 70
     1
  9
$FILLMODE
 70
     1
  9
$QTEXTMODE
 70
     0
  9
$MIRRTEXT
 70
     0
  9
$DRAGMODE
 70
     2
  9
$LTSCALE
 40
10.0
  9
$OSMODE
 70
    55
  9
$ATTMODE
 70
     1
  9
$TEXTSIZE
 40
0.2
  9
$TRACEWID
 40
0.05
  9
$TEXTSTYLE
  7
STANDARD
  9
$CLAYER
  8
0
  9
$CELTYPE
  6
BYLAYER
  9
$CECOLOR
 62
   256
  9
$DIMSCALE
 40
1.0
  9
$DIMASZ
 40
3.0
  9
$DIMEXO
 40
0.0625
  9
$DIMDLI
 40
0.38
  9
$DIMRND
 40
0.0
  9
$DIMDLE
 40
0.0
  9
$DIMEXE
 40
0.18
  9
$DIMTP
 40
0.0
  9
$DIMTM
 40
0.0
  9
$DIMTXT
 40
3.0
  9
$DIMCEN
 40
0.09
  9
$DIMTSZ
 40
0.0
  9
$DIMTOL
 70
     0
  9
$DIMLIM
 70
     0
  9
$DIMTIH
 70
     1
  9
$DIMTOH
 70
     1
  9
$DIMSE1
 70
     0
  9
$DIMSE2
 70
     0
  9
$DIMTAD
 70
     0
  9
$DIMZIN
 70
     0
  9
$DIMBLK
  1

  9
$DIMASO
 70
     1
  9
$DIMSHO
 70
     1
  9
$DIMPOST
  1

  9
$DIMAPOST
  1

  9
$DIMALT
 70
     0
  9
$DIMALTD
 70
     2
  9
$DIMALTF
 40
25.399999999999999
  9
$DIMLFAC
 40
1.0
  9
$DIMTOFL
 70
     0
  9
$DIMTVP
 40
0.0
  9
$DIMTIX
 70
     0
  9
$DIMSOXD
 70
     0
  9
$DIMSAH
 70
     0
  9
$DIMBLK1
  1

  9
$DIMBLK2
  1

  9
$DIMSTYLE
  2
STANDARD
  9
$DIMCLRD
 70
     0
  9
$DIMCLRE
 70
     0
  9
$DIMCLRT
 70
     0
  9
$DIMTFAC
 40
1.0
  9
$DIMGAP
 40
0.09
  9
$LUNITS
 70
     2
  9
$LUPREC
 70
     4
  9
$SKETCHINC
 40
0.1
  9
$FILLETRAD
 40
5.0
  9
$AUNITS
 70
     0
  9
$AUPREC
 70
     0
  9
$MENU
  1
E:\r13\win\SUPPORT\ACAD
  9
$ELEVATION
 40
0.0
  9
$PELEVATION
 40
0.0
  9
$THICKNESS
 40
0.0
  9
$LIMCHECK
 70
     0
  9
$BLIPMODE
 70
     0
  9
$CHAMFERA
 40
0.0
  9
$CHAMFERB
 40
0.0
  9
$SKPOLY
 70
     0
  9
$TDCREATE
 40
2450382.6899885419
  9
$TDUPDATE
 40
2456598.646126146
  9
$TDINDWG
 40
0.0169489815
  9
$TDUSRTIMER
 40
0.0169489815
  9
$USRTIMER
 70
     1
  9
$ANGBASE
 50
0.0
  9
$ANGDIR
 70
     0
  9
$PDMODE
 70
     0
  9
$PDSIZE
 40
0.0
  9
$PLINEWID
 40
0.0
  9
$COORDS
 70
     1
  9
$SPLFRAME
 70
     0
  9
$SPLINETYPE
 70
     6
  9
$SPLINESEGS
 70
     8
  9
$ATTDIA
 70
     0
  9
$ATTREQ
 70
     1
  9
$HANDLING
 70
     1
  9
$HANDSEED
  5
434
  9
$SURFTAB1
 70
     6
  9
$SURFTAB2
 70
     6
  9
$SURFTYPE
 70
     6
  9
$SURFU
 70
     6
  9
$SURFV
 70
     6
  9
$UCSNAME
  2

  9
$UCSORG
 10
0.0
 20
0.0
 30
0.0
  9
$UCSXDIR
 10
1.0
 20
0.0
 30
0.0
  9
$UCSYDIR
 10
0.0
 20
1.0
 30
0.0
  9
$PUCSNAME
  2

  9
$PUCSORG
 10
0.0
 20
0.0
 30
0.0
  9
$PUCSXDIR
 10
1.0
 20
0.0
 30
0.0
  9
$PUCSYDIR
 10
0.0
 20
1.0
 30
0.0
  9
$USERI1
 70
     3
  9
$USERI2
 70
     1
  9
$USERI3
 70
     1
  9
$USERI4
 70
     0
  9
$USERI5
 70
     0
  9
$USERR1
 40
1.0
  9
$USERR2
 40
3.0
  9
$USERR3
 40
3.0
  9
$USERR4
 40
3.0
  9
$USERR5
 40
10.0
  9
$WORLDVIEW
 70
     1
  9
$SHADEDGE
 70
     3
  9
$SHADEDIF
 70
    70
  9
$TILEMODE
 70
     1
  9
$MAXACTVP
 70
    16
  9
$PLIMCHECK
 70
     0
  9
$PEXTMIN
 10
1.0000000000000000E+020
 20
1.0000000000000000E+020
 30
1.0000000000000000E+020
  9
$PEXTMAX
 10
-1.0000000000000000E+020
 20
-1.0000000000000000E+020
 30
-1.0000000000000000E+020
  9
$PLIMMIN
 10
0.0
 20
0.0
  9
$PLIMMAX
 10
12.0
 20
9.0
  9
$UNITMODE
 70
     0
  9
$VISRETAIN
 70
     0
  9
$PLINEGEN
 70
     0
  9
$PSLTSCALE
 70
     0
  0
ENDSEC
  0
SECTION
  2
TABLES
  0
TABLE
  2
VPORT
 70
     1
  0
VPORT
  2
*ACTIVE
 70
     0
 10
0.0
 20
0.0
 11
1.0
 21
1.0
 12
187.49427839065231
 22
174.91677254346851
 13
0.0
 23
0.0
 14
5.0
 24
5.0
 15
0.0
 25
0.0
 16
0.0
 26
0.0
 36
1.0
 17
0.0
 27
0.0
 37
0.0
 40
358.92027899574339
 41
1.7807262569832401
 42
50.0
 43
0.0
 44
0.0
 50
0.0
 51
0.0
 71
     0
 72
  2000
 73
     1
 74
     0
 75
     0
 76
     0
 77
     0
 78
     0
  0
ENDTAB
  0
TABLE
  2
LTYPE
 70
     4
  0
LTYPE
  2
CONTINUOUS
 70
     0
  3
Solid Line
 72
    65
 73
     0
 40
0.0
  0
LTYPE
  2
CENTER
 70
     0
  3
____ _ ____ _ ____ _ ____ _ ____ _ ____ _ ____
 72
    65
 73
     4
 40
2.0
 49
1.25
 49
-0.25
 49
0.25
 49
-0.25
  0
LTYPE
  2
HIDDEN
 70
     0
  3
_ _ _ _ _ _ _ _ _ _ _ _ _ _ _ _ _ _ _ _ _ _ _
 72
    65
 73
     2
 40
0.375
 49
0.25
 49
-0.125
  0
LTYPE
  2
PHANTOM2
 70
     0
  3
___ _ _ ___ _ _ ___ _ _ ___ _ _
 72
    65
 73
     6
 40
1.25
 49
0.625
 49
-0.125
 49
0.125
 49
-0.125
 49
0.125
 49
-0.125
  0
ENDTAB
  0
TABLE
  2
LAYER
 70
     3
  0
LAYER
  2
0
 70
     0
 62
     7
  6
CONTINUOUS
  0
LAYER
  2
1
 70
     0
 62
     1
  6
CENTER
  0
LAYER
  2
2
 70
     0
 62
     2
  6
HIDDEN
  0
ENDTAB
  0
TABLE
  2
STYLE
 70
     2
  0
STYLE
  2
STANDARD
 70
     0
 40
0.0
 41
1.0
 50
0.0
 71
     0
 42
0.2
  3
SIMPLEX
  4
BIGFONT
  0
STYLE
  2
STANDARD1
 70
     0
 40
0.0
 41
1.0
 50
0.0
 71
     0
 42
3.0
  3
txt
  4

  0
ENDTAB
  0
TABLE
  2
VIEW
 70
     0
  0
ENDTAB
  0
TABLE
  2
UCS
 70
     0
  0
ENDTAB
  0
TABLE
  2
APPID
 70
     6
  0
APPID
  2
ACAD
 70
     0
  0
APPID
  2
GENIUS_GENODEF_13
 70
     0
  0
APPID
  2
GENIUS_GENOBJ-N-FIL_13
 70
     0
  0
APPID
  2
GENIUS_GENOREF_13
 70
     0
  0
APPID
  2
ACAD_MLEADERVER
 70
     0
  0
APPID
  2
ACAD_NAV_VCDISPLAY
 70
     0
  0
ENDTAB
  0
TABLE
  2
DIMSTYLE
 70
     1
  0
DIMSTYLE
  2
STANDARD
 70
     0
  3

  4

  5

  6

  7

 40
1.0
 41
0.18
 42
0.0625
 43
0.38
 44
0.18
 45
0.0
 46
0.0
 47
0.0
 48
0.0
140
0.18
141
0.09
142
0.0
143
25.399999999999999
144
1.0
145
0.0
146
1.0
147
0.09
 71
     0
 72
     0
 73
     1
 74
     1
 75
     0
 76
     0
 77
     0
 78
     0
170
     0
171
     2
172
     0
173
     0
174
     0
175
     0
176
     0
177
     0
178
     0
  0
ENDTAB
  0
ENDSEC
  0
SECTION
  2
BLOCKS
  0
BLOCK
  8
0
  2
$MODEL_SPACE
 70
     0
 10
0.0
 20
0.0
 30
0.0
  3
$MODEL_SPACE
  1

  0
ENDBLK
  5
19D
  8
0
  0
BLOCK
 67
     1
  8
0
  2
$PAPER_SPACE
 70
     0
 10
0.0
 20
0.0
 30
0.0
  3
$PAPER_SPACE
  1

  0
ENDBLK
  5
19B
 67
     1
  8
0
  0
ENDSEC
  0
SECTION
  2
ENTITIES
  0
ARC
  5
25D
  8
0
 10
297.71661259731678
 20
104.6303010456773
 30
0.0
 40
49.321398802067613
 50
170.100437833304
 51
192.2385455142159
  0
ARC
  5
25E
  8
0
 10
296.8846870590163
 20
105.645565661897
 30
0.0
 40
45.96506584981676
 50
171.0833773294886
 51
187.84918118543359
  0
ARC
  5
25F
  8
0
 10
429.35982496920371
 20
131.96776627145229
 30
0.0
 40
198.75142967746891
 50
186.41632544980061
 51
190.46848512718199
  0
ARC
  5
260
  8
0
 10
313.98662291311427
 20
112.53552268497261
 30
0.0
 40
78.204782309511671
 50
179.96848479284631
 51
186.6662714649465
  0
LINE
  5
261
  8
1
 10
121.2573178381241
 20
158.11406229520651
 30
0.0
 11
121.2573178381241
 21
85.110081880441896
 31
0.0
  0
ARC
  5
262
  8
0
 10
133.5272097938178
 20
104.7240078166336
 30
0.0
 40
10.6272
 50
247.65610839484921
 51
4.343891601278508
  0
ARC
  5
263
  8
0
 10
108.987419381686
 20
104.72400781663271
 30
0.0
 40
10.6272
 50
175.65610839871169
 51
292.34389160515781
  0
ARC
  5
264
  8
0
 10
121.2573145877529
 20
74.87206974433775
 30
0.0
 40
21.648
 50
67.656108385165041
 51
112.3438916148411
  0
LINE
  5
265
  8
0
 10
248.9262617365782
 20
94.096807816632449
 30
0.0
 11
235.82455596937811
 21
94.330701098861255
 31
0.0
  0
ARC
  5
266
  8
0
 10
225.4296654411402
 20
100.2926582186529
 30
0.0
 40
11.3316987116873
 50
329.0325831201788
 51
16.215459586537111
  0
ARC
  5
267
  8
0
 10
235.8594607822528
 20
96.330396489174177
 30
0.0
 40
2.0
 50
193.73035468777871
 51
269.00000000005679
  0
ARC
  5
268
  8
0
 10
248.96116654945271
 20
96.096503206945499
 30
0.0
 40
2.0
 50
269.00000000000472
 51
339.06174184517289
1001
GENIUS_GENODEF_13
1002
{
1000
HIER
1070
     0
1002
}
1002
{
1000
MANEDIT
1070
     0
1002
}
1002
{
1000
NOSEL
1070
     0
1002
}
1002
{
1000
BEHIND
1070
     0
1002
}
1002
{
1000
REACTOR
1002
}
1001
GENIUS_GENOBJ-N-FIL_13
1002
{
1000
OWNER
1000
GEN
1002
}
  0
ARC
  5
269
  8
0
 10
240.17421623904431
 20
98.802053084497061
 30
0.0
 40
11.190388249626061
 50
342.20309654673622
 51
2.9004863168165951
  0
LINE
  5
26A
  8
1
 10
157.7593080455064
 20
121.6120720878242
 30
0.0
 11
84.755327630741817
 21
121.6120720878242
 31
0.0
  0
CIRCLE
  5
26B
  8
0
 10
121.2573178381241
 20
121.6120720878242
 30
0.0
 40
11.34999952575674
  0
CIRCLE
  5
26C
  8
0
 10
121.2573178381241
 20
121.6120720878242
 30
0.0
 40
9.7499995257570582
  0
ARC
  5
26D
  8
0
 10
121.2573145877541
 20
142.48686229520641
 30
0.0
 40
10.6272
 50
31.656108387100058
 51
148.34389161289701
  0
ARC
  5
26E
  8
0
 10
101.4042071059405
 20
128.0627353966091
 30
0.0
 40
10.6272
 50
103.6561084025932
 51
220.34389160902271
  0
ARC
  5
26F
  8
0
 10
76.804933016116138
 20
107.1686154272564
 30
0.0
 40
21.648
 50
355.65610838903052
 51
41.85099618628189
  0
ARC
  5
270
  8
0
 10
93.784231895605217
 20
159.4255240614246
 30
0.0
 40
21.648
 50
283.6561083929069
 51
328.34389160321371
  0
ARC
  5
271
  8
2
 10
242.35512311699799
 20
130.24922332805269
 30
0.0
 40
1.0
 50
0.0
 51
88.999999999998224
1001
GENIUS_GENODEF_13
1002
{
1000
HIER
1070
     0
1002
}
1002
{
1000
MANEDIT
1070
     0
1002
}
1002
{
1000
NOSEL
1070
     0
1002
}
1002
{
1000
BEHIND
1070
     0
1002
}
1002
{
1000
REACTOR
1002
}
1001
GENIUS_GENOBJ-N-FIL_13
1002
{
1000
OWNER
1000
GEN
1002
}
  0
ARC
  5
272
  8
2
 10
242.35512311699819
 20
112.9749208475954
 30
0.0
 40
1.0
 50
271.00000000000182
 51
0.0
1001
GENIUS_GENODEF_13
1002
{
1000
HIER
1070
     0
1002
}
1002
{
1000
MANEDIT
1070
     0
1002
}
1002
{
1000
NOSEL
1070
     0
1002
}
1002
{
1000
BEHIND
1070
     0
1002
}
1002
{
1000
REACTOR
1002
}
1001
GENIUS_GENOBJ-N-FIL_13
1002
{
1000
OWNER
1000
GEN
1002
}
  0
LINE
  5
273
  8
2
 10
253.35512311699819
 20
124.6120720878241
 30
0.0
 11
243.35512311699819
 21
124.612072087824
 31
0.0
  0
LINE
  5
274
  8
2
 10
253.3551231169981
 20
125.6120720878241
 30
0.0
 11
243.3551231169981
 21
125.612072087824
 31
0.0
  0
LINE
  5
275
  8
2
 10
253.35512311699819
 20
118.612072087824
 30
0.0
 11
243.5372585291648
 21
118.612072087824
 31
0.0
  0
LINE
  5
276
  8
2
 10
253.3551231169981
 20
117.612072087824
 30
0.0
 11
243.3551231169981
 21
117.612072087824
 31
0.0
  0
LINE
  5
277
  8
1
 10
258.3551231169983
 20
121.6120720878241
 30
0.0
 11
226.85512282096991
 21
121.6120720878241
 31
0.0
  0
LINE
  5
278
  8
0
 10
247.51926487455731
 20
153.11406230255429
 30
0.0
 11
236.87413729810299
 21
152.93697844200199
 31
0.0
  0
ARC
  5
27C
  8
0
 10
141.110422069566
 20
128.06273539660711
 30
0.0
 40
10.6272
 50
319.65610839097502
 51
76.343891597400017
  0
ARC
  5
27D
  8
0
 10
165.70969615938799
 20
107.16861542725179
 30
0.0
 40
21.648
 50
138.1490038137037
 51
184.3438916109597
  0
LINE
  5
27E
  8
0
 10
124.2573178381241
 20
124.6120720878242
 30
0.0
 11
118.2573178381241
 21
124.612072087824
 31
0.0
  0
LINE
  5
27F
  8
0
 10
125.2573178381241
 20
125.6120720878242
 30
0.0
 11
117.2573178381241
 21
125.6120720878241
 31
0.0
  0
LINE
  5
280
  8
0
 10
118.2573178381241
 20
118.6120720878242
 30
0.0
 11
124.2573178381241
 21
118.6120720878242
 31
0.0
  0
LINE
  5
281
  8
0
 10
117.2573178381241
 20
117.6120720878242
 30
0.0
 11
125.2573178381241
 21
117.6120720878242
 31
0.0
  0
LINE
  5
282
  8
0
 10
118.2573178381241
 20
124.6120720878239
 30
0.0
 11
118.2573178381241
 21
118.6120720878242
 31
0.0
  0
LINE
  5
283
  8
0
 10
117.2573178381241
 20
125.6120720878241
 30
0.0
 11
117.2573178381241
 21
117.6120720878242
 31
0.0
  0
LINE
  5
284
  8
0
 10
124.2573178381241
 20
118.6120720878242
 30
0.0
 11
124.2573178381241
 21
124.6120720878241
 31
0.0
  0
LINE
  5
285
  8
0
 10
125.2573178381241
 20
117.6120720878242
 30
0.0
 11
125.2573178381241
 21
125.6120720878242
 31
0.0
  0
ARC
  5
286
  8
0
 10
148.73039727990471
 20
159.4255240614217
 30
0.0
 40
21.648
 50
211.6561083967834
 51
256.34389160708628
  0
ARC
  5
287
  8
0
 10
278.94524589633812
 20
141.86338129231271
 30
0.0
 40
43.140401942732673
 50
165.1173415000676
 51
188.8824796062928
  0
ARC
  5
288
  8
0
 10
340.96994983515049
 20
123.6516071403824
 30
0.0
 40
109.5759832504428
 50
165.2521334921075
 51
174.7312557748678
  0
LINE
  5
289
  8
2
 10
243.35512311699799
 20
130.24922332805269
 30
0.0
 11
243.35512311699819
 21
112.9749208475954
 31
0.0
  0
LINE
  5
28A
  8
2
 10
234.0835437769675
 20
131.36207161358101
 30
0.0
 11
234.0835437769675
 21
111.8620725620667
 31
0.0
  0
ARC
  5
28B
  8
0
 10
193.11042737360239
 20
129.31457772087521
 30
0.0
 40
43.611037563634973
 50
349.8271553069448
 51
7.7587222897340036
  0
LINE
  5
28C
  8
0
 10
231.85693172417351
 20
133.71368366637429
 30
0.0
 11
231.85335086213999
 21
109.7568796472396
 31
0.0
  0
ARC
  5
28D
  8
0
 10
615.16742346639001
 20
106.43058889763211
 30
0.0
 40
379.43538158051928
 50
177.7069422963892
 51
179.07160214382719
  0
LINE
  5
28F
  8
2
 10
231.85335086213999
 20
109.6318796472397
 30
0.0
 11
234.0835437769675
 21
111.8620725620667
 31
0.0
  0
LINE
  5
291
  8
2
 10
231.85693172417351
 20
133.58868366637441
 30
0.0
 11
234.0835441584376
 21
131.36207123211099
 31
0.0
  0
ARC
  5
292
  8
0
 10
236.9090421109774
 20
150.93728305168929
 30
0.0
 40
2.0
 50
91.000000009630554
 51
162.2828281833128
  0
ARC
  5
293
  8
0
 10
213.6600636113215
 20
141.4138912828453
 30
0.0
 40
37.74330360020884
 50
357.16620506748791
 51
16.292267301940662
  0
ARC
  5
294
  8
0
 10
202.31793442836209
 20
140.92974491696731
 30
0.0
 40
46.689073751898647
 50
358.3832911840048
 51
15.136249712655131
  0
ARC
  5
295
  8
0
 10
598.64540094978497
 20
162.94984794184089
 30
0.0
 40
349.69228888424448
 50
185.39640761182659
 51
186.7430072147188
  0
ARC
  5
296
  8
0
 10
598.64540094978497
 20
162.94984794184089
 30
0.0
 40
352.06195961652992
 50
185.39640761182659
 51
186.7430072147188
  0
LINE
  5
297
  8
0
 10
253.35512311699819
 20
131.86222439266771
 30
0.0
 11
253.35512311699819
 21
111.36191978298049
 31
0.0
  0
ARC
  5
298
  8
0
 10
187.57304691902121
 20
116.6190372039469
 30
0.0
 40
64.017879394055242
 50
356.55305811570832
 51
4.642679806436373
  0
ARC
  5
299
  8
0
 10
185.39718678253041
 20
116.5306881741127
 30
0.0
 40
63.824139166530031
 50
356.92747306279279
 51
4.5664588549788876
  0
LINE
  5
29A
  8
0
 10
251.18711290063411
 20
110.3472315045348
 30
0.0
 11
252.37257552343539
 21
110.362072087824
 31
0.0
  0
ARC
  5
29B
  8
0
 10
252.3551231169983
 20
111.36191978298049
 30
0.0
 40
1.0
 50
271.00000000000182
 51
0.0
  0
ARC
  5
29C
  8
0
 10
374.88754316560841
 20
123.64195057966511
 30
0.0
 40
124.5501580711137
 50
172.66287901493999
 51
177.04499457677679
  0
ARC
  5
29D
  8
0
 10
354.81032514815109
 20
125.5440862383727
 30
0.0
 40
106.752963980405
 50
172.42726076855979
 51
177.69377299206499
  0
LINE
  5
29E
  8
0
 10
250.66297817139679
 20
132.89191322060501
 30
0.0
 11
252.3725755234355
 21
132.862072087824
 31
0.0
  0
ARC
  5
29F
  8
0
 10
252.35512311699819
 20
131.86222439266771
 30
0.0
 40
1.0
 50
0.0
 51
88.999999999998224
  0
LINE
  5
2A0
  8
0
 10
248.4388267552512
 20
153.11406229520571
 30
0.0
 11
247.51926487652639
 21
153.11406229520571
 31
0.0
  0
ARC
  5
2A1
  8
0
 10
248.4388267553779
 20
151.6140622952058
 30
0.0
 40
1.5
 50
15.00000000322723
 51
90.000000014525696
  0
LINE
  5
2A7
  8
2
 10
234.0835441584376
 20
131.36207123211099
 30
0.0
 11
242.3725755234353
 21
131.2490710232091
 31
0.0
  0
LINE
  5
2A8
  8
2
 10
242.3725755234355
 20
111.97507315243899
 30
0.0
 11
234.0835437769675
 21
111.8620725620667
 31
0.0
  0
LINE
  5
2B4
  8
0
 10
238.02045649971859
 20
121.18296418680779
 30
0.0
 11
247.04603520311471
 21
121.18296418680779
 31
0.0
  0
LINE
  5
2B5
  8
0
 10
238.10463137239771
 20
105.5289395908615
 30
0.0
 11
246.4030819863174
 21
105.5289395908615
 31
0.0
  0
LINE
  5
2BA
  8
0
 10
238.2748366251972
 20
148.0642265353016
 30
0.0
 11
246.4338327513056
 21
148.0642265353016
 31
0.0
  0
LINE
  5
2BB
  8
0
 10
237.9517723753971
 20
138.38950727365409
 30
0.0
 11
246.9347530679529
 21
138.389507273654
 31
0.0
  0
TEXT
  5
3A6
  8
0
 62
     3
 10
0.0
 20
0.0
 30
0.0
 40
10.0
  1
FK63S6-PA
  7
STANDARD1
  0
ENDSEC
  0
EOF
