  0
SECTION
  2
HEADER
  9
$ACADVER
  1
AC1009
  9
$INSBASE
 10
0.0
 20
0.0
 30
0.0
  9
$EXTMIN
 10
0.0
 20
-2.960436562073669
 30
0.0
  9
$EXTMAX
 10
203.02882368441951
 20
125.73075139772411
 30
0.0
  9
$LIMMIN
 10
0.0
 20
0.0
  9
$LIMMAX
 10
375.0
 20
270.0
  9
$ORTHOMODE
 70
     1
  9
$REGENMODE
 70
     1
  9
$FILLMODE
 70
     1
  9
$QTEXTMODE
 70
     0
  9
$MIRRTEXT
 70
     0
  9
$DRAGMODE
 70
     2
  9
$LTSCALE
 40
5.0
  9
$OSMODE
 70
    55
  9
$ATTMODE
 70
     1
  9
$TEXTSIZE
 40
0.2
  9
$TRACEWID
 40
0.05
  9
$TEXTSTYLE
  7
STANDARD
  9
$CLAYER
  8
0
  9
$CELTYPE
  6
BYLAYER
  9
$CECOLOR
 62
   256
  9
$DIMSCALE
 40
1.0
  9
$DIMASZ
 40
3.0
  9
$DIMEXO
 40
0.0625
  9
$DIMDLI
 40
0.38
  9
$DIMRND
 40
0.0
  9
$DIMDLE
 40
0.0
  9
$DIMEXE
 40
0.18
  9
$DIMTP
 40
0.0
  9
$DIMTM
 40
0.0
  9
$DIMTXT
 40
3.0
  9
$DIMCEN
 40
0.09
  9
$DIMTSZ
 40
0.0
  9
$DIMTOL
 70
     0
  9
$DIMLIM
 70
     0
  9
$DIMTIH
 70
     1
  9
$DIMTOH
 70
     1
  9
$DIMSE1
 70
     0
  9
$DIMSE2
 70
     0
  9
$DIMTAD
 70
     0
  9
$DIMZIN
 70
     0
  9
$DIMBLK
  1

  9
$DIMASO
 70
     1
  9
$DIMSHO
 70
     1
  9
$DIMPOST
  1

  9
$DIMAPOST
  1

  9
$DIMALT
 70
     0
  9
$DIMALTD
 70
     2
  9
$DIMALTF
 40
25.399999999999999
  9
$DIMLFAC
 40
1.0
  9
$DIMTOFL
 70
     0
  9
$DIMTVP
 40
0.0
  9
$DIMTIX
 70
     0
  9
$DIMSOXD
 70
     0
  9
$DIMSAH
 70
     0
  9
$DIMBLK1
  1

  9
$DIMBLK2
  1

  9
$DIMSTYLE
  2
STANDARD
  9
$DIMCLRD
 70
     0
  9
$DIMCLRE
 70
     0
  9
$DIMCLRT
 70
     0
  9
$DIMTFAC
 40
1.0
  9
$DIMGAP
 40
0.09
  9
$LUNITS
 70
     2
  9
$LUPREC
 70
     4
  9
$SKETCHINC
 40
0.1
  9
$FILLETRAD
 40
1.0
  9
$AUNITS
 70
     0
  9
$AUPREC
 70
     0
  9
$MENU
  1
E:\r13\win\SUPPORT\ACAD
  9
$ELEVATION
 40
0.0
  9
$PELEVATION
 40
0.0
  9
$THICKNESS
 40
0.0
  9
$LIMCHECK
 70
     0
  9
$BLIPMODE
 70
     0
  9
$CHAMFERA
 40
0.0
  9
$CHAMFERB
 40
0.0
  9
$SKPOLY
 70
     0
  9
$TDCREATE
 40
2450382.6899885419
  9
$TDUPDATE
 40
2456598.6460564472
  9
$TDINDWG
 40
0.1098086227
  9
$TDUSRTIMER
 40
0.1098086227
  9
$USRTIMER
 70
     1
  9
$ANGBASE
 50
0.0
  9
$ANGDIR
 70
     0
  9
$PDMODE
 70
     0
  9
$PDSIZE
 40
0.0
  9
$PLINEWID
 40
0.0
  9
$COORDS
 70
     1
  9
$SPLFRAME
 70
     0
  9
$SPLINETYPE
 70
     6
  9
$SPLINESEGS
 70
     8
  9
$ATTDIA
 70
     0
  9
$ATTREQ
 70
     1
  9
$HANDLING
 70
     1
  9
$HANDSEED
  5
62B
  9
$SURFTAB1
 70
     6
  9
$SURFTAB2
 70
     6
  9
$SURFTYPE
 70
     6
  9
$SURFU
 70
     6
  9
$SURFV
 70
     6
  9
$UCSNAME
  2

  9
$UCSORG
 10
0.0
 20
0.0
 30
0.0
  9
$UCSXDIR
 10
1.0
 20
0.0
 30
0.0
  9
$UCSYDIR
 10
0.0
 20
1.0
 30
0.0
  9
$PUCSNAME
  2

  9
$PUCSORG
 10
0.0
 20
0.0
 30
0.0
  9
$PUCSXDIR
 10
1.0
 20
0.0
 30
0.0
  9
$PUCSYDIR
 10
0.0
 20
1.0
 30
0.0
  9
$USERI1
 70
     3
  9
$USERI2
 70
     1
  9
$USERI3
 70
     1
  9
$USERI4
 70
     0
  9
$USERI5
 70
     0
  9
$USERR1
 40
1.0
  9
$USERR2
 40
3.0
  9
$USERR3
 40
3.0
  9
$USERR4
 40
3.0
  9
$USERR5
 40
10.0
  9
$WORLDVIEW
 70
     1
  9
$SHADEDGE
 70
     3
  9
$SHADEDIF
 70
    70
  9
$TILEMODE
 70
     1
  9
$MAXACTVP
 70
    16
  9
$PLIMCHECK
 70
     0
  9
$PEXTMIN
 10
1.0000000000000000E+020
 20
1.0000000000000000E+020
 30
1.0000000000000000E+020
  9
$PEXTMAX
 10
-1.0000000000000000E+020
 20
-1.0000000000000000E+020
 30
-1.0000000000000000E+020
  9
$PLIMMIN
 10
0.0
 20
0.0
  9
$PLIMMAX
 10
12.0
 20
9.0
  9
$UNITMODE
 70
     0
  9
$VISRETAIN
 70
     0
  9
$PLINEGEN
 70
     0
  9
$PSLTSCALE
 70
     0
  0
ENDSEC
  0
SECTION
  2
TABLES
  0
TABLE
  2
VPORT
 70
     1
  0
VPORT
  2
*ACTIVE
 70
     0
 10
0.0
 20
0.0
 11
1.0
 21
1.0
 12
187.49427839065231
 22
174.91677254346851
 13
0.0
 23
0.0
 14
5.0
 24
5.0
 15
0.0
 25
0.0
 16
0.0
 26
0.0
 36
1.0
 17
0.0
 27
0.0
 37
0.0
 40
358.92027899574339
 41
1.7807262569832401
 42
50.0
 43
0.0
 44
0.0
 50
0.0
 51
0.0
 71
     0
 72
  2000
 73
     1
 74
     0
 75
     0
 76
     0
 77
     0
 78
     0
  0
ENDTAB
  0
TABLE
  2
LTYPE
 70
     4
  0
LTYPE
  2
CONTINUOUS
 70
     0
  3
Solid Line
 72
    65
 73
     0
 40
0.0
  0
LTYPE
  2
CENTER
 70
     0
  3
____ _ ____ _ ____ _ ____ _ ____ _ ____ _ ____
 72
    65
 73
     4
 40
2.0
 49
1.25
 49
-0.25
 49
0.25
 49
-0.25
  0
LTYPE
  2
HIDDEN
 70
     0
  3
_ _ _ _ _ _ _ _ _ _ _ _ _ _ _ _ _ _ _ _ _ _ _
 72
    65
 73
     2
 40
0.375
 49
0.25
 49
-0.125
  0
LTYPE
  2
PHANTOM2
 70
     0
  3
___ _ _ ___ _ _ ___ _ _ ___ _ _
 72
    65
 73
     6
 40
1.25
 49
0.625
 49
-0.125
 49
0.125
 49
-0.125
 49
0.125
 49
-0.125
  0
ENDTAB
  0
TABLE
  2
LAYER
 70
     3
  0
LAYER
  2
0
 70
     0
 62
     7
  6
CONTINUOUS
  0
LAYER
  2
1
 70
     0
 62
     1
  6
CENTER
  0
LAYER
  2
2
 70
     0
 62
     2
  6
HIDDEN
  0
ENDTAB
  0
TABLE
  2
STYLE
 70
     2
  0
STYLE
  2
STANDARD
 70
     0
 40
0.0
 41
1.0
 50
0.0
 71
     0
 42
0.2
  3
SIMPLEX
  4
BIGFONT
  0
STYLE
  2
STANDARD1
 70
     0
 40
0.0
 41
1.0
 50
0.0
 71
     0
 42
3.0
  3
txt
  4

  0
ENDTAB
  0
TABLE
  2
VIEW
 70
     0
  0
ENDTAB
  0
TABLE
  2
UCS
 70
     0
  0
ENDTAB
  0
TABLE
  2
APPID
 70
     8
  0
APPID
  2
ACAD
 70
     0
  0
APPID
  2
GENIUS_GENODEF_13
 70
     0
  0
APPID
  2
GENIUS_GENOBJ-N-FIL_13
 70
     0
  0
APPID
  2
GENIUS_GENOREF_13
 70
     0
  0
APPID
  2
GENIUS_GENREC_14
 70
     0
  0
APPID
  2
GENIUS_GENOBJ-N-REC_13
 70
     0
  0
APPID
  2
ACAD_MLEADERVER
 70
     0
  0
APPID
  2
ACAD_NAV_VCDISPLAY
 70
     0
  0
ENDTAB
  0
TABLE
  2
DIMSTYLE
 70
     1
  0
DIMSTYLE
  2
STANDARD
 70
     0
  3

  4

  5

  6

  7

 40
1.0
 41
0.18
 42
0.0625
 43
0.38
 44
0.18
 45
0.0
 46
0.0
 47
0.0
 48
0.0
140
0.18
141
0.09
142
0.0
143
25.399999999999999
144
1.0
145
0.0
146
1.0
147
0.09
 71
     0
 72
     0
 73
     1
 74
     1
 75
     0
 76
     0
 77
     0
 78
     0
170
     0
171
     2
172
     0
173
     0
174
     0
175
     0
176
     0
177
     0
178
     0
  0
ENDTAB
  0
ENDSEC
  0
SECTION
  2
BLOCKS
  0
BLOCK
  8
0
  2
$MODEL_SPACE
 70
     0
 10
0.0
 20
0.0
 30
0.0
  3
$MODEL_SPACE
  1

  0
ENDBLK
  5
19D
  8
0
  0
BLOCK
 67
     1
  8
0
  2
$PAPER_SPACE
 70
     0
 10
0.0
 20
0.0
 30
0.0
  3
$PAPER_SPACE
  1

  0
ENDBLK
  5
19B
 67
     1
  8
0
  0
ENDSEC
  0
SECTION
  2
ENTITIES
  0
ARC
  5
301
  8
0
 10
104.6946295532929
 20
123.3479840881931
 30
0.0
 40
15.255905511811021
 50
208.74939269918801
 51
259.2506073008152
  0
ARC
  5
302
  8
0
 10
94.194001013120811
 20
81.503194829142544
 30
0.0
 40
8.0708661417322833
 50
244.7493926991867
 51
7.2506073008127476
  0
ARC
  5
304
  8
0
 10
117.3342427495203
 20
84.447254637901466
 30
0.0
 40
15.255905511811021
 50
135.18907318911999
 51
187.25060730081279
  0
ARC
  5
305
  8
0
 10
100.3438688682843
 20
100.43054188278271
 30
0.0
 40
8.0708661417322833
 50
316.74939269918588
 51
79.250607300815261
  0
LINE
  5
309
  8
2
 10
179.71402732375819
 20
103.48075139772411
 30
0.0
 11
179.7140273237577
 21
87.980751397724163
 31
0.0
  0
ARC
  5
30B
  8
0
 10
174.12350205266409
 20
91.2810222305651
 30
0.0
 40
22.890525271093939
 50
341.7582357192868
 51
17.831741985035379
  0
ARC
  5
30C
  8
0
 10
202.48130348970611
 20
91.2810222305651
 30
0.0
 40
21.730525271093938
 50
162.16825801496461
 51
198.06587546394351
  0
LINE
  5
30D
  8
0
 10
178.21402732375799
 20
105.43075139772409
 30
0.0
 11
178.21402732375799
 21
86.030751397724089
 31
0.0
  0
ARC
  5
30E
  8
0
 10
174.12350205266409
 20
91.2810222305651
 30
0.0
 40
21.730525271093938
 50
341.9341245360564
 51
17.831741985035379
  0
ARC
  5
311
  8
0
 10
51.152368844771757
 20
84.447254637901466
 30
0.0
 40
15.255905511811021
 50
352.7493926991873
 51
44.810926810879948
  0
LINE
  5
312
  8
2
 10
188.2157136207112
 20
91.230751397724106
 30
0.0
 11
198.21402732375799
 21
91.230751397724134
 31
0.0
  0
ARC
  5
313
  8
0
 10
208.80523398444831
 20
78.068444783009113
 30
0.0
 40
15.44473304982343
 50
155.2188249958734
 51
195.3982606187007
  0
LINE
  5
314
  8
0
 10
181.98530565165501
 20
73.963928264604675
 30
0.0
 11
194.02751143668391
 21
73.963928264604704
 31
0.0
  0
ARC
  5
315
  8
0
 10
74.29261058117126
 20
81.503194829142544
 30
0.0
 40
8.0708661417322833
 50
172.74939269918721
 51
295.25060730081327
  0
ARC
  5
316
  8
0
 10
84.243305797146036
 20
60.405281650458477
 30
0.0
 40
15.255905511811021
 50
64.749392699186672
 51
115.2506073008133
  0
ARC
  5
318
  8
0
 10
208.80523398444831
 20
78.068444783009113
 30
0.0
 40
14.284733049823419
 50
154.9547208826898
 51
195.413464796764
  0
LINE
  5
319
  8
0
 10
195.64341467977559
 20
76.952568940413556
 30
0.0
 11
194.58171952746
 21
77.132698484257872
 31
0.0
  0
ARC
  5
31A
  8
0
 10
194.02751143668391
 20
75.763928264604971
 30
0.0
 40
1.8
 50
270.0
 51
344.99999999999892
  0
LINE
  5
31B
  8
0
 10
196.04274168967351
 20
76.330204008430456
 30
0.0
 11
195.76617792400421
 21
75.298053983420431
 31
0.0
  0
ARC
  5
31C
  8
0
 10
195.55977877652899
 20
76.459613530981727
 30
0.0
 40
0.5
 50
344.99999999999892
 51
80.370766163352641
1001
GENIUS_GENOBJ-N-FIL_13
1002
{
1000
OWNER
1000
GEN
1002
}
1001
GENIUS_GENODEF_13
1002
{
1000
HIER
1070
     0
1002
}
1002
{
1000
MANEDIT
1070
     0
1002
}
1002
{
1000
NOSEL
1070
     0
1002
}
1002
{
1000
BEHIND
1070
     0
1002
}
1002
{
1000
OTHER
1070
     0
1002
}
1002
{
1000
REACTOR
1002
}
  0
LINE
  5
31D
  8
0
 10
197.21402732375799
 20
86.225887414936906
 30
0.0
 11
196.44886339761021
 21
86.225887414936906
 31
0.0
  0
ARC
  5
320
  8
0
 10
169.727144075594
 20
80.755424471804474
 30
0.0
 40
12.673865615977441
 50
330.75467636284787
 51
17.384537585054971
  0
ARC
  5
321
  8
0
 10
252.56121235485219
 20
96.065627406094464
 30
0.0
 40
75.021348018754722
 50
187.6869386119705
 51
196.2729676695721
  0
LINE
  5
325
  8
2
 10
178.21402732375731
 20
86.480751397722344
 30
0.0
 11
179.7140273237577
 21
87.980751397724163
 31
0.0
  0
LINE
  5
326
  8
2
 10
188.2157136207112
 20
100.23075139772411
 30
0.0
 11
198.2140273237581
 21
100.23075139772411
 31
0.0
  0
LINE
  5
327
  8
2
 10
188.2157136207112
 20
99.230751397724106
 30
0.0
 11
198.2140273237581
 21
99.230751397724063
 31
0.0
  0
LINE
  5
328
  8
2
 10
188.2157136207112
 20
92.230751397724106
 30
0.0
 11
198.21402732375799
 21
92.230751397724134
 31
0.0
  0
LINE
  5
329
  8
1
 10
203.02882368441951
 20
95.730751397724134
 30
0.0
 11
173.21402732375799
 21
95.730751397724134
 31
0.0
1001
GENIUS_GENOREF_13
1005
0
  0
ARC
  5
32A
  8
0
 10
231.2649103561067
 20
129.55732749837179
 30
0.0
 40
39.035924703397811
 50
193.06840459162109
 51
202.67549633097289
  0
ARC
  5
32E
  8
0
 10
63.791982040998697
 20
123.3479840881931
 30
0.0
 40
15.255905511811021
 50
280.74939269918468
 51
331.2506073008156
  0
ARC
  5
334
  8
0
 10
84.243305797146036
 20
112.1282856787972
 30
0.0
 40
8.0708661417322833
 50
28.749392699188029
 51
151.25060730081191
  0
ARC
  5
335
  8
0
 10
185.7640403683603
 20
111.05979796127571
 30
0.0
 40
11.249986955397761
 50
338.21764012530002
 51
16.730179753242808
  0
ARC
  5
336
  8
0
 10
185.7640403683603
 20
111.05979796127571
 30
0.0
 40
10.089986955397761
 50
338.21764012530002
 51
19.986429503707608
  0
ARC
  5
337
  8
0
 10
68.142742726007725
 20
100.43054188278271
 30
0.0
 40
8.0708661417322833
 50
100.7493926991847
 51
223.2506073008141
  0
ARC
  5
338
  8
0
 10
207.994036289153
 20
102.17637249667391
 30
0.0
 40
12.689268810468
 50
158.2176420072762
 51
197.8317778060246
  0
ARC
  5
339
  8
0
 10
207.994036289153
 20
102.17637249667391
 30
0.0
 40
13.849268810468001
 50
158.2176420072762
 51
197.8317778060246
  0
LINE
  5
33A
  8
0
 10
198.2140273237579
 20
87.225887414936935
 30
0.0
 11
198.2140273237581
 21
104.2258480611451
 31
0.0
  0
LINE
  5
33B
  8
0
 10
197.2140273237581
 20
105.2258480611451
 30
0.0
 11
195.67664039042461
 21
105.2258480611451
 31
0.0
  0
LINE
  5
33E
  8
0
 10
194.92538708483909
 20
119.6625488971404
 30
0.0
 11
196.537826612755
 21
114.2982754518123
 31
0.0
  0
ARC
  5
33F
  8
0
 10
190.8407651740099
 20
111.05979796127571
 30
0.0
 40
10.089986955397761
 50
160.0135704962924
 51
201.78235987469989
  0
ARC
  5
340
  8
0
 10
250.96619050646339
 20
95.503769570838358
 30
0.0
 40
73.426304659531283
 50
160.738564859539
 51
172.23001540605409
  0
ARC
  5
343
  8
0
 10
168.61076925321731
 20
102.17637249667391
 30
0.0
 40
13.849268810468001
 50
342.1682221939754
 51
21.78235799272375
  0
LINE
  5
344
  8
2
 10
178.21402732375799
 20
104.9807513977232
 30
0.0
 11
179.71402732375839
 21
103.48075139772141
 31
0.0
  0
ARC
  5
345
  8
0
 10
162.98728872987451
 20
120.78416492535329
 30
0.0
 40
19.413489672856318
 50
341.13971774621461
 51
359.3814080170842
  0
LINE
  5
347
  8
0
 10
183.06609009886199
 20
120.73075139772421
 30
0.0
 11
193.4888805865948
 21
120.73075139772421
 31
0.0
  0
ARC
  5
34E
  8
0
 10
193.4888805865948
 20
119.23075139772421
 30
0.0
 40
1.5
 50
16.7301797532431
 51
90.000000000000171
  0
ARC
  5
34F
  8
0
 10
183.06609009886199
 20
119.23075139772421
 30
0.0
 40
1.5
 50
90.0
 51
160.7385648595386
  0
ARC
  5
350
  8
0
 10
181.98530565165501
 20
75.463928264604647
 30
0.0
 40
1.5
 50
196.2729676695723
 51
270.0
  0
ARC
  5
354
  8
0
 10
197.2140273237581
 20
104.2258480611451
 30
0.0
 40
1.0
 50
359.9999999999996
 51
90.000000000001222
  0
ARC
  5
355
  8
0
 10
197.2140273237579
 20
87.225887414936935
 30
0.0
 40
1.0
 50
270.00000000000449
 51
359.9999999999996
  0
LINE
  5
356
  8
2
 10
188.2140273237579
 20
87.980751397724134
 30
0.0
 11
188.2140273237581
 21
103.48075139772411
 31
0.0
  0
LINE
  5
359
  8
2
 10
188.2140273237581
 20
103.48075139772411
 30
0.0
 11
179.71402732375819
 21
103.48075139772411
 31
0.0
1001
GENIUS_GENOREF_13
1005
0
  0
LINE
  5
35A
  8
2
 10
188.2140273237579
 20
87.980751397724134
 30
0.0
 11
179.7140273237577
 21
87.980751397724163
 31
0.0
1001
GENIUS_GENOREF_13
1005
0
  0
LINE
  5
35E
  8
1
 10
84.243305797146036
 20
125.73075139772411
 30
0.0
 11
84.243305797146036
 21
65.730751397724134
 31
0.0
  0
LINE
  5
35F
  8
1
 10
114.24330579714599
 20
95.730751397724134
 30
0.0
 11
54.243305797146029
 21
95.730751397724134
 31
0.0
  0
CIRCLE
  5
3FF
  8
0
 10
84.243305797146036
 20
95.730751397724134
 30
0.0
 40
9.6999999999988802
  0
CIRCLE
  5
400
  8
0
 10
84.243305797146036
 20
95.730751397724134
 30
0.0
 40
7.7499999999972706
  0
LINE
  5
494
  8
0
 10
79.743305797146036
 20
91.230751397724134
 30
0.0
 11
88.743305797146036
 21
91.230751397724134
 31
0.0
1001
GENIUS_GENREC_14
1002
{
1000
PYDIR
1011
79.743305797146036
1021
0.0
1031
0.0
1021
100.23075139772411
1031
0.0
1002
}
1002
{
1000
PXDIR
1011
88.743305797146036
1021
0.0
1031
0.0
1021
91.230751397724134
1031
0.0
1002
}
1002
{
1000
PORI
1011
79.743305797146036
1021
0.0
1031
0.0
1021
91.230751397724134
1031
0.0
1002
}
1002
{
1000
PINS
1011
84.243305797146036
1021
0.0
1031
0.0
1021
95.730751397724134
1031
0.0
1002
}
1002
{
1000
HVAL
1000
9
1002
}
1002
{
1000
H
1070
     4
1002
}
1002
{
1000
WVAL
1000
9
1002
}
1002
{
1000
W
1070
     2
1002
}
1002
{
1000
C
1070
     4
1002
}
1001
GENIUS_GENOBJ-N-REC_13
1002
{
1000
OWNER
1000
GEN
1002
}
1001
GENIUS_GENODEF_13
1002
{
1000
HIER
1070
     0
1002
}
1002
{
1000
MANEDIT
1070
     0
1002
}
1002
{
1000
NOSEL
1070
     0
1002
}
1002
{
1000
BEHIND
1070
     0
1002
}
1002
{
1000
OTHER
1070
     0
1002
}
1002
{
1000
REACTOR
1002
}
  0
LINE
  5
495
  8
0
 10
88.743305797146036
 20
91.230751397724134
 30
0.0
 11
88.743305797146036
 21
100.23075139772411
 31
0.0
1001
GENIUS_GENREC_14
1002
{
1000
PYDIR
1011
79.743305797146036
1021
0.0
1031
0.0
1021
100.23075139772411
1031
0.0
1002
}
1002
{
1000
PXDIR
1011
88.743305797146036
1021
0.0
1031
0.0
1021
91.230751397724134
1031
0.0
1002
}
1002
{
1000
PORI
1011
79.743305797146036
1021
0.0
1031
0.0
1021
91.230751397724134
1031
0.0
1002
}
1002
{
1000
PINS
1011
84.243305797146036
1021
0.0
1031
0.0
1021
95.730751397724134
1031
0.0
1002
}
1002
{
1000
HVAL
1000
9
1002
}
1002
{
1000
H
1070
     4
1002
}
1002
{
1000
WVAL
1000
9
1002
}
1002
{
1000
W
1070
     2
1002
}
1002
{
1000
C
1070
     4
1002
}
1001
GENIUS_GENOBJ-N-REC_13
1002
{
1000
OWNER
1000
GEN
1002
}
1001
GENIUS_GENODEF_13
1002
{
1000
HIER
1070
     0
1002
}
1002
{
1000
MANEDIT
1070
     0
1002
}
1002
{
1000
NOSEL
1070
     0
1002
}
1002
{
1000
BEHIND
1070
     0
1002
}
1002
{
1000
OTHER
1070
     0
1002
}
1002
{
1000
REACTOR
1002
}
  0
LINE
  5
496
  8
0
 10
88.743305797146036
 20
100.23075139772411
 30
0.0
 11
79.743305797146036
 21
100.23075139772411
 31
0.0
1001
GENIUS_GENREC_14
1002
{
1000
PYDIR
1011
79.743305797146036
1021
0.0
1031
0.0
1021
100.23075139772411
1031
0.0
1002
}
1002
{
1000
PXDIR
1011
88.743305797146036
1021
0.0
1031
0.0
1021
91.230751397724134
1031
0.0
1002
}
1002
{
1000
PORI
1011
79.743305797146036
1021
0.0
1031
0.0
1021
91.230751397724134
1031
0.0
1002
}
1002
{
1000
PINS
1011
84.243305797146036
1021
0.0
1031
0.0
1021
95.730751397724134
1031
0.0
1002
}
1002
{
1000
HVAL
1000
9
1002
}
1002
{
1000
H
1070
     4
1002
}
1002
{
1000
WVAL
1000
9
1002
}
1002
{
1000
W
1070
     2
1002
}
1002
{
1000
C
1070
     4
1002
}
1001
GENIUS_GENOBJ-N-REC_13
1002
{
1000
OWNER
1000
GEN
1002
}
1001
GENIUS_GENODEF_13
1002
{
1000
HIER
1070
     0
1002
}
1002
{
1000
MANEDIT
1070
     0
1002
}
1002
{
1000
NOSEL
1070
     0
1002
}
1002
{
1000
BEHIND
1070
     0
1002
}
1002
{
1000
OTHER
1070
     0
1002
}
1002
{
1000
REACTOR
1002
}
  0
LINE
  5
497
  8
0
 10
79.743305797146036
 20
100.23075139772411
 30
0.0
 11
79.743305797146036
 21
91.230751397724134
 31
0.0
1001
GENIUS_GENREC_14
1002
{
1000
PYDIR
1011
79.743305797146036
1021
0.0
1031
0.0
1021
100.23075139772411
1031
0.0
1002
}
1002
{
1000
PXDIR
1011
88.743305797146036
1021
0.0
1031
0.0
1021
91.230751397724134
1031
0.0
1002
}
1002
{
1000
PORI
1011
79.743305797146036
1021
0.0
1031
0.0
1021
91.230751397724134
1031
0.0
1002
}
1002
{
1000
PINS
1011
84.243305797146036
1021
0.0
1031
0.0
1021
95.730751397724134
1031
0.0
1002
}
1002
{
1000
HVAL
1000
9
1002
}
1002
{
1000
H
1070
     4
1002
}
1002
{
1000
WVAL
1000
9
1002
}
1002
{
1000
W
1070
     2
1002
}
1002
{
1000
C
1070
     4
1002
}
1001
GENIUS_GENOBJ-N-REC_13
1002
{
1000
OWNER
1000
GEN
1002
}
1001
GENIUS_GENODEF_13
1002
{
1000
HIER
1070
     0
1002
}
1002
{
1000
MANEDIT
1070
     0
1002
}
1002
{
1000
NOSEL
1070
     0
1002
}
1002
{
1000
BEHIND
1070
     0
1002
}
1002
{
1000
OTHER
1070
     0
1002
}
1002
{
1000
REACTOR
1002
}
  0
LINE
  5
498
  8
0
 10
80.743305797146036
 20
92.230751397724134
 30
0.0
 11
87.743305797146036
 21
92.230751397724134
 31
0.0
1001
GENIUS_GENREC_14
1002
{
1000
PYDIR
1011
80.743305797146036
1021
0.0
1031
0.0
1021
99.230751397724134
1031
0.0
1002
}
1002
{
1000
PXDIR
1011
87.743305797146036
1021
0.0
1031
0.0
1021
92.230751397724134
1031
0.0
1002
}
1002
{
1000
PORI
1011
80.743305797146036
1021
0.0
1031
0.0
1021
92.230751397724134
1031
0.0
1002
}
1002
{
1000
PINS
1011
84.243305797146036
1021
0.0
1031
0.0
1021
95.730751397724134
1031
0.0
1002
}
1002
{
1000
HVAL
1000
7
1002
}
1002
{
1000
H
1070
     4
1002
}
1002
{
1000
WVAL
1000
7
1002
}
1002
{
1000
W
1070
     2
1002
}
1002
{
1000
C
1070
     4
1002
}
1001
GENIUS_GENOBJ-N-REC_13
1002
{
1000
OWNER
1000
GEN
1002
}
1001
GENIUS_GENODEF_13
1002
{
1000
HIER
1070
     0
1002
}
1002
{
1000
MANEDIT
1070
     0
1002
}
1002
{
1000
NOSEL
1070
     0
1002
}
1002
{
1000
BEHIND
1070
     0
1002
}
1002
{
1000
OTHER
1070
     0
1002
}
1002
{
1000
REACTOR
1002
}
  0
LINE
  5
499
  8
0
 10
87.743305797146036
 20
92.230751397724134
 30
0.0
 11
87.743305797146036
 21
99.230751397724134
 31
0.0
1001
GENIUS_GENREC_14
1002
{
1000
PYDIR
1011
80.743305797146036
1021
0.0
1031
0.0
1021
99.230751397724134
1031
0.0
1002
}
1002
{
1000
PXDIR
1011
87.743305797146036
1021
0.0
1031
0.0
1021
92.230751397724134
1031
0.0
1002
}
1002
{
1000
PORI
1011
80.743305797146036
1021
0.0
1031
0.0
1021
92.230751397724134
1031
0.0
1002
}
1002
{
1000
PINS
1011
84.243305797146036
1021
0.0
1031
0.0
1021
95.730751397724134
1031
0.0
1002
}
1002
{
1000
HVAL
1000
7
1002
}
1002
{
1000
H
1070
     4
1002
}
1002
{
1000
WVAL
1000
7
1002
}
1002
{
1000
W
1070
     2
1002
}
1002
{
1000
C
1070
     4
1002
}
1001
GENIUS_GENOBJ-N-REC_13
1002
{
1000
OWNER
1000
GEN
1002
}
1001
GENIUS_GENODEF_13
1002
{
1000
HIER
1070
     0
1002
}
1002
{
1000
MANEDIT
1070
     0
1002
}
1002
{
1000
NOSEL
1070
     0
1002
}
1002
{
1000
BEHIND
1070
     0
1002
}
1002
{
1000
OTHER
1070
     0
1002
}
1002
{
1000
REACTOR
1002
}
  0
LINE
  5
49A
  8
0
 10
87.743305797146036
 20
99.230751397724134
 30
0.0
 11
80.743305797146036
 21
99.230751397724134
 31
0.0
1001
GENIUS_GENREC_14
1002
{
1000
PYDIR
1011
80.743305797146036
1021
0.0
1031
0.0
1021
99.230751397724134
1031
0.0
1002
}
1002
{
1000
PXDIR
1011
87.743305797146036
1021
0.0
1031
0.0
1021
92.230751397724134
1031
0.0
1002
}
1002
{
1000
PORI
1011
80.743305797146036
1021
0.0
1031
0.0
1021
92.230751397724134
1031
0.0
1002
}
1002
{
1000
PINS
1011
84.243305797146036
1021
0.0
1031
0.0
1021
95.730751397724134
1031
0.0
1002
}
1002
{
1000
HVAL
1000
7
1002
}
1002
{
1000
H
1070
     4
1002
}
1002
{
1000
WVAL
1000
7
1002
}
1002
{
1000
W
1070
     2
1002
}
1002
{
1000
C
1070
     4
1002
}
1001
GENIUS_GENOBJ-N-REC_13
1002
{
1000
OWNER
1000
GEN
1002
}
1001
GENIUS_GENODEF_13
1002
{
1000
HIER
1070
     0
1002
}
1002
{
1000
MANEDIT
1070
     0
1002
}
1002
{
1000
NOSEL
1070
     0
1002
}
1002
{
1000
BEHIND
1070
     0
1002
}
1002
{
1000
OTHER
1070
     0
1002
}
1002
{
1000
REACTOR
1002
}
  0
LINE
  5
49B
  8
0
 10
80.743305797146036
 20
99.230751397724134
 30
0.0
 11
80.743305797146036
 21
92.230751397724134
 31
0.0
1001
GENIUS_GENREC_14
1002
{
1000
PYDIR
1011
80.743305797146036
1021
0.0
1031
0.0
1021
99.230751397724134
1031
0.0
1002
}
1002
{
1000
PXDIR
1011
87.743305797146036
1021
0.0
1031
0.0
1021
92.230751397724134
1031
0.0
1002
}
1002
{
1000
PORI
1011
80.743305797146036
1021
0.0
1031
0.0
1021
92.230751397724134
1031
0.0
1002
}
1002
{
1000
PINS
1011
84.243305797146036
1021
0.0
1031
0.0
1021
95.730751397724134
1031
0.0
1002
}
1002
{
1000
HVAL
1000
7
1002
}
1002
{
1000
H
1070
     4
1002
}
1002
{
1000
WVAL
1000
7
1002
}
1002
{
1000
W
1070
     2
1002
}
1002
{
1000
C
1070
     4
1002
}
1001
GENIUS_GENOBJ-N-REC_13
1002
{
1000
OWNER
1000
GEN
1002
}
1001
GENIUS_GENODEF_13
1002
{
1000
HIER
1070
     0
1002
}
1002
{
1000
MANEDIT
1070
     0
1002
}
1002
{
1000
NOSEL
1070
     0
1002
}
1002
{
1000
BEHIND
1070
     0
1002
}
1002
{
1000
OTHER
1070
     0
1002
}
1002
{
1000
REACTOR
1002
}
  0
LINE
  5
4AF
  8
0
 10
183.34860923365059
 20
116.0102066474483
 30
0.0
 11
193.05971819312961
 21
116.0102066474483
 31
0.0
  0
LINE
  5
4B0
  8
0
 10
182.6861469887555
 20
108.3597834897179
 30
0.0
 11
193.9186585536147
 21
108.3597834897179
 31
0.0
  0
LINE
  5
4B5
  8
0
 10
183.7905125247662
 20
82.521814678586367
 30
0.0
 11
192.45618279782141
 21
82.521814678586367
 31
0.0
  0
LINE
  5
4B6
  8
0
 10
182.57718764665029
 20
94.900459376114824
 30
0.0
 11
194.02761789571991
 21
94.900459376114824
 31
0.0
  0
TEXT
  5
59D
  8
0
 62
     3
 10
0.0
 20
0.0
 30
0.0
 40
10.0
  1
FK50S7-PA
  7
STANDARD1
  0
ENDSEC
  0
EOF
