  0
SECTION
  2
HEADER
  9
$ACADVER
  1
AC1009
  9
$INSBASE
 10
0.0
 20
0.0
 30
0.0
  9
$EXTMIN
 10
-0.0005
 20
-2.960436562073669
 30
0.0
  9
$EXTMAX
 10
309.99999999999989
 20
244.9999999999998
 30
0.0
  9
$LIMMIN
 10
0.0
 20
0.0
  9
$LIMMAX
 10
375.0
 20
270.0
  9
$ORTHOMODE
 70
     0
  9
$REGENMODE
 70
     1
  9
$FILLMODE
 70
     1
  9
$QTEXTMODE
 70
     0
  9
$MIRRTEXT
 70
     0
  9
$DRAGMODE
 70
     2
  9
$LTSCALE
 40
10.0
  9
$OSMODE
 70
    55
  9
$ATTMODE
 70
     1
  9
$TEXTSIZE
 40
4.000000000000048
  9
$TRACEWID
 40
0.05
  9
$TEXTSTYLE
  7
STANDARD
  9
$CLAYER
  8
0
  9
$CELTYPE
  6
BYLAYER
  9
$CECOLOR
 62
   256
  9
$DIMSCALE
 40
1.0
  9
$DIMASZ
 40
3.0
  9
$DIMEXO
 40
2.0
  9
$DIMDLI
 40
0.38
  9
$DIMRND
 40
0.0
  9
$DIMDLE
 40
0.0
  9
$DIMEXE
 40
2.0
  9
$DIMTP
 40
0.0
  9
$DIMTM
 40
0.0
  9
$DIMTXT
 40
3.0
  9
$DIMCEN
 40
0.0
  9
$DIMTSZ
 40
0.0
  9
$DIMTOL
 70
     0
  9
$DIMLIM
 70
     0
  9
$DIMTIH
 70
     0
  9
$DIMTOH
 70
     0
  9
$DIMSE1
 70
     0
  9
$DIMSE2
 70
     0
  9
$DIMTAD
 70
     1
  9
$DIMZIN
 70
     0
  9
$DIMBLK
  1

  9
$DIMASO
 70
     1
  9
$DIMSHO
 70
     0
  9
$DIMPOST
  1

  9
$DIMAPOST
  1

  9
$DIMALT
 70
     0
  9
$DIMALTD
 70
     2
  9
$DIMALTF
 40
25.399999999999999
  9
$DIMLFAC
 40
1.0
  9
$DIMTOFL
 70
     1
  9
$DIMTVP
 40
1.6000000000000001
  9
$DIMTIX
 70
     1
  9
$DIMSOXD
 70
     0
  9
$DIMSAH
 70
     0
  9
$DIMBLK1
  1

  9
$DIMBLK2
  1

  9
$DIMSTYLE
  2
STANDARD
  9
$DIMCLRD
 70
     0
  9
$DIMCLRE
 70
     0
  9
$DIMCLRT
 70
     0
  9
$DIMTFAC
 40
1.0
  9
$DIMGAP
 40
0.09
  9
$LUNITS
 70
     2
  9
$LUPREC
 70
     4
  9
$SKETCHINC
 40
0.1
  9
$FILLETRAD
 40
1.0
  9
$AUNITS
 70
     0
  9
$AUPREC
 70
     4
  9
$MENU
  1
E:\r13\win\SUPPORT\ACAD
  9
$ELEVATION
 40
0.0
  9
$PELEVATION
 40
0.0
  9
$THICKNESS
 40
0.0
  9
$LIMCHECK
 70
     0
  9
$BLIPMODE
 70
     0
  9
$CHAMFERA
 40
0.0
  9
$CHAMFERB
 40
0.0
  9
$SKPOLY
 70
     0
  9
$TDCREATE
 40
2449839.7854282409
  9
$TDUPDATE
 40
2456598.6459912732
  9
$TDINDWG
 40
0.002110162
  9
$TDUSRTIMER
 40
0.002110162
  9
$USRTIMER
 70
     1
  9
$ANGBASE
 50
0.0
  9
$ANGDIR
 70
     0
  9
$PDMODE
 70
     0
  9
$PDSIZE
 40
0.0
  9
$PLINEWID
 40
0.0
  9
$COORDS
 70
     1
  9
$SPLFRAME
 70
     0
  9
$SPLINETYPE
 70
     6
  9
$SPLINESEGS
 70
     8
  9
$ATTDIA
 70
     0
  9
$ATTREQ
 70
     1
  9
$HANDLING
 70
     1
  9
$HANDSEED
  5
33C
  9
$SURFTAB1
 70
     6
  9
$SURFTAB2
 70
     6
  9
$SURFTYPE
 70
     6
  9
$SURFU
 70
     6
  9
$SURFV
 70
     6
  9
$UCSNAME
  2

  9
$UCSORG
 10
0.0
 20
0.0
 30
0.0
  9
$UCSXDIR
 10
1.0
 20
0.0
 30
0.0
  9
$UCSYDIR
 10
0.0
 20
1.0
 30
0.0
  9
$PUCSNAME
  2

  9
$PUCSORG
 10
0.0
 20
0.0
 30
0.0
  9
$PUCSXDIR
 10
1.0
 20
0.0
 30
0.0
  9
$PUCSYDIR
 10
0.0
 20
1.0
 30
0.0
  9
$USERI1
 70
     0
  9
$USERI2
 70
     1
  9
$USERI3
 70
     1
  9
$USERI4
 70
     0
  9
$USERI5
 70
     0
  9
$USERR1
 40
0.0
  9
$USERR2
 40
0.0
  9
$USERR3
 40
0.0
  9
$USERR4
 40
0.0
  9
$USERR5
 40
0.0
  9
$WORLDVIEW
 70
     1
  9
$SHADEDGE
 70
     3
  9
$SHADEDIF
 70
    70
  9
$TILEMODE
 70
     1
  9
$MAXACTVP
 70
    16
  9
$PLIMCHECK
 70
     0
  9
$PEXTMIN
 10
1.0000000000000000E+020
 20
1.0000000000000000E+020
 30
1.0000000000000000E+020
  9
$PEXTMAX
 10
-1.0000000000000000E+020
 20
-1.0000000000000000E+020
 30
-1.0000000000000000E+020
  9
$PLIMMIN
 10
0.0
 20
0.0
  9
$PLIMMAX
 10
12.0
 20
9.0
  9
$UNITMODE
 70
     0
  9
$VISRETAIN
 70
     0
  9
$PLINEGEN
 70
     0
  9
$PSLTSCALE
 70
     0
  0
ENDSEC
  0
SECTION
  2
TABLES
  0
TABLE
  2
VPORT
 70
     1
  0
VPORT
  2
*ACTIVE
 70
     0
 10
0.0
 20
0.0
 11
1.0
 21
1.0
 12
187.49402838302359
 22
174.91659646341759
 13
0.0
 23
0.0
 14
10.0
 24
10.0
 15
10.0
 25
10.0
 16
0.0
 26
0.0
 36
1.0
 17
0.0
 27
0.0
 37
0.0
 40
358.92094366292662
 41
1.7807262569832401
 42
50.0
 43
0.0
 44
0.0
 50
0.0
 51
0.0
 71
     0
 72
   500
 73
     1
 74
     0
 75
     0
 76
     0
 77
     0
 78
     2
  0
ENDTAB
  0
TABLE
  2
LTYPE
 70
     4
  0
LTYPE
  2
CONTINUOUS
 70
     0
  3
Solid Line
 72
    65
 73
     0
 40
0.0
  0
LTYPE
  2
CENTER
 70
     0
  3
____ _ ____ _ ____ _ ____ _ ____ _ ____ _ ____
 72
    65
 73
     4
 40
2.0
 49
1.25
 49
-0.25
 49
0.25
 49
-0.25
  0
LTYPE
  2
HIDDEN
 70
     0
  3
_ _ _ _ _ _ _ _ _ _ _ _ _ _ _ _ _ _ _ _ _ _ _
 72
    65
 73
     2
 40
0.375
 49
0.25
 49
-0.125
  0
LTYPE
  2
PHANTOM2
 70
     0
  3
___ _ _ ___ _ _ ___ _ _ ___ _ _
 72
    65
 73
     6
 40
1.25
 49
0.625
 49
-0.125
 49
0.125
 49
-0.125
 49
0.125
 49
-0.125
  0
ENDTAB
  0
TABLE
  2
LAYER
 70
     4
  0
LAYER
  2
0
 70
     0
 62
     7
  6
CONTINUOUS
  0
LAYER
  2
1
 70
     0
 62
     1
  6
CENTER
  0
LAYER
  2
2
 70
     0
 62
     2
  6
HIDDEN
  0
LAYER
  2
ITTEN
 70
     0
 62
     1
  6
CENTER
  0
ENDTAB
  0
TABLE
  2
STYLE
 70
     2
  0
STYLE
  2
STANDARD
 70
     0
 40
0.0
 41
1.0
 50
0.0
 71
     0
 42
4.000000000000048
  3
TXT
  4
BIGFONT
  0
STYLE
  2
STANDARD1
 70
     0
 40
0.0
 41
1.0
 50
0.0
 71
     0
 42
3.0
  3
txt
  4

  0
ENDTAB
  0
TABLE
  2
VIEW
 70
     1
  0
VIEW
  2
ALL
 70
     0
 40
270.0
 10
220.99159663865549
 20
135.0
 41
0.0
 11
0.0
 21
0.0
 31
1.0
 12
0.0
 22
0.0
 32
0.0
 42
0.0
 43
0.0
 44
0.0
 50
0.0
 71
     0
  0
ENDTAB
  0
TABLE
  2
UCS
 70
     0
  0
ENDTAB
  0
TABLE
  2
APPID
 70
     3
  0
APPID
  2
ACAD
 70
     0
  0
APPID
  2
ACAD_MLEADERVER
 70
     0
  0
APPID
  2
ACAD_NAV_VCDISPLAY
 70
     0
  0
ENDTAB
  0
TABLE
  2
DIMSTYLE
 70
     1
  0
DIMSTYLE
  2
STANDARD
 70
     0
  3

  4

  5

  6

  7

 40
1.0
 41
0.18
 42
0.0625
 43
0.38
 44
0.18
 45
0.0
 46
0.0
 47
0.0
 48
0.0
140
0.18
141
0.09
142
0.0
143
25.399999999999999
144
1.0
145
0.0
146
1.0
147
0.09
 71
     0
 72
     0
 73
     1
 74
     1
 75
     0
 76
     0
 77
     0
 78
     0
170
     0
171
     2
172
     0
173
     0
174
     0
175
     0
176
     0
177
     0
178
     0
  0
ENDTAB
  0
ENDSEC
  0
SECTION
  2
BLOCKS
  0
BLOCK
  8
0
  2
$MODEL_SPACE
 70
     0
 10
0.0
 20
0.0
 30
0.0
  3
$MODEL_SPACE
  1

  0
ENDBLK
  5
151
  8
0
  0
BLOCK
 67
     1
  8
0
  2
$PAPER_SPACE
 70
     0
 10
0.0
 20
0.0
 30
0.0
  3
$PAPER_SPACE
  1

  0
ENDBLK
  5
14F
 67
     1
  8
0
  0
BLOCK
  8
0
  2
BATU
 70
     0
 10
0.0
 20
0.0
 30
0.0
  3
BATU
  1

  0
LINE
  5
15C
  8
ITTEN
 10
0.5
 20
0.0
 30
0.0
 11
-0.5
 21
0.0
 31
0.0
  0
LINE
  5
15D
  8
ITTEN
 10
0.0
 20
0.5
 30
0.0
 11
0.0
 21
-0.5
 31
0.0
  0
ENDBLK
  5
15F
  8
0
  0
ENDSEC
  0
SECTION
  2
ENTITIES
  0
ARC
  5
35
  8
0
 10
72.113753640536785
 20
160.2605439265846
 30
0.0
 40
14.999999999999851
 50
298.24970027720389
 51
349.75029972279918
  0
ARC
  5
36
  8
0
 10
110.6515982906626
 20
172.7822487037752
 30
0.0
 40
14.999999999999851
 50
226.24970027720391
 51
277.75029972279913
  0
ARC
  5
37
  8
0
 10
134.46929613760429
 20
140.0000000000006
 30
0.0
 40
14.999999999999851
 50
154.24970027720391
 51
205.7502997227991
  0
ARC
  5
38
  8
0
 10
110.6515982906638
 20
107.2177512962251
 30
0.0
 40
14.999999999999851
 50
82.249700277203857
 51
133.7502997227991
  0
ARC
  5
39
  8
0
 10
72.113753640537539
 20
119.7394560734143
 30
0.0
 40
14.999999999999851
 50
10.249700277203861
 51
61.75029972279917
  0
ARC
  5
3A
  8
0
 10
83.000000000000057
 20
140.0
 30
0.0
 40
8.0
 50
118.2497002772038
 51
241.7502997227991
  0
ARC
  5
3B
  8
0
 10
94.746711095626608
 20
123.83203922298151
 30
0.0
 40
8.0
 50
190.2497002772036
 51
313.75029972279918
  0
ARC
  5
3C
  8
0
 10
113.75328890437579
 20
130.0076507110274
 30
0.0
 40
8.0
 50
262.24970027720411
 51
25.75029972279907
  0
ARC
  5
3D
  8
0
 10
113.75328890437591
 20
149.9923492889726
 30
0.0
 40
8.0
 50
334.24970027720371
 51
97.750299722799085
  0
ARC
  5
3E
  8
0
 10
94.746711095626637
 20
156.16796077701849
 30
0.0
 40
8.0
 50
46.249700277203651
 51
169.75029972279901
  0
CIRCLE
  5
3F
  8
0
 10
100.00000000000099
 20
140.0
 30
0.0
 40
7.0
  0
LINE
  5
40
  8
0
 10
96.999999999999773
 20
142.9999999999994
 30
0.0
 11
103.0000000000004
 21
142.9999999999994
 31
0.0
  0
LINE
  5
41
  8
0
 10
102.9999999999993
 20
143.00000000000011
 30
0.0
 11
102.9999999999993
 21
136.99999999999949
 31
0.0
  0
LINE
  5
42
  8
0
 10
103.0
 20
137.00000000000051
 30
0.0
 11
96.999999999999446
 21
137.00000000000051
 31
0.0
  0
LINE
  5
43
  8
0
 10
97.000000000000426
 20
136.9999999999998
 30
0.0
 11
97.000000000000426
 21
143.00000000000051
 31
0.0
  0
LINE
  5
44
  8
0
 10
96.000000000000796
 20
135.99999999999949
 30
0.0
 11
104.00000000000119
 21
135.99999999999949
 31
0.0
  0
LINE
  5
45
  8
0
 10
104.00000000000119
 20
135.99999999999949
 30
0.0
 11
104.00000000000119
 21
144.00000000000051
 31
0.0
  0
LINE
  5
46
  8
0
 10
104.00000000000119
 20
144.00000000000051
 30
0.0
 11
96.000000000000796
 21
144.00000000000051
 31
0.0
  0
LINE
  5
47
  8
0
 10
96.000000000000796
 20
144.00000000000051
 30
0.0
 11
96.000000000000796
 21
135.99999999999949
 31
0.0
  0
LINE
  5
48
  8
0
 10
182.0
 20
133.0
 30
0.0
 11
182.0
 21
146.99999999999989
 31
0.0
  0
ARC
  5
49
  8
0
 10
186.52106354224591
 20
116.0
 30
0.0
 40
0.9999999999994031
 50
198.1610054840159
 51
270.0
  0
ARC
  5
4A
  8
0
 10
186.52106354224591
 20
163.99999999999989
 30
0.0
 40
0.9999999999994031
 50
89.999999999999986
 51
161.8389945159841
  0
ARC
  5
4B
  8
0
 10
259.68526243760789
 20
139.99999999999989
 30
0.0
 40
78.0
 50
161.8389945159845
 51
174.85114382662181
  0
ARC
  5
4C
  8
0
 10
259.68526243760789
 20
139.99999999999989
 30
0.0
 40
78.0
 50
185.14885617337819
 51
198.1610054840155
  0
LINE
  5
4D
  8
0
 10
186.52106354224591
 20
115.0000000000006
 30
0.0
 11
196.2032775986998
 21
115.0
 31
0.0
  0
LINE
  5
4E
  8
0
 10
197.17764766348509
 20
115.7750489456561
 30
0.0
 11
200.0
 21
128.0
 31
0.0
  0
ARC
  5
4F
  8
0
 10
196.2032775986998
 20
116.0
 30
0.0
 40
1.0
 50
269.99999999999642
 51
347.0
  0
ARC
  5
50
  8
0
 10
196.20327759869991
 20
163.99999999999989
 30
0.0
 40
1.0
 50
12.999999999999989
 51
90.000000000003553
  0
LINE
  5
51
  8
0
 10
186.52106354224591
 20
164.99999999999929
 30
0.0
 11
196.2032775986998
 21
164.99999999999989
 31
0.0
  0
LINE
  5
52
  8
0
 10
197.17764766348509
 20
164.22495105434379
 30
0.0
 11
200.0
 21
152.0
 31
0.0
  0
LINE
  5
53
  8
0
 10
200.0
 20
128.0
 30
0.0
 11
200.0
 21
152.0
 31
0.0
  0
LINE
  5
54
  8
1
 10
70.000000000000085
 20
140.0
 30
0.0
 11
129.46929613760449
 21
140.0
 31
0.0
  0
LINE
  5
55
  8
1
 10
100.0000000000001
 20
169.99999999999989
 30
0.0
 11
100.0
 21
109.9999999999999
 31
0.0
  0
LINE
  5
56
  8
1
 10
177.0
 20
139.99999999999989
 30
0.0
 11
205.00000000000011
 21
139.99999999999989
 31
0.0
  0
ARC
  5
57
  8
0
 10
215.59125432490001
 20
139.99999999999989
 30
0.0
 40
31.437088184818808
 50
168.0361238318184
 51
191.96387616818421
  0
ARC
  5
58
  8
0
 10
144.96006966321519
 20
155.359113409988
 30
0.0
 40
40.845552235373141
 50
347.49745926978568
 51
359.06786179951467
  0
ARC
  5
59
  8
0
 10
175.64034415071779
 20
155.03840130808879
 30
0.0
 40
10.165686685246451
 50
358.06207620040391
 51
13.14104208291068
  0
ARC
  5
5A
  8
0
 10
198.4657436521949
 20
157.4507361392921
 30
0.0
 40
14.35119829122134
 50
166.3768030456288
 51
175.74151599277121
  0
ARC
  5
5B
  8
0
 10
186.283124316456
 20
158.5164009593552
 30
0.0
 40
2.1289581763752721
 50
179.9999637030119
 51
196.92474688215609
  0
ARC
  5
5C
  8
0
 10
184.80341410579379
 20
157.2499986368305
 30
0.0
 40
0.7431112530472183
 50
7.6995324843097253
 51
125.002713133957
  0
ARC
  5
5D
  8
0
 10
184.3264692302545
 20
157.92836428909229
 30
0.0
 40
0.0861518370902174
 50
201.61523236883241
 51
306.03796135792908
  0
ARC
  5
5E
  8
0
 10
198.1530503061629
 20
157.9283642890922
 30
0.0
 40
0.0861518370902174
 50
233.96203864207089
 51
338.38476763116768
  0
ARC
  5
5F
  8
0
 10
197.67610543062369
 20
157.2499986368305
 30
0.0
 40
0.7431112530472183
 50
54.997286866042892
 51
172.3004675156902
  0
ARC
  5
60
  8
0
 10
196.1963952199614
 20
158.5164009593552
 30
0.0
 40
2.1289581763752721
 50
343.07525311784377
 51
0.0000362969881111
  0
ARC
  5
61
  8
0
 10
184.0137758842225
 20
157.4507361392921
 30
0.0
 40
14.35119829122134
 50
4.2584840072289021
 51
13.623196954371149
  0
ARC
  5
62
  8
0
 10
206.8391753856996
 20
155.03840130808871
 30
0.0
 40
10.165686685246451
 50
166.85895791708921
 51
181.93792379959621
  0
ARC
  5
63
  8
0
 10
237.51944987320229
 20
155.359113409988
 30
0.0
 40
40.845552235373141
 50
180.9321382004853
 51
192.50254073021421
  0
ARC
  5
64
  8
0
 10
166.88826521151751
 20
139.99999999999989
 30
0.0
 40
31.437088184818808
 50
348.0361238318178
 51
11.96387616818164
  0
LINE
  5
65
  8
2
 10
182.0
 20
133.0
 30
0.0
 11
187.0
 21
133.0
 31
0.0
  0
LINE
  5
66
  8
2
 10
187.0
 20
133.0
 30
0.0
 11
187.0
 21
146.99999999999989
 31
0.0
  0
LINE
  5
67
  8
2
 10
197.0
 20
128.0
 30
0.0
 11
200.0
 21
128.0
 31
0.0
  0
LINE
  5
68
  8
2
 10
197.0
 20
128.0
 30
0.0
 11
197.0
 21
152.0
 31
0.0
  0
LINE
  5
69
  8
2
 10
187.0
 20
135.99999999999989
 30
0.0
 11
197.0
 21
135.99999999999989
 31
0.0
  0
LINE
  5
6A
  8
2
 10
187.0
 20
136.99999999999989
 30
0.0
 11
197.0
 21
136.99999999999989
 31
0.0
  0
ARC
  5
6B
  8
0
 10
-138.32420472331989
 20
165.70675309053291
 30
0.0
 40
344.39501213713987
 50
12.591872555715311
 51
13.239540879137619
  0
ARC
  5
6C
  8
0
 10
174.6378613791349
 20
235.08318966740569
 30
0.0
 40
23.841667973887269
 50
1.605056670905014
 51
13.84032801969976
  0
ARC
  5
6D
  8
0
 10
194.8688570998753
 20
235.28620654121531
 30
0.0
 40
3.6311865319331709
 50
323.48680597999578
 51
7.3539242648733181
  0
ARC
  5
6E
  8
0
 10
229.7289340279689
 20
227.6488223534711
 30
0.0
 40
32.910712872558641
 50
179.8666390403535
 51
193.9387277336553
  0
ARC
  5
6F
  8
0
 10
200.80723488528449
 20
230.9191334681899
 30
0.0
 40
3.740122247656454
 50
143.8464764250819
 51
174.4706521426111
  0
ARC
  5
70
  8
0
 10
176.5836442590778
 20
214.28816697174969
 30
0.0
 40
21.888648986688761
 50
359.2028872805285
 51
14.37162983249325
  0
ARC
  5
71
  8
0
 10
164.41933941421919
 20
214.11187914737209
 30
0.0
 40
34.051077004464943
 50
348.50407595977788
 51
359.78424686144342
  0
ARC
  5
72
  8
0
 10
225.8298343533053
 20
200.48729654785771
 30
0.0
 40
28.864247842730279
 50
166.2956919838881
 51
174.79703809217631
  0
ARC
  5
73
  8
0
 10
224.92141551271069
 20
227.4074865034203
 30
0.0
 40
28.10490361333683
 50
172.08114060285641
 51
179.3518243378513
  0
ARC
  5
74
  8
0
 10
214.36420004482869
 20
200.04779895982739
 30
0.0
 40
17.548016925517921
 50
169.9673620859858
 51
180.89213523974971
  0
ARC
  5
75
  8
0
 10
198.27229288886519
 20
199.62550825879401
 30
0.0
 40
1.461604012548483
 50
174.1463081231941
 51
237.18741983928521
  0
ARC
  5
76
  8
0
 10
184.3520482520801
 20
199.62550825879401
 30
0.0
 40
1.461604012548483
 50
299.78790111258962
 51
5.8536918768057911
  0
ARC
  5
77
  8
0
 10
168.26014109611671
 20
200.04779895982739
 30
0.0
 40
17.548016925517921
 50
359.1078647602501
 51
10.03263791401405
  0
ARC
  5
78
  8
0
 10
156.7945067876401
 20
200.4872965478578
 30
0.0
 40
28.864247842730279
 50
5.2029619078235809
 51
13.70430801611181
  0
ARC
  5
79
  8
0
 10
218.20500172672629
 20
214.11187914737201
 30
0.0
 40
34.051077004464943
 50
180.21575313855661
 51
191.49592404022209
  0
ARC
  5
7A
  8
0
 10
206.0406968818676
 20
214.28816697174969
 30
0.0
 40
21.888648986688761
 50
165.6283701675066
 51
180.7971127194715
  0
ARC
  5
7B
  8
0
 10
157.70292562823471
 20
227.40748650342039
 30
0.0
 40
28.10490361333683
 50
0.6481756621486176
 51
7.9188593971435424
  0
ARC
  5
7C
  8
0
 10
181.8171062556608
 20
230.9191334681899
 30
0.0
 40
3.740122247656454
 50
5.5293478573889301
 51
36.153523574918019
  0
ARC
  5
7D
  8
0
 10
152.8954071129765
 20
227.6488223534711
 30
0.0
 40
32.910712872558641
 50
346.0612722663447
 51
0.133360959646456
  0
ARC
  5
7E
  8
0
 10
187.7554840410701
 20
235.28620654121531
 30
0.0
 40
3.6311865319331709
 50
172.64607573512669
 51
216.51319402000411
  0
ARC
  5
7F
  8
0
 10
207.9864797618105
 20
235.08318966740569
 30
0.0
 40
23.841667973887269
 50
166.1596719803002
 51
178.3949433290949
  0
ARC
  5
80
  8
0
 10
520.94854586426527
 20
165.70675309053269
 30
0.0
 40
344.39501213713987
 50
166.76045912086241
 51
167.40812744428459
  0
ARC
  5
81
  8
0
 10
185.53473310941209
 20
199.24671109562411
 30
0.0
 40
0.9999999999993932
 50
195.63589838664751
 51
270.0
  0
ARC
  5
82
  8
0
 10
196.95283991645371
 20
199.24671109562371
 30
0.0
 40
1.0
 50
269.99999999999642
 51
346.99999999999989
  0
LINE
  5
83
  8
0
 10
181.99999999999989
 20
212.99999999999989
 30
0.0
 11
181.99999999999989
 21
226.99999999999989
 31
0.0
  0
ARC
  5
84
  8
0
 10
186.52106354224571
 20
243.9999999999998
 30
0.0
 40
0.9999999999994031
 50
89.999999999999986
 51
161.83899451598401
  0
ARC
  5
85
  8
0
 10
259.68526243760778
 20
219.9999999999998
 30
0.0
 40
78.0
 50
161.83899451598441
 51
174.85114382662181
  0
ARC
  5
86
  8
0
 10
259.68526243760778
 20
219.9999999999998
 30
0.0
 40
78.0
 50
185.14885617337811
 51
195.6358983866476
  0
LINE
  5
87
  8
0
 10
185.53473310941209
 20
198.2467110956247
 30
0.0
 11
196.9528399164536
 21
198.24671109562371
 31
0.0
  0
LINE
  5
88
  8
0
 10
197.92720998123889
 20
199.0217600412798
 30
0.0
 11
199.99999999999989
 21
207.99999999999989
 31
0.0
  0
ARC
  5
89
  8
0
 10
196.20327759869971
 20
243.9999999999998
 30
0.0
 40
1.0
 50
13.000000000000041
 51
90.000000000003553
  0
LINE
  5
8A
  8
0
 10
186.52106354224571
 20
244.9999999999992
 30
0.0
 11
196.2032775986996
 21
244.9999999999998
 31
0.0
  0
LINE
  5
8B
  8
0
 10
197.177647663485
 20
244.22495105434371
 30
0.0
 11
199.99999999999989
 21
231.9999999999998
 31
0.0
  0
LINE
  5
8C
  8
0
 10
199.99999999999989
 20
207.99999999999989
 30
0.0
 11
199.99999999999989
 21
231.9999999999998
 31
0.0
  0
LINE
  5
8D
  8
1
 10
176.99999999999989
 20
219.99999999999989
 30
0.0
 11
204.99999999999989
 21
219.99999999999989
 31
0.0
  0
ARC
  5
8E
  8
0
 10
237.51944987320229
 20
124.6408865900119
 30
0.0
 40
40.845552235373141
 50
167.49745926978579
 51
179.0678617995147
  0
ARC
  5
8F
  8
0
 10
206.8391753856996
 20
124.96159869191121
 30
0.0
 40
10.165686685246451
 50
178.06207620040379
 51
193.1410420829107
  0
ARC
  5
90
  8
0
 10
184.0137758842225
 20
122.5492638607078
 30
0.0
 40
14.35119829122134
 50
346.37680304562889
 51
355.74151599277121
  0
ARC
  5
91
  8
0
 10
196.1963952199614
 20
121.48359904064471
 30
0.0
 40
2.1289581763752721
 50
359.99996370301187
 51
16.924746882156189
  0
ARC
  5
92
  8
0
 10
197.67610543062369
 20
122.7500013631694
 30
0.0
 40
0.7431112530472183
 50
187.69953248430971
 51
305.00271313395712
  0
ARC
  5
93
  8
0
 10
198.1530503061629
 20
122.0716357109077
 30
0.0
 40
0.0861518370902174
 50
21.61523236883238
 51
126.03796135792911
  0
ARC
  5
94
  8
0
 10
184.3264692302545
 20
122.0716357109076
 30
0.0
 40
0.0861518370902174
 50
53.962038642070951
 51
158.38476763116759
  0
ARC
  5
95
  8
0
 10
184.80341410579379
 20
122.7500013631694
 30
0.0
 40
0.7431112530472183
 50
234.99728686604291
 51
352.30046751569029
  0
ARC
  5
96
  8
0
 10
186.283124316456
 20
121.48359904064471
 30
0.0
 40
2.1289581763752721
 50
163.07525311784391
 51
180.00003629698799
  0
ARC
  5
97
  8
0
 10
198.4657436521949
 20
122.5492638607078
 30
0.0
 40
14.35119829122134
 50
184.25848400722879
 51
193.6231969543712
  0
ARC
  5
98
  8
0
 10
175.64034415071779
 20
124.96159869191121
 30
0.0
 40
10.165686685246451
 50
346.85895791708941
 51
1.9379237995962031
  0
ARC
  5
99
  8
0
 10
144.96006966321519
 20
124.6408865900119
 30
0.0
 40
40.845552235373141
 50
0.9321382004853587
 51
12.502540730214269
  0
LINE
  5
9A
  8
2
 10
197.0
 20
151.99999999999989
 30
0.0
 11
200.0
 21
151.99999999999989
 31
0.0
  0
LINE
  5
9B
  8
2
 10
187.0
 20
143.99999999999989
 30
0.0
 11
197.0
 21
143.99999999999989
 31
0.0
  0
LINE
  5
9C
  8
2
 10
187.0
 20
142.99999999999989
 30
0.0
 11
197.0
 21
142.99999999999989
 31
0.0
  0
LINE
  5
9D
  8
2
 10
182.0
 20
146.99999999999989
 30
0.0
 11
187.0
 21
146.99999999999989
 31
0.0
  0
LINE
  5
9E
  8
2
 10
196.99999999999989
 20
207.99999999999989
 30
0.0
 11
196.99999999999989
 21
231.9999999999998
 31
0.0
  0
LINE
  5
9F
  8
2
 10
186.99999999999989
 20
216.99999999999989
 30
0.0
 11
196.99999999999989
 21
216.99999999999989
 31
0.0
  0
LINE
  5
A0
  8
2
 10
186.99999999999989
 20
215.99999999999989
 30
0.0
 11
196.99999999999989
 21
215.99999999999989
 31
0.0
  0
LINE
  5
A1
  8
2
 10
186.99999999999989
 20
222.9999999999998
 30
0.0
 11
196.99999999999989
 21
222.9999999999998
 31
0.0
  0
LINE
  5
A2
  8
2
 10
186.99999999999989
 20
223.9999999999998
 30
0.0
 11
196.99999999999989
 21
223.9999999999998
 31
0.0
  0
LINE
  5
A3
  8
2
 10
186.99999999999989
 20
212.99999999999989
 30
0.0
 11
186.99999999999989
 21
226.99999999999989
 31
0.0
  0
LINE
  5
A4
  8
2
 10
181.99999999999989
 20
226.9999999999998
 30
0.0
 11
186.99999999999989
 21
226.99999999999989
 31
0.0
  0
LINE
  5
A5
  8
2
 10
181.99999999999989
 20
212.99999999999989
 30
0.0
 11
186.99999999999989
 21
212.99999999999989
 31
0.0
  0
LINE
  5
A6
  8
2
 10
196.99999999999989
 20
207.99999999999989
 30
0.0
 11
200.0
 21
207.99999999999989
 31
0.0
  0
LINE
  5
A7
  8
2
 10
196.99999999999989
 20
231.9999999999998
 30
0.0
 11
200.0
 21
231.9999999999998
 31
0.0
  0
LINE
  5
B1
  8
2
 10
196.9999999999998
 20
58.000000000000107
 30
0.0
 11
199.99999999999989
 21
58.000000000000107
 31
0.0
  0
LINE
  5
B2
  8
2
 10
196.99999999999989
 20
82.000000000000057
 30
0.0
 11
199.99999999999989
 21
82.000000000000057
 31
0.0
  0
LINE
  5
B3
  8
2
 10
181.99999999999989
 20
77.000000000000057
 30
0.0
 11
186.99999999999989
 21
77.000000000000085
 31
0.0
  0
LINE
  5
B4
  8
2
 10
181.99999999999989
 20
63.000000000000107
 30
0.0
 11
186.99999999999989
 21
63.000000000000071
 31
0.0
  0
LINE
  5
B5
  8
2
 10
186.99999999999989
 20
77.000000000000057
 30
0.0
 11
186.99999999999989
 21
63.000000000000078
 31
0.0
  0
LINE
  5
B6
  8
2
 10
186.99999999999989
 20
66.000000000000114
 30
0.0
 11
196.99999999999989
 21
66.000000000000114
 31
0.0
  0
LINE
  5
B7
  8
2
 10
186.99999999999989
 20
67.000000000000114
 30
0.0
 11
196.99999999999989
 21
67.000000000000114
 31
0.0
  0
LINE
  5
B8
  8
2
 10
186.99999999999989
 20
74.000000000000057
 30
0.0
 11
196.99999999999989
 21
74.000000000000057
 31
0.0
  0
LINE
  5
B9
  8
2
 10
186.99999999999989
 20
73.000000000000057
 30
0.0
 11
196.99999999999989
 21
73.000000000000057
 31
0.0
  0
LINE
  5
BA
  8
2
 10
196.99999999999989
 20
82.000000000000057
 30
0.0
 11
196.9999999999998
 21
58.000000000000107
 31
0.0
  0
LINE
  5
BB
  8
1
 10
176.99999999999989
 20
70.000000000000085
 30
0.0
 11
204.99999999999989
 21
70.000000000000057
 31
0.0
  0
LINE
  5
BC
  8
0
 10
199.99999999999989
 20
82.000000000000085
 30
0.0
 11
199.99999999999989
 21
58.000000000000078
 31
0.0
  0
LINE
  5
BD
  8
0
 10
197.17764766348489
 20
45.775048945656273
 30
0.0
 11
199.99999999999989
 21
58.000000000000078
 31
0.0
  0
LINE
  5
BE
  8
0
 10
186.52106354224571
 20
45.000000000000767
 30
0.0
 11
196.2032775986996
 21
45.000000000000149
 31
0.0
  0
ARC
  5
BF
  8
0
 10
196.20327759869971
 20
46.000000000000142
 30
0.0
 40
1.0
 50
269.99999999999648
 51
347.0
  0
LINE
  5
C0
  8
0
 10
197.92720998123889
 20
90.978239958720081
 30
0.0
 11
199.99999999999989
 21
82.000000000000085
 31
0.0
  0
LINE
  5
C1
  8
0
 10
185.534733109412
 20
91.753288904375239
 30
0.0
 11
196.9528399164536
 21
91.753288904376205
 31
0.0
  0
ARC
  5
C2
  8
0
 10
259.68526243760772
 20
70.000000000000085
 30
0.0
 40
78.0
 50
164.36410161335229
 51
174.85114382662181
  0
ARC
  5
C3
  8
0
 10
259.68526243760772
 20
70.000000000000085
 30
0.0
 40
78.0
 50
185.14885617337819
 51
198.1610054840155
  0
ARC
  5
C4
  8
0
 10
186.52106354224571
 20
46.000000000000142
 30
0.0
 40
0.9999999999994031
 50
198.1610054840159
 51
270.0
  0
LINE
  5
C5
  8
0
 10
181.99999999999989
 20
77.000000000000085
 30
0.0
 11
181.99999999999989
 21
63.000000000000078
 31
0.0
  0
ARC
  5
C6
  8
0
 10
196.9528399164536
 20
90.753288904376205
 30
0.0
 40
1.0
 50
13.00000000000014
 51
90.000000000003595
  0
ARC
  5
C7
  8
0
 10
185.534733109412
 20
90.753288904375864
 30
0.0
 40
0.9999999999993932
 50
90.000000000000057
 51
164.36410161335249
  0
ARC
  5
C8
  8
0
 10
520.94854586426516
 20
124.2932469094671
 30
0.0
 40
344.39501213713987
 50
192.5918725557153
 51
193.23954087913759
  0
ARC
  5
C9
  8
0
 10
207.9864797618105
 20
54.916810332594281
 30
0.0
 40
23.841667973887269
 50
181.60505667090499
 51
193.84032801969971
  0
ARC
  5
CA
  8
0
 10
187.75548404106999
 20
54.713793458784579
 30
0.0
 40
3.6311865319331709
 50
143.48680597999589
 51
187.35392426487331
  0
ARC
  5
CB
  8
0
 10
152.8954071129765
 20
62.351177646528853
 30
0.0
 40
32.910712872558641
 50
359.86663904035362
 51
13.9387277336554
  0
ARC
  5
CC
  8
0
 10
181.8171062556608
 20
59.080866531810067
 30
0.0
 40
3.740122247656454
 50
323.84647642508202
 51
354.47065214261107
  0
ARC
  5
CD
  8
0
 10
157.70292562823471
 20
62.592513496579578
 30
0.0
 40
28.10490361333683
 50
352.08114060285652
 51
359.3518243378515
  0
ARC
  5
CE
  8
0
 10
206.0406968818676
 20
75.711833028250183
 30
0.0
 40
21.888648986688761
 50
179.2028872805285
 51
194.37162983249331
  0
ARC
  5
CF
  8
0
 10
218.20500172672621
 20
75.888120852627907
 30
0.0
 40
34.051077004464943
 50
168.50407595977791
 51
179.78424686144339
  0
ARC
  5
D0
  8
0
 10
156.7945067876401
 20
89.512703452142176
 30
0.0
 40
28.864247842730279
 50
346.29569198388822
 51
354.79703809217648
  0
ARC
  5
D1
  8
0
 10
168.2601410961166
 20
89.952201040172525
 30
0.0
 40
17.548016925517921
 50
349.967362085986
 51
0.8921352397499077
  0
ARC
  5
D2
  8
0
 10
184.3520482520801
 20
90.374491741205901
 30
0.0
 40
1.461604012548483
 50
354.14630812319422
 51
60.212098887410491
  0
ARC
  5
D3
  8
0
 10
198.27229288886519
 20
90.374491741205901
 30
0.0
 40
1.461604012548483
 50
122.8125801607148
 51
185.85369187680581
  0
ARC
  5
D4
  8
0
 10
214.36420004482869
 20
89.952201040172525
 30
0.0
 40
17.548016925517921
 50
179.10786476025021
 51
190.03263791401409
  0
ARC
  5
D5
  8
0
 10
224.92141551271061
 20
62.592513496579578
 30
0.0
 40
28.10490361333683
 50
180.64817566214859
 51
187.91885939714359
  0
ARC
  5
D6
  8
0
 10
225.8298343533053
 20
89.512703452142176
 30
0.0
 40
28.864247842730279
 50
185.20296190782361
 51
193.70430801611181
  0
ARC
  5
D7
  8
0
 10
164.41933941421911
 20
75.888120852627907
 30
0.0
 40
34.051077004464943
 50
0.2157531385566139
 51
11.49592404022216
  0
ARC
  5
D8
  8
0
 10
176.58364425907769
 20
75.711833028250183
 30
0.0
 40
21.888648986688761
 50
345.62837016750677
 51
0.7971127194715623
  0
ARC
  5
D9
  8
0
 10
200.80723488528449
 20
59.080866531810067
 30
0.0
 40
3.740122247656454
 50
185.5293478573889
 51
216.1535235749181
  0
ARC
  5
DA
  8
0
 10
229.72893402796879
 20
62.351177646528832
 30
0.0
 40
32.910712872558641
 50
166.0612722663447
 51
180.1333609596465
  0
ARC
  5
DB
  8
0
 10
194.86885709987521
 20
54.713793458784579
 30
0.0
 40
3.6311865319331709
 50
352.64607573512671
 51
36.513194020004178
  0
ARC
  5
DC
  8
0
 10
174.63786137913479
 20
54.916810332594281
 30
0.0
 40
23.841667973887269
 50
346.15967198030029
 51
358.39494332909499
  0
ARC
  5
DD
  8
0
 10
-138.32420472332001
 20
124.2932469094671
 30
0.0
 40
344.39501213713987
 50
346.76045912086238
 51
347.40812744428467
  0
LINE
  5
DE
  8
1
 10
279.99999999999989
 20
169.99999999999989
 30
0.0
 11
279.99999999999989
 21
109.9999999999999
 31
0.0
  0
LINE
  5
DF
  8
1
 10
309.99999999999989
 20
140.0
 30
0.0
 11
250.53070386239551
 21
140.0
 31
0.0
  0
LINE
  5
E0
  8
0
 10
283.9999999999992
 20
144.00000000000051
 30
0.0
 11
283.9999999999992
 21
135.99999999999949
 31
0.0
  0
LINE
  5
E1
  8
0
 10
275.99999999999869
 20
144.00000000000051
 30
0.0
 11
283.9999999999992
 21
144.00000000000051
 31
0.0
  0
LINE
  5
E2
  8
0
 10
275.99999999999869
 20
135.99999999999949
 30
0.0
 11
275.99999999999869
 21
144.00000000000051
 31
0.0
  0
LINE
  5
E3
  8
0
 10
283.9999999999992
 20
135.99999999999949
 30
0.0
 11
275.99999999999869
 21
135.99999999999949
 31
0.0
  0
LINE
  5
E4
  8
0
 10
282.9999999999996
 20
136.9999999999998
 30
0.0
 11
282.9999999999996
 21
143.00000000000051
 31
0.0
  0
LINE
  5
E5
  8
0
 10
277.0
 20
137.00000000000051
 30
0.0
 11
283.00000000000063
 21
137.00000000000051
 31
0.0
  0
LINE
  5
E6
  8
0
 10
277.00000000000068
 20
143.00000000000011
 30
0.0
 11
277.00000000000068
 21
136.99999999999949
 31
0.0
  0
LINE
  5
E7
  8
0
 10
283.00000000000023
 20
142.9999999999994
 30
0.0
 11
276.9999999999996
 21
142.9999999999994
 31
0.0
  0
ARC
  5
E8
  8
0
 10
285.25328890437328
 20
156.16796077701849
 30
0.0
 40
8.0
 50
10.24970027720094
 51
133.75029972279631
  0
ARC
  5
E9
  8
0
 10
266.24671109562411
 20
149.9923492889726
 30
0.0
 40
8.0
 50
82.249700277200944
 51
205.7502997227964
  0
ARC
  5
EA
  8
0
 10
266.24671109562422
 20
130.0076507110274
 30
0.0
 40
8.0
 50
154.2497002772009
 51
277.75029972279589
  0
ARC
  5
EB
  8
0
 10
285.25328890437339
 20
123.83203922298151
 30
0.0
 40
8.0
 50
226.2497002772009
 51
349.7502997227964
  0
ARC
  5
EC
  8
0
 10
296.99999999999989
 20
140.0
 30
0.0
 40
8.0
 50
298.24970027720099
 51
61.750299722796257
  0
ARC
  5
ED
  8
0
 10
307.88624635946252
 20
119.7394560734143
 30
0.0
 40
14.999999999999851
 50
118.2497002772008
 51
169.7502997227962
  0
ARC
  5
EE
  8
0
 10
269.3484017093362
 20
107.2177512962251
 30
0.0
 40
14.999999999999851
 50
46.249700277200887
 51
97.750299722796186
  0
ARC
  5
EF
  8
0
 10
245.5307038623956
 20
140.0000000000006
 30
0.0
 40
14.999999999999851
 50
334.24970027720099
 51
25.7502997227961
  0
ARC
  5
F0
  8
0
 10
269.3484017093374
 20
172.7822487037752
 30
0.0
 40
14.999999999999851
 50
262.24970027720087
 51
313.75029972279611
  0
ARC
  5
F1
  8
0
 10
307.8862463594632
 20
160.2605439265846
 30
0.0
 40
14.999999999999851
 50
190.24970027720079
 51
241.7502997227962
  0
CIRCLE
  5
F2
  8
0
 10
279.99999999999989
 20
140.0
 30
0.0
 40
11.99999999999971
  0
INSERT
  5
160
  8
0
  2
BATU
 10
0.0
 20
0.0
 30
0.0
 41
0.001
 42
0.001
 43
0.001
  0
TEXT
  5
2AD
  8
0
 62
     3
 10
0.0
 20
0.0
 30
0.0
 40
10.0
  1
FK50S
  7
STANDARD1
  0
ENDSEC
  0
EOF
