  0
SECTION
  2
HEADER
  9
$ACADVER
  1
AC1009
  9
$INSBASE
 10
0.0
 20
0.0
 30
0.0
  9
$EXTMIN
 10
0.0
 20
-2.960436562073669
 30
0.0
  9
$EXTMAX
 10
337.52714562047998
 20
171.8876510213949
 30
0.0
  9
$LIMMIN
 10
0.0
 20
0.0
  9
$LIMMAX
 10
375.0
 20
270.0
  9
$ORTHOMODE
 70
     1
  9
$REGENMODE
 70
     1
  9
$FILLMODE
 70
     1
  9
$QTEXTMODE
 70
     0
  9
$MIRRTEXT
 70
     0
  9
$DRAGMODE
 70
     2
  9
$LTSCALE
 40
10.0
  9
$OSMODE
 70
    55
  9
$ATTMODE
 70
     1
  9
$TEXTSIZE
 40
0.2
  9
$TRACEWID
 40
0.05
  9
$TEXTSTYLE
  7
STANDARD
  9
$CLAYER
  8
0
  9
$CELTYPE
  6
BYLAYER
  9
$CECOLOR
 62
   256
  9
$DIMSCALE
 40
1.0
  9
$DIMASZ
 40
3.0
  9
$DIMEXO
 40
2.0
  9
$DIMDLI
 40
0.38
  9
$DIMRND
 40
0.0
  9
$DIMDLE
 40
0.0
  9
$DIMEXE
 40
2.0
  9
$DIMTP
 40
0.0
  9
$DIMTM
 40
0.0
  9
$DIMTXT
 40
3.2000000000000002
  9
$DIMCEN
 40
0.0
  9
$DIMTSZ
 40
0.0
  9
$DIMTOL
 70
     0
  9
$DIMLIM
 70
     0
  9
$DIMTIH
 70
     0
  9
$DIMTOH
 70
     0
  9
$DIMSE1
 70
     0
  9
$DIMSE2
 70
     0
  9
$DIMTAD
 70
     1
  9
$DIMZIN
 70
     0
  9
$DIMBLK
  1

  9
$DIMASO
 70
     0
  9
$DIMSHO
 70
     0
  9
$DIMPOST
  1

  9
$DIMAPOST
  1

  9
$DIMALT
 70
     0
  9
$DIMALTD
 70
     2
  9
$DIMALTF
 40
25.399999999999999
  9
$DIMLFAC
 40
1.0
  9
$DIMTOFL
 70
     1
  9
$DIMTVP
 40
1.6000000000000001
  9
$DIMTIX
 70
     1
  9
$DIMSOXD
 70
     0
  9
$DIMSAH
 70
     0
  9
$DIMBLK1
  1

  9
$DIMBLK2
  1

  9
$DIMSTYLE
  2
STANDARD
  9
$DIMCLRD
 70
     0
  9
$DIMCLRE
 70
     0
  9
$DIMCLRT
 70
     0
  9
$DIMTFAC
 40
1.0
  9
$DIMGAP
 40
0.09
  9
$LUNITS
 70
     2
  9
$LUPREC
 70
     4
  9
$SKETCHINC
 40
0.1
  9
$FILLETRAD
 40
0.0
  9
$AUNITS
 70
     0
  9
$AUPREC
 70
     4
  9
$MENU
  1
E:\r13\win\SUPPORT\ACAD
  9
$ELEVATION
 40
0.0
  9
$PELEVATION
 40
0.0
  9
$THICKNESS
 40
0.0
  9
$LIMCHECK
 70
     0
  9
$BLIPMODE
 70
     0
  9
$CHAMFERA
 40
0.0
  9
$CHAMFERB
 40
0.0
  9
$SKPOLY
 70
     0
  9
$TDCREATE
 40
2449779.4316862272
  9
$TDUPDATE
 40
2456598.643961458
  9
$TDINDWG
 40
0.0056749537
  9
$TDUSRTIMER
 40
0.0056749537
  9
$USRTIMER
 70
     1
  9
$ANGBASE
 50
0.0
  9
$ANGDIR
 70
     0
  9
$PDMODE
 70
     0
  9
$PDSIZE
 40
0.0
  9
$PLINEWID
 40
0.0
  9
$COORDS
 70
     1
  9
$SPLFRAME
 70
     0
  9
$SPLINETYPE
 70
     6
  9
$SPLINESEGS
 70
     8
  9
$ATTDIA
 70
     0
  9
$ATTREQ
 70
     1
  9
$HANDLING
 70
     1
  9
$HANDSEED
  5
836
  9
$SURFTAB1
 70
     6
  9
$SURFTAB2
 70
     6
  9
$SURFTYPE
 70
     6
  9
$SURFU
 70
     6
  9
$SURFV
 70
     6
  9
$UCSNAME
  2

  9
$UCSORG
 10
0.0
 20
0.0
 30
0.0
  9
$UCSXDIR
 10
1.0
 20
0.0
 30
0.0
  9
$UCSYDIR
 10
0.0
 20
1.0
 30
0.0
  9
$PUCSNAME
  2

  9
$PUCSORG
 10
0.0
 20
0.0
 30
0.0
  9
$PUCSXDIR
 10
1.0
 20
0.0
 30
0.0
  9
$PUCSYDIR
 10
0.0
 20
1.0
 30
0.0
  9
$USERI1
 70
     0
  9
$USERI2
 70
     1
  9
$USERI3
 70
     0
  9
$USERI4
 70
     0
  9
$USERI5
 70
     0
  9
$USERR1
 40
0.0
  9
$USERR2
 40
0.0
  9
$USERR3
 40
0.0
  9
$USERR4
 40
0.0
  9
$USERR5
 40
0.0
  9
$WORLDVIEW
 70
     1
  9
$SHADEDGE
 70
     3
  9
$SHADEDIF
 70
    70
  9
$TILEMODE
 70
     1
  9
$MAXACTVP
 70
    16
  9
$PLIMCHECK
 70
     0
  9
$PEXTMIN
 10
1.0000000000000000E+020
 20
1.0000000000000000E+020
 30
1.0000000000000000E+020
  9
$PEXTMAX
 10
-1.0000000000000000E+020
 20
-1.0000000000000000E+020
 30
-1.0000000000000000E+020
  9
$PLIMMIN
 10
0.0
 20
0.0
  9
$PLIMMAX
 10
12.0
 20
9.0
  9
$UNITMODE
 70
     0
  9
$VISRETAIN
 70
     0
  9
$PLINEGEN
 70
     0
  9
$PSLTSCALE
 70
     0
  0
ENDSEC
  0
SECTION
  2
TABLES
  0
TABLE
  2
VPORT
 70
     1
  0
VPORT
  2
*ACTIVE
 70
     0
 10
0.0
 20
0.0
 11
1.0
 21
1.0
 12
187.49427839065231
 22
174.91677254346851
 13
0.0
 23
0.0
 14
10.0
 24
10.0
 15
10.0
 25
10.0
 16
0.0
 26
0.0
 36
1.0
 17
0.0
 27
0.0
 37
0.0
 40
358.92027899574339
 41
1.7807262569832401
 42
50.0
 43
0.0
 44
0.0
 50
0.0
 51
0.0
 71
     0
 72
   100
 73
     1
 74
     0
 75
     0
 76
     0
 77
     0
 78
     2
  0
ENDTAB
  0
TABLE
  2
LTYPE
 70
     4
  0
LTYPE
  2
CONTINUOUS
 70
     0
  3
Solid Line
 72
    65
 73
     0
 40
0.0
  0
LTYPE
  2
CENTER
 70
     0
  3
____ _ ____ _ ____ _ ____ _ ____ _ ____ _ ____
 72
    65
 73
     4
 40
2.0
 49
1.25
 49
-0.25
 49
0.25
 49
-0.25
  0
LTYPE
  2
HIDDEN
 70
     0
  3
_ _ _ _ _ _ _ _ _ _ _ _ _ _ _ _ _ _ _ _ _ _ _
 72
    65
 73
     2
 40
0.375
 49
0.25
 49
-0.125
  0
LTYPE
  2
PHANTOM2
 70
     0
  3
___ _ _ ___ _ _ ___ _ _ ___ _ _
 72
    65
 73
     6
 40
1.25
 49
0.625
 49
-0.125
 49
0.125
 49
-0.125
 49
0.125
 49
-0.125
  0
ENDTAB
  0
TABLE
  2
LAYER
 70
     3
  0
LAYER
  2
0
 70
     0
 62
     7
  6
CONTINUOUS
  0
LAYER
  2
1
 70
     0
 62
     1
  6
CENTER
  0
LAYER
  2
2
 70
     0
 62
     2
  6
HIDDEN
  0
ENDTAB
  0
TABLE
  2
STYLE
 70
     2
  0
STYLE
  2
STANDARD
 70
     0
 40
0.0
 41
1.0
 50
0.0
 71
     0
 42
0.2
  3
TXT
  4
BIGFONT
  0
STYLE
  2
STANDARD1
 70
     0
 40
0.0
 41
1.0
 50
0.0
 71
     0
 42
3.0
  3
txt
  4

  0
ENDTAB
  0
TABLE
  2
VIEW
 70
     1
  0
VIEW
  2
ALL
 70
     0
 40
270.0
 10
220.99159700000001
 20
135.0
 41
0.0
 11
0.0
 21
0.0
 31
1.0
 12
0.0
 22
0.0
 32
0.0
 42
0.0
 43
0.0
 44
0.0
 50
0.0
 71
     0
  0
ENDTAB
  0
TABLE
  2
UCS
 70
     0
  0
ENDTAB
  0
TABLE
  2
APPID
 70
     4
  0
APPID
  2
ACAD
 70
     0
  0
APPID
  2
_CALL_MAC$
 70
     0
  0
APPID
  2
ACAD_MLEADERVER
 70
     0
  0
APPID
  2
ACAD_NAV_VCDISPLAY
 70
     0
  0
ENDTAB
  0
TABLE
  2
DIMSTYLE
 70
     1
  0
DIMSTYLE
  2
STANDARD
 70
     0
  3

  4

  5

  6

  7

 40
1.0
 41
0.18
 42
0.0625
 43
0.38
 44
0.18
 45
0.0
 46
0.0
 47
0.0
 48
0.0
140
0.18
141
0.09
142
0.0
143
25.399999999999999
144
1.0
145
0.0
146
1.0
147
0.09
 71
     0
 72
     0
 73
     1
 74
     1
 75
     0
 76
     0
 77
     0
 78
     0
170
     0
171
     2
172
     0
173
     0
174
     0
175
     0
176
     0
177
     0
178
     0
  0
ENDTAB
  0
ENDSEC
  0
SECTION
  2
BLOCKS
  0
BLOCK
  8
0
  2
$MODEL_SPACE
 70
     0
 10
0.0
 20
0.0
 30
0.0
  3
$MODEL_SPACE
  1

  0
ENDBLK
  5
65C
  8
0
  0
BLOCK
 67
     1
  8
0
  2
$PAPER_SPACE
 70
     0
 10
0.0
 20
0.0
 30
0.0
  3
$PAPER_SPACE
  1

  0
ENDBLK
  5
65A
 67
     1
  8
0
  0
ENDSEC
  0
SECTION
  2
ENTITIES
  0
CIRCLE
  5
587
  8
0
 10
73.25184613154704
 20
136.88765102139189
 30
0.0
 40
17.499999999999741
  0
ARC
  5
588
  8
0
 10
73.25184613154704
 20
136.012651021392
 30
0.0
 40
15.875
 50
299.2283546710845
 51
240.7716453289149
  0
LINE
  5
589
  8
2
 10
187.88949587601209
 20
154.38765102139189
 30
0.0
 11
187.88949587601201
 21
119.3876510213919
 31
0.0
  0
LINE
  5
58A
  8
2
 10
198.88949587601221
 20
154.38765102139189
 30
0.0
 11
198.88949587601209
 21
119.3876510213919
 31
0.0
  0
LINE
  5
58B
  8
0
 10
212.38949587601189
 20
166.3876510213949
 30
0.0
 11
212.38949587601209
 21
107.3876510213952
 31
0.0
  0
LINE
  5
58C
  8
2
 10
175.13949587601209
 20
155.3876510213918
 30
0.0
 11
175.13949587601209
 21
118.3876510213919
 31
0.0
  0
LINE
  5
58D
  8
2
 10
176.88949587601209
 20
155.38765102139189
 30
0.0
 11
176.88949587601209
 21
118.3876510213919
 31
0.0
  0
LINE
  5
58E
  8
2
 10
164.38949587601201
 20
119.3876510213919
 30
0.0
 11
164.38949587601201
 21
154.38765102139189
 31
0.0
  0
LINE
  5
58F
  8
0
 10
163.38949587601201
 20
166.3876510213949
 30
0.0
 11
163.38949587601209
 21
107.3876510213949
 31
0.0
  0
CIRCLE
  5
590
  8
0
 10
73.25184613154704
 20
136.88765102139189
 30
0.0
 40
7.5
  0
LINE
  5
591
  8
2
 10
187.88949587601201
 20
119.3876510213919
 30
0.0
 11
176.88949587601209
 21
119.3876510213919
 31
0.0
  0
LINE
  5
592
  8
2
 10
176.88949587601209
 20
125.8876510213949
 30
0.0
 11
179.79141966465869
 21
125.8876510213949
 31
0.0
  0
LINE
  5
593
  8
2
 10
176.88949587601209
 20
122.8876510213949
 30
0.0
 11
179.79141966465869
 21
122.8876510213949
 31
0.0
  0
LINE
  5
594
  8
2
 10
176.88949587601209
 20
129.3876510213949
 30
0.0
 11
198.88949587601221
 21
129.3876510213949
 31
0.0
  0
LINE
  5
595
  8
0
 10
79.078097176591754
 20
123.507011679244
 30
0.0
 11
81.003475172421304
 21
122.158847492661
 31
0.0
  0
CIRCLE
  5
596
  8
0
 10
77.930944303889646
 20
121.86870759066601
 30
0.0
 40
1.25
  0
ARC
  5
597
  8
0
 10
77.930944303889646
 20
121.86870759066601
 30
0.0
 40
2.0
 50
54.99993670022004
 51
190.00002690570111
  0
LINE
  5
598
  8
0
 10
67.425595086502312
 20
123.507011679244
 30
0.0
 11
65.500217090672777
 21
122.158847492661
 31
0.0
  0
CIRCLE
  5
599
  8
0
 10
68.572747959204435
 20
121.86870759066601
 30
0.0
 40
1.25
  0
ARC
  5
59A
  8
0
 10
68.572747959204435
 20
121.86870759066601
 30
0.0
 40
2.0
 50
349.99997309429892
 51
125.0000632997799
  0
LINE
  5
59B
  8
0
 10
70.54236330214087
 20
121.52141031041459
 30
0.0
 11
70.213003022375688
 21
119.65351534367819
 31
0.0
  0
LINE
  5
59C
  8
0
 10
75.96132896095321
 20
121.52141031041459
 30
0.0
 11
76.290689240718393
 21
119.65351534367819
 31
0.0
  0
LINE
  5
59D
  8
2
 10
175.13949587601209
 20
119.3876510213919
 30
0.0
 11
164.38949587601201
 21
119.3876510213919
 31
0.0
  0
LINE
  5
59E
  8
2
 10
164.38949587601181
 20
119.3876510213918
 30
0.0
 11
163.38949587601181
 21
118.8103007522022
 31
0.0
  0
LINE
  5
59F
  8
2
 10
176.88949587601209
 20
118.3876510213919
 30
0.0
 11
175.13949587601209
 21
118.3876510213919
 31
0.0
  0
LINE
  5
5A0
  8
2
 10
211.88949587601209
 20
122.8876510213919
 30
0.0
 11
198.88949587601209
 21
122.8876510213919
 31
0.0
  0
CIRCLE
  5
5A1
  8
2
 10
193.38949587601221
 20
124.3876510213949
 30
0.0
 40
3.0
  0
CIRCLE
  5
5A2
  8
2
 10
182.38949587601209
 20
124.3876510213949
 30
0.0
 40
3.0
  0
LINE
  5
5A3
  8
2
 10
198.88949587601209
 20
119.3876510213919
 30
0.0
 11
187.88949587601209
 21
119.3876510213919
 31
0.0
  0
LINE
  5
5A4
  8
2
 10
187.88949587601209
 20
122.8876510213949
 30
0.0
 11
190.7914196646588
 21
122.8876510213949
 31
0.0
  0
LINE
  5
5A5
  8
2
 10
184.98757208736541
 20
122.8876510213949
 30
0.0
 11
187.88949587601209
 21
122.8876510213949
 31
0.0
  0
LINE
  5
5A6
  8
2
 10
195.98757208736541
 20
122.8876510213949
 30
0.0
 11
198.88949587601221
 21
122.8876510213949
 31
0.0
  0
LINE
  5
5A7
  8
2
 10
187.88949587601209
 20
125.8876510213949
 30
0.0
 11
190.7914196646588
 21
125.8876510213949
 31
0.0
  0
LINE
  5
5A8
  8
2
 10
184.98757208736541
 20
125.8876510213949
 30
0.0
 11
187.88949587601209
 21
125.8876510213949
 31
0.0
  0
LINE
  5
5A9
  8
2
 10
195.98757208736541
 20
125.8876510213949
 30
0.0
 11
198.88949587601221
 21
125.8876510213949
 31
0.0
  0
LINE
  5
5AA
  8
2
 10
187.88949587601201
 20
154.38765102139189
 30
0.0
 11
176.88949587601209
 21
154.38765102139189
 31
0.0
  0
LINE
  5
5AB
  8
2
 10
176.88949587601209
 20
150.8876510213949
 30
0.0
 11
179.79141966465869
 21
150.8876510213949
 31
0.0
  0
LINE
  5
5AC
  8
2
 10
176.88949587601209
 20
147.8876510213949
 30
0.0
 11
179.79141966465869
 21
147.8876510213949
 31
0.0
  0
LINE
  5
5AD
  8
2
 10
176.88949587601209
 20
144.3876510213949
 30
0.0
 11
198.88949587601221
 21
144.3876510213949
 31
0.0
  0
LINE
  5
5AE
  8
0
 10
211.88949587601189
 20
166.8876510213949
 30
0.0
 11
210.38949587601201
 21
166.8876510213949
 31
0.0
  0
LINE
  5
5AF
  8
2
 10
175.13949587601209
 20
154.38765102139189
 30
0.0
 11
164.38949587601209
 21
154.38765102139189
 31
0.0
  0
LINE
  5
5B0
  8
2
 10
164.38949587601209
 20
154.38765102139189
 30
0.0
 11
163.38949587601201
 21
154.9650012905816
 31
0.0
  0
LINE
  5
5B1
  8
2
 10
176.88949587601209
 20
155.38765102139189
 30
0.0
 11
175.13949587601209
 21
155.38765102139189
 31
0.0
  0
LINE
  5
5B2
  8
2
 10
211.88949587601201
 20
150.887651021392
 30
0.0
 11
198.88949587601221
 21
150.88765102139189
 31
0.0
  0
LINE
  5
5B3
  8
2
 10
198.88949587601209
 20
154.38765102139189
 30
0.0
 11
187.88949587601209
 21
154.38765102139189
 31
0.0
  0
LINE
  5
5B4
  8
2
 10
187.88949587601209
 20
147.8876510213949
 30
0.0
 11
190.7914196646588
 21
147.8876510213949
 31
0.0
  0
LINE
  5
5B5
  8
2
 10
187.88949587601209
 20
150.8876510213949
 30
0.0
 11
190.7914196646588
 21
150.8876510213949
 31
0.0
  0
CIRCLE
  5
5B6
  8
2
 10
182.38949587601209
 20
149.3876510213949
 30
0.0
 40
3.0
  0
LINE
  5
5B7
  8
2
 10
184.98757208736541
 20
147.8876510213949
 30
0.0
 11
187.88949587601209
 21
147.8876510213949
 31
0.0
  0
LINE
  5
5B8
  8
2
 10
184.98757208736541
 20
150.8876510213949
 30
0.0
 11
187.88949587601209
 21
150.8876510213949
 31
0.0
  0
CIRCLE
  5
5B9
  8
2
 10
193.38949587601221
 20
149.3876510213949
 30
0.0
 40
3.0
  0
LINE
  5
5BA
  8
2
 10
195.98757208736541
 20
147.8876510213949
 30
0.0
 11
198.88949587601221
 21
147.8876510213949
 31
0.0
  0
LINE
  5
5BB
  8
2
 10
195.98757208736541
 20
150.8876510213949
 30
0.0
 11
198.88949587601221
 21
150.8876510213949
 31
0.0
  0
LINE
  5
5BD
  8
0
 10
163.88949587601201
 20
166.8876510213949
 30
0.0
 11
163.38949587601201
 21
166.3876510213949
 31
0.0
  0
LINE
  5
5BE
  8
1
 10
158.38949587601209
 20
136.8876510213949
 30
0.0
 11
217.38949587601201
 21
136.8876510213949
 31
0.0
  0
LINE
  5
5BF
  8
1
 10
187.88949587601201
 20
171.8876510213949
 30
0.0
 11
187.88949587601201
 21
101.8876510213949
 31
0.0
  0
LINE
  5
5C0
  8
2
 10
212.38949587601201
 20
151.38765102139189
 30
0.0
 11
211.88949587601201
 21
150.887651021392
 31
0.0
  0
LINE
  5
5C1
  8
2
 10
211.88949587601209
 20
122.8876510213919
 30
0.0
 11
212.38949587601209
 21
122.3876510213919
 31
0.0
  0
LINE
  5
5C2
  8
2
 10
211.88949587601201
 20
150.887651021392
 30
0.0
 11
211.88949587601209
 21
122.8876510213919
 31
0.0
  0
LINE
  5
5C3
  8
0
 10
211.88949587601189
 20
166.8876510213949
 30
0.0
 11
212.38949587601201
 21
166.3876510213949
 31
0.0
  0
LINE
  5
5C4
  8
0
 10
211.88949587601189
 20
106.8876510213949
 30
0.0
 11
210.38949587601209
 21
106.8876510213949
 31
0.0
  0
LINE
  5
5C5
  8
0
 10
163.88949587601201
 20
106.8876510213949
 30
0.0
 11
163.38949587601201
 21
107.3876510213949
 31
0.0
  0
LINE
  5
5C6
  8
0
 10
211.88949587601189
 20
106.8876510213949
 30
0.0
 11
212.38949587601201
 21
107.3876510213949
 31
0.0
  0
LINE
  5
5C7
  8
0
 10
165.88949587601201
 20
111.8876510213949
 30
0.0
 11
209.88949587601201
 21
111.8876510213949
 31
0.0
  0
LINE
  5
5C8
  8
0
 10
165.88949587601201
 20
161.88765102139499
 30
0.0
 11
209.88949587601201
 21
161.88765102139499
 31
0.0
  0
LINE
  5
5C9
  8
0
 10
209.88949587601189
 20
166.3876510213949
 30
0.0
 11
209.88949587601269
 21
107.38765102139421
 31
0.0
  0
LINE
  5
5CA
  8
0
 10
165.88949587601201
 20
166.3876510213949
 30
0.0
 11
165.88949587601201
 21
107.3876510213949
 31
0.0
  0
LINE
  5
5CB
  8
0
 10
165.38949587601201
 20
106.8876510213949
 30
0.0
 11
163.88949587601201
 21
106.8876510213949
 31
0.0
  0
LINE
  5
5CC
  8
0
 10
165.38949587601201
 20
166.8876510213949
 30
0.0
 11
163.88949587601201
 21
166.8876510213949
 31
0.0
  0
LINE
  5
5CD
  8
0
 10
165.38949587601201
 20
166.8876510213949
 30
0.0
 11
165.88949587601201
 21
166.3876510213949
 31
0.0
  0
LINE
  5
5CE
  8
0
 10
210.38949587601201
 20
166.8876510213949
 30
0.0
 11
209.88949587601189
 21
166.3876510213949
 31
0.0
  0
LINE
  5
5CF
  8
0
 10
209.88949587601201
 20
107.3876510213949
 30
0.0
 11
210.38949587601209
 21
106.8876510213949
 31
0.0
  0
LINE
  5
5D0
  8
0
 10
165.38949587601201
 20
106.8876510213949
 30
0.0
 11
165.88949587601201
 21
107.3876510213949
 31
0.0
  0
CIRCLE
  5
5D1
  8
0
 10
73.25184613154704
 20
136.88765102139189
 30
0.0
 40
30.000000000003009
  0
LINE
  5
5D2
  8
1
 10
108.25184613155
 20
136.88765102139189
 30
0.0
 11
38.251846131544028
 21
136.88765102139189
 31
0.0
  0
LINE
  5
5D3
  8
1
 10
73.25184613154704
 20
171.8876510213949
 30
0.0
 11
73.25184613154704
 21
101.8876510213889
 31
0.0
  0
LINE
  5
5E4
  8
2
 10
175.2894958760121
 20
155.38765102139189
 30
0.0
 11
175.2894958760121
 21
118.3876510213919
 31
0.0
  0
LINE
  5
5E5
  8
2
 10
175.2894958760121
 20
121.8876510213979
 30
0.0
 11
176.88949587601209
 21
121.8876510213979
 31
0.0
  0
LINE
  5
5E6
  8
2
 10
175.2894958760121
 20
151.887651021392
 30
0.0
 11
176.88949587601209
 21
151.887651021392
 31
0.0
  0
LINE
  5
68A
  8
1
 10
193.38949587601221
 20
118.8876510213949
 30
0.0
 11
193.38949587601221
 21
129.8876510213949
 31
0.0
  0
LINE
  5
68B
  8
1
 10
187.88949587601209
 20
124.3876510213949
 30
0.0
 11
198.88949587601221
 21
124.3876510213949
 31
0.0
  0
LINE
  5
68F
  8
1
 10
182.38949587601209
 20
118.8876510213949
 30
0.0
 11
182.38949587601209
 21
129.8876510213949
 31
0.0
  0
LINE
  5
690
  8
1
 10
176.88949587601209
 20
124.3876510213949
 30
0.0
 11
187.88949587601209
 21
124.3876510213949
 31
0.0
  0
LINE
  5
692
  8
1
 10
193.38949587601221
 20
143.8876510213949
 30
0.0
 11
193.38949587601221
 21
154.8876510213949
 31
0.0
  0
LINE
  5
693
  8
1
 10
187.88949587601209
 20
149.3876510213949
 30
0.0
 11
198.88949587601221
 21
149.3876510213949
 31
0.0
  0
LINE
  5
695
  8
1
 10
182.38949587601209
 20
143.8876510213949
 30
0.0
 11
182.38949587601209
 21
154.8876510213949
 31
0.0
  0
LINE
  5
696
  8
1
 10
176.88949587601209
 20
149.3876510213949
 30
0.0
 11
187.88949587601209
 21
149.3876510213949
 31
0.0
  0
LINE
  5
6AA
  8
1
 10
302.52714562047697
 20
171.8876510213949
 30
0.0
 11
302.52714562047697
 21
101.8876510213889
 31
0.0
  0
LINE
  5
6AB
  8
1
 10
267.52714562047402
 20
136.88765102139189
 30
0.0
 11
337.52714562047998
 21
136.88765102139189
 31
0.0
  0
CIRCLE
  5
6AC
  8
0
 10
302.52714562047697
 20
136.88765102139189
 30
0.0
 40
30.000000000003009
  0
CIRCLE
  5
6B5
  8
0
 10
302.52714562047697
 20
136.88765102139189
 30
0.0
 40
7.5
  0
CIRCLE
  5
6BB
  8
0
 10
302.52714562047697
 20
136.88765102139189
 30
0.0
 40
14.000000000000011
  0
CIRCLE
  5
6BC
  8
2
 10
73.25184613154704
 20
136.88765102139189
 30
0.0
 40
25.0
  0
CIRCLE
  5
6BD
  8
2
 10
302.52714562047697
 20
136.88765102139189
 30
0.0
 40
25.0
  0
TEXT
  5
7A5
  8
0
 62
     3
 10
0.0
 20
0.0
 30
0.0
 40
10.0
  1
FIPS4550
  7
STANDARD1
  0
ENDSEC
  0
EOF
