  0
SECTION
  2
HEADER
  9
$ACADVER
  1
AC1009
  9
$INSBASE
 10
0.0
 20
0.0
 30
0.0
  9
$EXTMIN
 10
0.0
 20
-2.960436562073669
 30
0.0
  9
$EXTMAX
 10
223.6984183694365
 20
160.29216844808909
 30
0.0
  9
$LIMMIN
 10
0.0
 20
0.0
  9
$LIMMAX
 10
375.0
 20
270.0
  9
$ORTHOMODE
 70
     1
  9
$REGENMODE
 70
     1
  9
$FILLMODE
 70
     1
  9
$QTEXTMODE
 70
     0
  9
$MIRRTEXT
 70
     0
  9
$DRAGMODE
 70
     2
  9
$LTSCALE
 40
5.0
  9
$OSMODE
 70
    55
  9
$ATTMODE
 70
     1
  9
$TEXTSIZE
 40
0.2
  9
$TRACEWID
 40
0.05
  9
$TEXTSTYLE
  7
STANDARD
  9
$CLAYER
  8
0
  9
$CELTYPE
  6
BYLAYER
  9
$CECOLOR
 62
   256
  9
$DIMSCALE
 40
1.0
  9
$DIMASZ
 40
3.0
  9
$DIMEXO
 40
2.0
  9
$DIMDLI
 40
0.38
  9
$DIMRND
 40
0.0
  9
$DIMDLE
 40
0.0
  9
$DIMEXE
 40
2.0
  9
$DIMTP
 40
0.0
  9
$DIMTM
 40
0.0
  9
$DIMTXT
 40
3.2000000000000002
  9
$DIMCEN
 40
0.0
  9
$DIMTSZ
 40
0.0
  9
$DIMTOL
 70
     0
  9
$DIMLIM
 70
     0
  9
$DIMTIH
 70
     0
  9
$DIMTOH
 70
     0
  9
$DIMSE1
 70
     0
  9
$DIMSE2
 70
     0
  9
$DIMTAD
 70
     1
  9
$DIMZIN
 70
     0
  9
$DIMBLK
  1

  9
$DIMASO
 70
     0
  9
$DIMSHO
 70
     0
  9
$DIMPOST
  1

  9
$DIMAPOST
  1

  9
$DIMALT
 70
     0
  9
$DIMALTD
 70
     2
  9
$DIMALTF
 40
25.399999999999999
  9
$DIMLFAC
 40
1.0
  9
$DIMTOFL
 70
     1
  9
$DIMTVP
 40
1.6000000000000001
  9
$DIMTIX
 70
     1
  9
$DIMSOXD
 70
     0
  9
$DIMSAH
 70
     0
  9
$DIMBLK1
  1

  9
$DIMBLK2
  1

  9
$DIMSTYLE
  2
STANDARD
  9
$DIMCLRD
 70
     0
  9
$DIMCLRE
 70
     0
  9
$DIMCLRT
 70
     0
  9
$DIMTFAC
 40
1.0
  9
$DIMGAP
 40
0.09
  9
$LUNITS
 70
     2
  9
$LUPREC
 70
     4
  9
$SKETCHINC
 40
0.1
  9
$FILLETRAD
 40
0.0
  9
$AUNITS
 70
     0
  9
$AUPREC
 70
     4
  9
$MENU
  1
E:\r13\win\SUPPORT\ACAD
  9
$ELEVATION
 40
0.0
  9
$PELEVATION
 40
0.0
  9
$THICKNESS
 40
0.0
  9
$LIMCHECK
 70
     0
  9
$BLIPMODE
 70
     0
  9
$CHAMFERA
 40
0.0
  9
$CHAMFERB
 40
0.0
  9
$SKPOLY
 70
     0
  9
$TDCREATE
 40
2450158.5993983801
  9
$TDUPDATE
 40
2456598.6410221299
  9
$TDINDWG
 40
0.0018465278
  9
$TDUSRTIMER
 40
0.0018465278
  9
$USRTIMER
 70
     1
  9
$ANGBASE
 50
0.0
  9
$ANGDIR
 70
     0
  9
$PDMODE
 70
     0
  9
$PDSIZE
 40
0.0
  9
$PLINEWID
 40
0.0
  9
$COORDS
 70
     1
  9
$SPLFRAME
 70
     0
  9
$SPLINETYPE
 70
     6
  9
$SPLINESEGS
 70
     8
  9
$ATTDIA
 70
     0
  9
$ATTREQ
 70
     1
  9
$HANDLING
 70
     1
  9
$HANDSEED
  5
315
  9
$SURFTAB1
 70
     6
  9
$SURFTAB2
 70
     6
  9
$SURFTYPE
 70
     6
  9
$SURFU
 70
     6
  9
$SURFV
 70
     6
  9
$UCSNAME
  2

  9
$UCSORG
 10
0.0
 20
0.0
 30
0.0
  9
$UCSXDIR
 10
1.0
 20
0.0
 30
0.0
  9
$UCSYDIR
 10
0.0
 20
1.0
 30
0.0
  9
$PUCSNAME
  2

  9
$PUCSORG
 10
0.0
 20
0.0
 30
0.0
  9
$PUCSXDIR
 10
1.0
 20
0.0
 30
0.0
  9
$PUCSYDIR
 10
0.0
 20
1.0
 30
0.0
  9
$USERI1
 70
     0
  9
$USERI2
 70
     1
  9
$USERI3
 70
     0
  9
$USERI4
 70
     0
  9
$USERI5
 70
     0
  9
$USERR1
 40
0.0
  9
$USERR2
 40
0.0
  9
$USERR3
 40
0.0
  9
$USERR4
 40
0.0
  9
$USERR5
 40
0.0
  9
$WORLDVIEW
 70
     1
  9
$SHADEDGE
 70
     3
  9
$SHADEDIF
 70
    70
  9
$TILEMODE
 70
     1
  9
$MAXACTVP
 70
    16
  9
$PLIMCHECK
 70
     0
  9
$PEXTMIN
 10
1.0000000000000000E+020
 20
1.0000000000000000E+020
 30
1.0000000000000000E+020
  9
$PEXTMAX
 10
-1.0000000000000000E+020
 20
-1.0000000000000000E+020
 30
-1.0000000000000000E+020
  9
$PLIMMIN
 10
0.0
 20
0.0
  9
$PLIMMAX
 10
12.0
 20
9.0
  9
$UNITMODE
 70
     0
  9
$VISRETAIN
 70
     0
  9
$PLINEGEN
 70
     0
  9
$PSLTSCALE
 70
     0
  0
ENDSEC
  0
SECTION
  2
TABLES
  0
TABLE
  2
VPORT
 70
     1
  0
VPORT
  2
*ACTIVE
 70
     0
 10
0.0
 20
0.0
 11
1.0
 21
1.0
 12
187.49427839065231
 22
174.91677254346851
 13
0.0
 23
0.0
 14
10.0
 24
10.0
 15
10.0
 25
10.0
 16
0.0
 26
0.0
 36
1.0
 17
0.0
 27
0.0
 37
0.0
 40
358.92027899574339
 41
1.7807262569832401
 42
50.0
 43
0.0
 44
0.0
 50
0.0
 51
0.0
 71
     0
 72
   100
 73
     1
 74
     0
 75
     0
 76
     0
 77
     0
 78
     2
  0
ENDTAB
  0
TABLE
  2
LTYPE
 70
     4
  0
LTYPE
  2
CONTINUOUS
 70
     0
  3
Solid Line
 72
    65
 73
     0
 40
0.0
  0
LTYPE
  2
CENTER
 70
     0
  3
____ _ ____ _ ____ _ ____ _ ____ _ ____ _ ____
 72
    65
 73
     4
 40
2.0
 49
1.25
 49
-0.25
 49
0.25
 49
-0.25
  0
LTYPE
  2
HIDDEN
 70
     0
  3
_ _ _ _ _ _ _ _ _ _ _ _ _ _ _ _ _ _ _ _ _ _ _
 72
    65
 73
     2
 40
0.375
 49
0.25
 49
-0.125
  0
LTYPE
  2
PHANTOM2
 70
     0
  3
___ _ _ ___ _ _ ___ _ _ ___ _ _
 72
    65
 73
     6
 40
1.25
 49
0.625
 49
-0.125
 49
0.125
 49
-0.125
 49
0.125
 49
-0.125
  0
ENDTAB
  0
TABLE
  2
LAYER
 70
     3
  0
LAYER
  2
0
 70
     0
 62
     7
  6
CONTINUOUS
  0
LAYER
  2
1
 70
     0
 62
     1
  6
CENTER
  0
LAYER
  2
2
 70
     0
 62
     2
  6
HIDDEN
  0
ENDTAB
  0
TABLE
  2
STYLE
 70
     2
  0
STYLE
  2
STANDARD
 70
     0
 40
0.0
 41
1.0
 50
0.0
 71
     0
 42
0.2
  3
SIMPLEX
  4
BIGFONT
  0
STYLE
  2
STANDARD1
 70
     0
 40
0.0
 41
1.0
 50
0.0
 71
     0
 42
3.0
  3
txt
  4

  0
ENDTAB
  0
TABLE
  2
VIEW
 70
     1
  0
VIEW
  2
ALL
 70
     0
 40
270.0
 10
220.99159700000001
 20
135.0
 41
0.0
 11
0.0
 21
0.0
 31
1.0
 12
0.0
 22
0.0
 32
0.0
 42
0.0
 43
0.0
 44
0.0
 50
0.0
 71
     0
  0
ENDTAB
  0
TABLE
  2
UCS
 70
     0
  0
ENDTAB
  0
TABLE
  2
APPID
 70
     3
  0
APPID
  2
ACAD
 70
     0
  0
APPID
  2
ACAD_MLEADERVER
 70
     0
  0
APPID
  2
ACAD_NAV_VCDISPLAY
 70
     0
  0
ENDTAB
  0
TABLE
  2
DIMSTYLE
 70
     1
  0
DIMSTYLE
  2
STANDARD
 70
     0
  3

  4

  5

  6

  7

 40
1.0
 41
0.18
 42
0.0625
 43
0.38
 44
0.18
 45
0.0
 46
0.0
 47
0.0
 48
0.0
140
0.18
141
0.09
142
0.0
143
25.399999999999999
144
1.0
145
0.0
146
1.0
147
0.09
 71
     0
 72
     0
 73
     1
 74
     1
 75
     0
 76
     0
 77
     0
 78
     0
170
     0
171
     2
172
     0
173
     0
174
     0
175
     0
176
     0
177
     0
178
     0
  0
ENDTAB
  0
ENDSEC
  0
SECTION
  2
BLOCKS
  0
BLOCK
  8
0
  2
$MODEL_SPACE
 70
     0
 10
0.0
 20
0.0
 30
0.0
  3
$MODEL_SPACE
  1

  0
ENDBLK
  5
F6
  8
0
  0
BLOCK
 67
     1
  8
0
  2
$PAPER_SPACE
 70
     0
 10
0.0
 20
0.0
 30
0.0
  3
$PAPER_SPACE
  1

  0
ENDBLK
  5
F4
 67
     1
  8
0
  0
ENDSEC
  0
SECTION
  2
ENTITIES
  0
LINE
  5
114
  8
2
 10
204.15713052196011
 20
106.2921684480922
 30
0.0
 11
200.9484183694365
 21
106.2921684480922
 31
0.0
  0
LINE
  5
115
  8
2
 10
204.15713052196011
 20
104.2921684480885
 30
0.0
 11
200.9484183694365
 21
104.2921684480885
 31
0.0
  0
LINE
  5
116
  8
2
 10
211.9484183694365
 20
106.2921684480922
 30
0.0
 11
208.73970621691279
 21
106.2921684480922
 31
0.0
  0
LINE
  5
117
  8
2
 10
211.9484183694365
 20
104.2921684480885
 30
0.0
 11
208.73970621691279
 21
104.2921684480885
 31
0.0
  0
CIRCLE
  5
118
  8
2
 10
206.4484183694365
 20
105.2921684480885
 30
0.0
 40
2.5
  0
LINE
  5
119
  8
2
 10
201.9484183694365
 20
110.2921684480884
 30
0.0
 11
210.9484183694365
 21
110.2921684480884
 31
0.0
  0
ARC
  5
11A
  8
2
 10
201.9484183694365
 20
109.2921684480884
 30
0.0
 40
1.0
 50
90.000000000000028
 51
179.99999999999989
  0
ARC
  5
11B
  8
2
 10
210.9484183694365
 20
109.2921684480884
 30
0.0
 40
1.0
 50
0.0
 51
90.000000000000028
  0
ARC
  5
11C
  8
2
 10
210.9484183694365
 20
101.2921684480888
 30
0.0
 40
1.0
 50
270.0
 51
0.0
  0
ARC
  5
11D
  8
2
 10
201.9484183694365
 20
101.2921684480888
 30
0.0
 40
1.0
 50
180.0
 51
270.0
  0
LINE
  5
11E
  8
2
 10
211.94841836943641
 20
101.2921684480888
 30
0.0
 11
211.94841836943661
 21
134.292168448089
 31
0.0
  0
LINE
  5
11F
  8
2
 10
201.9484183694365
 20
100.2921684480888
 30
0.0
 11
210.9484183694365
 21
100.2921684480888
 31
0.0
  0
LINE
  5
120
  8
2
 10
200.9484183694365
 20
134.2921684480888
 30
0.0
 11
200.9484183694365
 21
101.2921684480888
 31
0.0
  0
LINE
  5
121
  8
2
 10
213.94841836943621
 20
101.2921684480891
 30
0.0
 11
211.9484183694365
 21
101.2921684480891
 31
0.0
  0
LINE
  5
122
  8
2
 10
213.9484183694363
 20
144.292168448089
 30
0.0
 11
213.94841836943621
 21
91.292168448089129
 31
0.0
  0
LINE
  5
123
  8
2
 10
213.94841836943621
 20
91.292168448089129
 30
0.0
 11
209.44841836943721
 21
91.292168448089129
 31
0.0
  0
ARC
  5
124
  8
2
 10
209.44841836943721
 20
91.792168448089143
 30
0.0
 40
0.5
 50
180.0
 51
270.0
  0
LINE
  5
125
  8
2
 10
208.94841836943721
 20
95.792168448088916
 30
0.0
 11
208.94841836943721
 21
93.352828619870508
 31
0.0
  0
LINE
  5
126
  8
2
 10
203.94841836943581
 20
95.792168448088916
 30
0.0
 11
203.94841836943581
 21
93.352828619870508
 31
0.0
  0
ARC
  5
127
  8
2
 10
203.44841836943581
 20
91.792168448089143
 30
0.0
 40
0.5
 50
270.0
 51
359.99999999999989
  0
LINE
  5
128
  8
2
 10
198.94841836943669
 20
91.292168448089114
 30
0.0
 11
203.44841836943581
 21
91.292168448089129
 31
0.0
  0
LINE
  5
129
  8
2
 10
198.94841836943669
 20
144.292168448089
 30
0.0
 11
198.94841836943669
 21
91.292168448089114
 31
0.0
  0
LINE
  5
12A
  8
2
 10
198.94841836943669
 20
101.2921684480891
 30
0.0
 11
200.9484183694365
 21
101.2921684480891
 31
0.0
  0
LINE
  5
12B
  8
2
 10
213.94841836943621
 20
96.292168448088916
 30
0.0
 11
209.44841836943721
 21
96.292168448088916
 31
0.0
  0
LINE
  5
12C
  8
2
 10
198.94841836943669
 20
96.292168448088944
 30
0.0
 11
203.44841836943581
 21
96.292168448088916
 31
0.0
  0
ARC
  5
12D
  8
2
 10
203.44841836943581
 20
95.792168448088916
 30
0.0
 40
0.5
 50
0.0000000000006247
 51
90.000000000000028
  0
ARC
  5
12E
  8
2
 10
209.44841836943721
 20
95.792168448088916
 30
0.0
 40
0.5
 50
90.000000000000028
 51
180.0
  0
LINE
  5
12F
  8
2
 10
213.94841836943621
 20
91.292168448089129
 30
0.0
 11
218.6984183694365
 21
91.292168448089129
 31
0.0
  0
LINE
  5
130
  8
2
 10
198.94841836943669
 20
91.292168448089114
 30
0.0
 11
194.1984183694365
 21
91.292168448089114
 31
0.0
  0
LINE
  5
131
  8
1
 10
206.4484183694365
 20
80.2921684480891
 30
0.0
 11
206.4484183694365
 21
155.292168448089
 31
0.0
  0
LINE
  5
132
  8
1
 10
189.1984183694365
 20
117.7921684480891
 30
0.0
 11
223.6984183694365
 21
117.7921684480891
 31
0.0
  0
LINE
  5
133
  8
0
 10
98.174787474119228
 20
91.311043094358325
 30
0.0
 11
98.174787474119228
 21
96.315436853174305
 31
0.0
  0
LINE
  5
134
  8
0
 10
108.23255494988631
 20
93.709482168276637
 30
0.0
 11
106.31745636935629
 21
98.332939134673936
 31
0.0
  0
LINE
  5
135
  8
0
 10
106.38479588486381
 20
92.944115303546454
 30
0.0
 11
104.46969730433371
 21
97.567572269943767
 31
0.0
  0
LINE
  5
136
  8
0
 10
116.60687756637969
 20
99.774291918201598
 30
0.0
 11
113.0682368037933
 21
103.31293268078799
 31
0.0
  0
LINE
  5
137
  8
0
 10
115.1926640040067
 20
98.360078355828506
 30
0.0
 11
111.65402324142021
 21
101.8987191184149
 31
0.0
  0
LINE
  5
138
  8
0
 10
122.0228406186618
 20
108.58216003734439
 30
0.0
 11
117.3993836522645
 21
110.49725861787461
 31
0.0
  0
LINE
  5
139
  8
0
 10
121.25747375393161
 20
106.73440097232189
 30
0.0
 11
116.63401678753431
 21
108.64949955285201
 31
0.0
  0
LINE
  5
13A
  8
0
 10
123.6559128278499
 20
118.792168448089
 30
0.0
 11
118.65151906903399
 21
118.792168448089
 31
0.0
  0
LINE
  5
13B
  8
0
 10
123.6559128278499
 20
116.7921684480891
 30
0.0
 11
118.65151906903399
 21
116.792168448089
 31
0.0
  0
LINE
  5
13C
  8
0
 10
121.25747375393161
 20
128.84993592385621
 30
0.0
 11
116.63401678753431
 21
126.93483734332609
 31
0.0
  0
LINE
  5
13D
  8
0
 10
122.0228406186618
 20
127.00217685883359
 30
0.0
 11
117.3993836522645
 21
125.08707827830349
 31
0.0
  0
LINE
  5
13E
  8
0
 10
115.1926640040067
 20
137.22425854034961
 30
0.0
 11
111.65402324142021
 21
133.6856177777631
 31
0.0
  0
LINE
  5
13F
  8
0
 10
116.60687756637979
 20
135.8100449779765
 30
0.0
 11
113.0682368037933
 21
132.27140421538999
 31
0.0
  0
LINE
  5
140
  8
0
 10
106.38479588486381
 20
142.6402215926316
 30
0.0
 11
104.46969730433371
 21
138.01676462623431
 31
0.0
  0
LINE
  5
141
  8
0
 10
108.23255494988631
 20
141.87485472790149
 30
0.0
 11
106.31745636935629
 21
137.25139776150411
 31
0.0
  0
LINE
  5
142
  8
0
 10
98.174787474119228
 20
144.2732938018197
 30
0.0
 11
98.174787474119228
 21
139.26890004300381
 31
0.0
  0
CIRCLE
  5
143
  8
0
 10
97.174787474119242
 20
117.7921684480891
 30
0.0
 40
37.500000000000028
  0
CIRCLE
  5
144
  8
0
 10
97.174787474119242
 20
117.7921684480891
 30
0.0
 40
26.500000000000028
  0
CIRCLE
  5
145
  8
0
 10
97.174787474119242
 20
117.7921684480891
 30
0.0
 40
21.500000000000242
  0
CIRCLE
  5
146
  8
0
 10
97.174787474119242
 20
117.7921684480891
 30
0.0
 40
16.500000000000011
  0
CIRCLE
  5
147
  8
0
 10
97.174787474119242
 20
117.7921684480891
 30
0.0
 40
7.5000000000000284
  0
LINE
  5
148
  8
2
 10
198.94841836943669
 20
144.292168448089
 30
0.0
 11
194.1984183694365
 21
144.292168448089
 31
0.0
  0
LINE
  5
149
  8
2
 10
213.94841836943621
 20
144.292168448089
 30
0.0
 11
218.6984183694365
 21
144.292168448089
 31
0.0
  0
ARC
  5
14A
  8
2
 10
209.44841836943721
 20
139.7921684480892
 30
0.0
 40
0.5
 50
180.0
 51
270.0
  0
ARC
  5
14B
  8
2
 10
203.44841836943581
 20
139.7921684480892
 30
0.0
 40
0.5
 50
270.0
 51
359.99999999999937
  0
LINE
  5
14C
  8
1
 10
54.674787474119199
 20
117.792168448089
 30
0.0
 11
139.6747874741192
 21
117.7921684480891
 31
0.0
  0
LINE
  5
14D
  8
1
 10
97.174787474119242
 20
160.29216844808909
 30
0.0
 11
97.174787474119242
 21
75.292168448089058
 31
0.0
  0
LINE
  5
14E
  8
0
 10
96.174787474119213
 20
144.2732938018197
 30
0.0
 11
96.174787474119213
 21
139.26890004300381
 31
0.0
  0
LINE
  5
14F
  8
0
 10
86.117019998352077
 20
141.87485472790149
 30
0.0
 11
88.032118578882205
 21
137.25139776150411
 31
0.0
  0
LINE
  5
150
  8
0
 10
87.964779063374635
 20
142.6402215926316
 30
0.0
 11
89.879877643904763
 21
138.01676462623431
 31
0.0
  0
LINE
  5
151
  8
0
 10
77.742697381858704
 20
135.8100449779765
 30
0.0
 11
81.281338144445101
 21
132.27140421538999
 31
0.0
  0
LINE
  5
152
  8
0
 10
79.156910944231811
 20
137.22425854034961
 30
0.0
 11
82.695551706818208
 21
133.6856177777631
 31
0.0
  0
LINE
  5
153
  8
0
 10
72.326734329576652
 20
127.00217685883359
 30
0.0
 11
76.950191295973923
 21
125.08707827830349
 31
0.0
  0
LINE
  5
154
  8
0
 10
73.092101194306792
 20
128.84993592385621
 30
0.0
 11
77.71555816070412
 21
126.93483734332609
 31
0.0
  0
LINE
  5
155
  8
0
 10
70.693662120388524
 20
116.7921684480891
 30
0.0
 11
75.698055879204503
 21
116.792168448089
 31
0.0
  0
LINE
  5
156
  8
0
 10
70.693662120388524
 20
118.792168448089
 30
0.0
 11
75.698055879204503
 21
118.792168448089
 31
0.0
  0
LINE
  5
157
  8
0
 10
73.092101194306792
 20
106.73440097232189
 30
0.0
 11
77.71555816070412
 21
108.64949955285201
 31
0.0
  0
LINE
  5
158
  8
0
 10
72.326734329576652
 20
108.58216003734439
 30
0.0
 11
76.950191295973923
 21
110.49725861787461
 31
0.0
  0
LINE
  5
159
  8
0
 10
79.156910944231811
 20
98.360078355828506
 30
0.0
 11
82.695551706818208
 21
101.8987191184149
 31
0.0
  0
LINE
  5
15A
  8
0
 10
77.742697381858704
 20
99.774291918201598
 30
0.0
 11
81.281338144445101
 21
103.31293268078799
 31
0.0
  0
LINE
  5
15B
  8
0
 10
87.964779063374635
 20
92.944115303546454
 30
0.0
 11
89.879877643904763
 21
97.567572269943767
 31
0.0
  0
LINE
  5
15C
  8
0
 10
86.117019998352077
 20
93.709482168276637
 30
0.0
 11
88.032118578882205
 21
98.332939134673936
 31
0.0
  0
LINE
  5
15D
  8
0
 10
96.174787474119213
 20
91.311043094358325
 30
0.0
 11
96.174787474119213
 21
96.315436853174305
 31
0.0
  0
ARC
  5
15E
  8
0
 10
218.1984183694365
 20
80.792168448089058
 30
0.0
 40
0.5
 50
270.0
 51
0.0
  0
ARC
  5
15F
  8
0
 10
216.6984183694365
 20
80.792168448089058
 30
0.0
 40
0.5
 50
179.99999999999989
 51
270.0
  0
ARC
  5
160
  8
0
 10
196.1984183694365
 20
80.792168448089058
 30
0.0
 40
0.5
 50
270.0
 51
359.99999999999989
  0
ARC
  5
161
  8
0
 10
194.6984183694365
 20
80.792168448089058
 30
0.0
 40
0.5
 50
180.0
 51
270.0
  0
ARC
  5
162
  8
0
 10
218.1984183694365
 20
154.792168448089
 30
0.0
 40
0.5
 50
0.0
 51
90.0
  0
ARC
  5
163
  8
0
 10
194.6984183694365
 20
154.79216844808909
 30
0.0
 40
0.5
 50
90.0
 51
179.99999999999989
  0
LINE
  5
164
  8
2
 10
198.94841836943669
 20
139.2921684480892
 30
0.0
 11
203.44841836943581
 21
139.2921684480892
 31
0.0
  0
LINE
  5
165
  8
2
 10
213.94841836943621
 20
139.2921684480892
 30
0.0
 11
209.44841836943721
 21
139.2921684480892
 31
0.0
  0
LINE
  5
166
  8
2
 10
198.94841836943669
 20
134.292168448089
 30
0.0
 11
200.9484183694365
 21
134.292168448089
 31
0.0
  0
LINE
  5
167
  8
2
 10
198.94841836943669
 20
144.292168448089
 30
0.0
 11
203.44841836943581
 21
144.292168448089
 31
0.0
  0
ARC
  5
168
  8
2
 10
203.44841836943581
 20
143.792168448089
 30
0.0
 40
0.5
 50
0.0000000000001018
 51
90.0
  0
LINE
  5
169
  8
2
 10
203.94841836943581
 20
139.7921684480892
 30
0.0
 11
203.94841836943581
 21
142.23150827630761
 31
0.0
  0
LINE
  5
16A
  8
2
 10
208.94841836943721
 20
139.7921684480892
 30
0.0
 11
208.94841836943721
 21
142.23150827630761
 31
0.0
  0
ARC
  5
16B
  8
2
 10
209.44841836943721
 20
143.792168448089
 30
0.0
 40
0.5
 50
90.0
 51
179.99999999999989
  0
LINE
  5
16C
  8
2
 10
213.94841836943621
 20
144.292168448089
 30
0.0
 11
209.44841836943721
 21
144.292168448089
 31
0.0
  0
LINE
  5
16D
  8
2
 10
213.94841836943621
 20
134.292168448089
 30
0.0
 11
211.9484183694365
 21
134.292168448089
 31
0.0
  0
LINE
  5
16E
  8
2
 10
201.9484183694365
 20
135.2921684480894
 30
0.0
 11
210.9484183694365
 21
135.2921684480894
 31
0.0
  0
ARC
  5
16F
  8
2
 10
201.9484183694365
 20
134.29216844808931
 30
0.0
 40
1.0
 50
90.0
 51
179.99999999999989
  0
ARC
  5
170
  8
2
 10
210.9484183694365
 20
134.29216844808931
 30
0.0
 40
1.0
 50
0.0
 51
90.0
  0
ARC
  5
171
  8
2
 10
210.9484183694365
 20
126.2921684480898
 30
0.0
 40
1.0
 50
270.0
 51
0.0
  0
ARC
  5
172
  8
2
 10
201.9484183694365
 20
126.2921684480898
 30
0.0
 40
1.0
 50
180.0
 51
270.0
  0
LINE
  5
173
  8
2
 10
201.9484183694365
 20
125.2921684480898
 30
0.0
 11
210.9484183694365
 21
125.2921684480898
 31
0.0
  0
CIRCLE
  5
174
  8
2
 10
206.4484183694365
 20
130.2921684480896
 30
0.0
 40
2.5
  0
LINE
  5
175
  8
2
 10
211.9484183694365
 20
131.2921684480896
 30
0.0
 11
208.73970621691279
 21
131.2921684480896
 31
0.0
  0
LINE
  5
176
  8
2
 10
211.9484183694365
 20
129.2921684480859
 30
0.0
 11
208.73970621691279
 21
129.2921684480859
 31
0.0
  0
LINE
  5
177
  8
2
 10
204.15713052196011
 20
131.2921684480896
 30
0.0
 11
200.9484183694365
 21
131.2921684480896
 31
0.0
  0
LINE
  5
178
  8
2
 10
204.15713052196011
 20
129.2921684480859
 30
0.0
 11
200.9484183694365
 21
129.2921684480859
 31
0.0
  0
LINE
  5
179
  8
0
 10
215.6984183694365
 20
85.292168448089086
 30
0.0
 11
197.1984183694365
 21
85.292168448089114
 31
0.0
  0
ARC
  5
17A
  8
0
 10
197.1984183694365
 20
84.792168448089114
 30
0.0
 40
0.5
 50
90.0
 51
180.0000000000004
  0
ARC
  5
17B
  8
0
 10
215.6984183694365
 20
84.792168448089086
 30
0.0
 40
0.5
 50
0.0
 51
90.0
  0
ARC
  5
17C
  8
0
 10
216.6984183694365
 20
154.792168448089
 30
0.0
 40
0.5
 50
90.0
 51
179.99999999999989
  0
ARC
  5
17D
  8
0
 10
215.6984183694365
 20
150.792168448089
 30
0.0
 40
0.5
 50
270.0
 51
0.0
  0
ARC
  5
17E
  8
0
 10
197.1984183694365
 20
150.792168448089
 30
0.0
 40
0.5
 50
179.9999999999996
 51
270.0
  0
ARC
  5
17F
  8
0
 10
196.1984183694365
 20
154.792168448089
 30
0.0
 40
0.5
 50
359.9999999999996
 51
90.0
  0
LINE
  5
180
  8
0
 10
216.6984183694365
 20
80.292168448089043
 30
0.0
 11
218.1984183694365
 21
80.292168448089043
 31
0.0
  0
LINE
  5
181
  8
0
 10
216.19841836943661
 20
154.792168448089
 30
0.0
 11
216.19841836943641
 21
80.792168448089058
 31
0.0
  0
LINE
  5
182
  8
0
 10
196.6984183694365
 20
80.792168448089058
 30
0.0
 11
196.6984183694365
 21
154.792168448089
 31
0.0
  0
LINE
  5
183
  8
0
 10
194.6984183694365
 20
80.292168448089043
 30
0.0
 11
196.1984183694365
 21
80.292168448089043
 31
0.0
  0
LINE
  5
184
  8
0
 10
194.1984183694365
 20
154.79216844808909
 30
0.0
 11
194.1984183694365
 21
80.792168448089058
 31
0.0
  0
LINE
  5
185
  8
0
 10
196.1984183694365
 20
155.292168448089
 30
0.0
 11
194.6984183694365
 21
155.29216844808909
 31
0.0
  0
LINE
  5
186
  8
0
 10
215.6984183694365
 20
150.292168448089
 30
0.0
 11
197.1984183694365
 21
150.292168448089
 31
0.0
  0
LINE
  5
187
  8
0
 10
218.1984183694365
 20
155.292168448089
 30
0.0
 11
216.6984183694365
 21
155.292168448089
 31
0.0
  0
LINE
  5
188
  8
0
 10
218.6984183694365
 20
80.792168448089058
 30
0.0
 11
218.6984183694365
 21
154.792168448089
 31
0.0
  0
CIRCLE
  5
190
  8
2
 10
97.174787474119242
 20
117.7921684480891
 30
0.0
 40
32.499999999999922
  0
LINE
  5
19C
  8
1
 10
200.4484183694365
 20
130.2921684480896
 30
0.0
 11
212.4484183694365
 21
130.2921684480896
 31
0.0
  0
LINE
  5
19D
  8
1
 10
206.4484183694365
 20
124.2921684480896
 30
0.0
 11
206.4484183694365
 21
136.2921684480896
 31
0.0
  0
LINE
  5
19F
  8
1
 10
200.4484183694365
 20
105.2921684480885
 30
0.0
 11
212.4484183694365
 21
105.2921684480885
 31
0.0
  0
TEXT
  5
285
  8
0
 62
     3
 10
0.0
 20
0.0
 30
0.0
 40
10.0
  1
FIP2065
  7
STANDARD1
  0
ENDSEC
  0
EOF
