  0
SECTION
  2
HEADER
  9
$ACADVER
  1
AC1009
  9
$INSBASE
 10
0.0
 20
0.0
 30
0.0
  9
$EXTMIN
 10
0.0
 20
-2.960436562073669
 30
0.0
  9
$EXTMAX
 10
185.5
 20
164.0
 30
0.0
  9
$LIMMIN
 10
0.0
 20
0.0
  9
$LIMMAX
 10
187.5
 20
135.0
  9
$ORTHOMODE
 70
     1
  9
$REGENMODE
 70
     1
  9
$FILLMODE
 70
     1
  9
$QTEXTMODE
 70
     0
  9
$MIRRTEXT
 70
     0
  9
$DRAGMODE
 70
     2
  9
$LTSCALE
 40
5.0
  9
$OSMODE
 70
    37
  9
$ATTMODE
 70
     1
  9
$TEXTSIZE
 40
0.2
  9
$TRACEWID
 40
0.05
  9
$TEXTSTYLE
  7
STANDARD
  9
$CLAYER
  8
0
  9
$CELTYPE
  6
BYLAYER
  9
$CECOLOR
 62
   256
  9
$DIMSCALE
 40
0.5
  9
$DIMASZ
 40
3.0
  9
$DIMEXO
 40
2.0
  9
$DIMDLI
 40
0.38
  9
$DIMRND
 40
0.0
  9
$DIMDLE
 40
0.0
  9
$DIMEXE
 40
2.0
  9
$DIMTP
 40
0.0
  9
$DIMTM
 40
0.0
  9
$DIMTXT
 40
3.2000000000000002
  9
$DIMCEN
 40
0.0
  9
$DIMTSZ
 40
0.0
  9
$DIMTOL
 70
     0
  9
$DIMLIM
 70
     0
  9
$DIMTIH
 70
     0
  9
$DIMTOH
 70
     0
  9
$DIMSE1
 70
     0
  9
$DIMSE2
 70
     0
  9
$DIMTAD
 70
     1
  9
$DIMZIN
 70
     8
  9
$DIMBLK
  1

  9
$DIMASO
 70
     1
  9
$DIMSHO
 70
     0
  9
$DIMPOST
  1

  9
$DIMAPOST
  1

  9
$DIMALT
 70
     0
  9
$DIMALTD
 70
     2
  9
$DIMALTF
 40
25.399999999999999
  9
$DIMLFAC
 40
1.0
  9
$DIMTOFL
 70
     1
  9
$DIMTVP
 40
1.6000000000000001
  9
$DIMTIX
 70
     1
  9
$DIMSOXD
 70
     0
  9
$DIMSAH
 70
     0
  9
$DIMBLK1
  1

  9
$DIMBLK2
  1

  9
$DIMSTYLE
  2
STANDARD
  9
$DIMCLRD
 70
     0
  9
$DIMCLRE
 70
     0
  9
$DIMCLRT
 70
     0
  9
$DIMTFAC
 40
1.0
  9
$DIMGAP
 40
0.09
  9
$LUNITS
 70
     2
  9
$LUPREC
 70
     1
  9
$SKETCHINC
 40
0.1
  9
$FILLETRAD
 40
0.0
  9
$AUNITS
 70
     0
  9
$AUPREC
 70
     1
  9
$MENU
  1
E:\r13\win\SUPPORT\ACAD
  9
$ELEVATION
 40
0.0
  9
$PELEVATION
 40
0.0
  9
$THICKNESS
 40
0.0
  9
$LIMCHECK
 70
     0
  9
$BLIPMODE
 70
     0
  9
$CHAMFERA
 40
0.5
  9
$CHAMFERB
 40
0.5
  9
$SKPOLY
 70
     0
  9
$TDCREATE
 40
2449839.7943402771
  9
$TDUPDATE
 40
2458970.3924094099
  9
$TDINDWG
 40
0.1177843403
  9
$TDUSRTIMER
 40
0.1177843403
  9
$USRTIMER
 70
     1
  9
$ANGBASE
 50
0.0
  9
$ANGDIR
 70
     0
  9
$PDMODE
 70
     0
  9
$PDSIZE
 40
0.0
  9
$PLINEWID
 40
0.0
  9
$COORDS
 70
     1
  9
$SPLFRAME
 70
     0
  9
$SPLINETYPE
 70
     6
  9
$SPLINESEGS
 70
     8
  9
$ATTDIA
 70
     0
  9
$ATTREQ
 70
     1
  9
$HANDLING
 70
     1
  9
$HANDSEED
  5
A21
  9
$SURFTAB1
 70
     6
  9
$SURFTAB2
 70
     6
  9
$SURFTYPE
 70
     6
  9
$SURFU
 70
     6
  9
$SURFV
 70
     6
  9
$UCSNAME
  2

  9
$UCSORG
 10
0.0
 20
0.0
 30
0.0
  9
$UCSXDIR
 10
1.0
 20
0.0
 30
0.0
  9
$UCSYDIR
 10
0.0
 20
1.0
 30
0.0
  9
$PUCSNAME
  2

  9
$PUCSORG
 10
0.0
 20
0.0
 30
0.0
  9
$PUCSXDIR
 10
1.0
 20
0.0
 30
0.0
  9
$PUCSYDIR
 10
0.0
 20
1.0
 30
0.0
  9
$USERI1
 70
     0
  9
$USERI2
 70
     1
  9
$USERI3
 70
     1
  9
$USERI4
 70
     0
  9
$USERI5
 70
     0
  9
$USERR1
 40
0.0
  9
$USERR2
 40
0.0
  9
$USERR3
 40
0.0
  9
$USERR4
 40
0.0
  9
$USERR5
 40
0.0
  9
$WORLDVIEW
 70
     1
  9
$SHADEDGE
 70
     3
  9
$SHADEDIF
 70
    70
  9
$TILEMODE
 70
     1
  9
$MAXACTVP
 70
    16
  9
$PLIMCHECK
 70
     0
  9
$PEXTMIN
 10
1.0000000000000000E+020
 20
1.0000000000000000E+020
 30
1.0000000000000000E+020
  9
$PEXTMAX
 10
-1.0000000000000000E+020
 20
-1.0000000000000000E+020
 30
-1.0000000000000000E+020
  9
$PLIMMIN
 10
0.0
 20
0.0
  9
$PLIMMAX
 10
12.0
 20
9.0
  9
$UNITMODE
 70
     0
  9
$VISRETAIN
 70
     0
  9
$PLINEGEN
 70
     0
  9
$PSLTSCALE
 70
     0
  0
ENDSEC
  0
SECTION
  2
TABLES
  0
TABLE
  2
VPORT
 70
     1
  0
VPORT
  2
*ACTIVE
 70
     0
 10
0.0
 20
0.0
 11
1.0
 21
1.0
 12
241.56441717791409
 22
100.0
 13
0.0
 23
0.0
 14
5.0
 24
5.0
 15
5.0
 25
5.0
 16
0.0
 26
0.0
 36
1.0
 17
0.0
 27
0.0
 37
0.0
 40
200.0
 41
2.415644171779141
 42
50.0
 43
0.0
 44
0.0
 50
0.0
 51
0.0
 71
     0
 72
   500
 73
     1
 74
     0
 75
     0
 76
     0
 77
     0
 78
     2
  0
ENDTAB
  0
TABLE
  2
LTYPE
 70
     3
  0
LTYPE
  2
CONTINUOUS
 70
     0
  3
Solid Line
 72
    65
 73
     0
 40
0.0
  0
LTYPE
  2
CENTER
 70
     0
  3
____ _ ____ _ ____ _ ____ _ ____ _ ____ _ ____
 72
    65
 73
     4
 40
2.0
 49
1.25
 49
-0.25
 49
0.25
 49
-0.25
  0
LTYPE
  2
PHANTOM2
 70
     0
  3
___ _ _ ___ _ _ ___ _ _ ___ _ _
 72
    65
 73
     6
 40
1.25
 49
0.625
 49
-0.125
 49
0.125
 49
-0.125
 49
0.125
 49
-0.125
  0
ENDTAB
  0
TABLE
  2
LAYER
 70
     4
  0
LAYER
  2
0
 70
     0
 62
     7
  6
CONTINUOUS
  0
LAYER
  2
1
 70
     0
 62
     1
  6
CENTER
  0
LAYER
  2
3
 70
     0
 62
     3
  6
CONTINUOUS
  0
LAYER
  2
DEFPOINTS
 70
     0
 62
     7
  6
CONTINUOUS
  0
ENDTAB
  0
TABLE
  2
STYLE
 70
     3
  0
STYLE
  2
STANDARD
 70
     0
 40
0.0
 41
1.0
 50
0.0
 71
     0
 42
0.2
  3
TXT
  4
BIGFONT
  0
STYLE
  2
SIM080
 70
     0
 40
0.0
 41
0.8
 50
0.0
 71
     0
 42
0.7
  3
SIMPLEX
  4

  0
STYLE
  2
STANDARD1
 70
     0
 40
0.0
 41
1.0
 50
0.0
 71
     0
 42
3.0
  3
txt
  4

  0
ENDTAB
  0
TABLE
  2
VIEW
 70
     1
  0
VIEW
  2
ALL
 70
     0
 40
179.5384664489153
 10
135.0
 20
89.769233224457665
 41
0.0
 11
0.0
 21
0.0
 31
1.0
 12
0.0
 22
0.0
 32
0.0
 42
0.0
 43
0.0
 44
0.0
 50
0.0
 71
     0
  0
ENDTAB
  0
TABLE
  2
UCS
 70
     0
  0
ENDTAB
  0
TABLE
  2
APPID
 70
     7
  0
APPID
  2
ACAD
 70
     0
  0
APPID
  2
ACAD_MLEADERVER
 70
     0
  0
APPID
  2
ACAD_EXEMPT_FROM_CAD_STANDARDS
 70
     0
  0
APPID
  2
ACAD_NAV_VCDISPLAY
 70
     0
  0
APPID
  2
ACAD_DSTYLE_DIMRADIAL_EXTENSION
 70
     0
  0
APPID
  2
ACAD_DSTYLE_DIMJAG
 70
     0
  0
APPID
  2
ACAD_DSTYLE_DIMTALN
 70
     0
  0
ENDTAB
  0
TABLE
  2
DIMSTYLE
 70
     1
  0
DIMSTYLE
  2
STANDARD
 70
     0
  3

  4

  5

  6

  7

 40
1.0
 41
0.18
 42
0.0625
 43
0.38
 44
0.18
 45
0.0
 46
0.0
 47
0.0
 48
0.0
140
0.18
141
0.09
142
0.0
143
25.399999999999999
144
1.0
145
0.0
146
1.0
147
0.09
 71
     0
 72
     0
 73
     1
 74
     1
 75
     0
 76
     0
 77
     0
 78
     0
170
     0
171
     2
172
     0
173
     0
174
     0
175
     0
176
     0
177
     0
178
     0
  0
ENDTAB
  0
ENDSEC
  0
SECTION
  2
BLOCKS
  0
BLOCK
  8
0
  2
$MODEL_SPACE
 70
     0
 10
0.0
 20
0.0
 30
0.0
  3
$MODEL_SPACE
  1

  0
ENDBLK
  5
140
  8
0
  0
BLOCK
 67
     1
  8
0
  2
$PAPER_SPACE
 70
     0
 10
0.0
 20
0.0
 30
0.0
  3
$PAPER_SPACE
  1

  0
ENDBLK
  5
13E
 67
     1
  8
0
  0
ENDSEC
  0
SECTION
  2
ENTITIES
  0
ARC
  5
4D
  8
0
 10
168.49999999999989
 20
100.0
 30
0.0
 40
7.6210313434495163
 50
167.7312927277757
 51
228.2687072722245
  0
ARC
  5
4E
  8
0
 10
168.49999999999989
 20
100.0
 30
0.0
 40
7.6210313434495163
 50
95.731292727775738
 51
156.2687072722245
  0
ARC
  5
4F
  8
0
 10
168.4999999999998
 20
99.999999999999986
 30
0.0
 40
7.6210313434495163
 50
23.731292727775759
 51
84.268707272224546
  0
ARC
  5
50
  8
0
 10
168.49999999999989
 20
100.0
 30
0.0
 40
7.6210313434495163
 50
311.73129272777578
 51
12.268707272224519
  0
ARC
  5
51
  8
0
 10
168.49999999999989
 20
100.0
 30
0.0
 40
7.6210313434495163
 50
239.73129272777581
 51
300.26870727222462
  0
LINE
  5
52
  8
0
 10
160.9297570957325
 20
101.65949461294289
 30
0.0
 11
162.03251019550899
 21
101.30118841074361
 31
0.0
  0
LINE
  5
53
  8
0
 10
163.35097129864801
 20
94.207763520655917
 30
0.0
 11
164.03251019550899
 21
95.145821336393112
 31
0.0
  0
ARC
  5
54
  8
0
 10
160.79644221800919
 20
97.496962345563034
 30
0.0
 40
4.0
 50
323.99999999999972
 51
71.999999999999574
  0
LINE
  5
56
  8
0
 10
167.73893945643101
 20
107.7125408815138
 30
0.0
 11
167.73893945643101
 21
106.55303765443711
 31
0.0
  0
LINE
  5
57
  8
0
 10
161.40011837915509
 20
103.10711779145559
 30
0.0
 11
162.50287147893121
 21
102.7488115892565
 31
0.0
  0
ARC
  5
58
  8
0
 10
163.73893945643101
 20
106.55303765443711
 30
0.0
 40
4.0
 50
251.9999999999998
 51
359.9999999999996
  0
LINE
  5
5A
  8
0
 10
175.59988162084539
 20
103.10711779145559
 30
0.0
 11
174.4971285210689
 21
102.74881158925631
 31
0.0
  0
LINE
  5
5B
  8
0
 10
169.2610605435691
 20
107.71254088151321
 30
0.0
 11
169.2610605435691
 21
106.55303765443701
 31
0.0
  0
ARC
  5
5C
  8
0
 10
173.2610605435691
 20
106.55303765443701
 30
0.0
 40
4.0
 50
179.9999999999998
 51
287.9999999999996
  0
LINE
  5
5E
  8
0
 10
173.64902870135199
 20
94.207763520655334
 30
0.0
 11
172.9674898044909
 21
95.145821336392942
 31
0.0
  0
LINE
  5
5F
  8
0
 10
176.07024290426691
 20
101.65949461294259
 30
0.0
 11
174.9674898044909
 21
101.30118841074341
 31
0.0
  0
ARC
  5
60
  8
0
 10
176.2035577819907
 20
97.496962345562821
 30
0.0
 40
4.0
 50
107.9999999999997
 51
215.99999999999949
  0
CIRCLE
  5
62
  8
0
 10
168.49999999999989
 20
100.0
 30
0.0
 40
8.3358723833887041
  0
CIRCLE
  5
64
  8
0
 10
168.49999999999989
 20
100.0
 30
0.0
 40
7.7500000000000853
  0
CIRCLE
  5
65
  8
0
 10
168.49999999999989
 20
100.0
 30
0.0
 40
8.5000000000000426
  0
ARC
  5
67
  8
0
 10
168.49999999999989
 20
91.899999999999963
 30
0.0
 40
4.0
 50
35.99999999999978
 51
143.9999999999996
  0
LINE
  5
68
  8
0
 10
172.4176068743605
 20
93.313083193432647
 30
0.0
 11
171.73606797749969
 21
94.251141009169885
 31
0.0
  0
LINE
  5
69
  8
0
 10
164.58239312563879
 20
93.313083193432306
 30
0.0
 11
165.26393202250009
 21
94.251141009169885
 31
0.0
  0
CIRCLE
  5
6A
  8
0
 10
168.5
 20
100.0
 30
0.0
 40
10.477499999999999
  0
CIRCLE
  5
6B
  8
3
 10
168.5
 20
100.0
 30
0.0
 40
9.3155000000000001
  0
LINE
  5
6C
  8
1
 10
185.5
 20
100.0
 30
0.0
 11
151.5
 21
100.0
 31
0.0
  0
LINE
  5
6D
  8
1
 10
168.5
 20
117.0
 30
0.0
 11
168.5
 21
83.000000000000014
 31
0.0
  0
LINE
  5
7B
  8
1
 10
97.0
 20
100.0
 30
0.0
 11
121.5
 21
100.0
 31
0.0
  0
LINE
  5
B7
  8
1
 10
50.0
 20
117.0
 30
0.0
 11
50.0
 21
83.0
 31
0.0
  0
LINE
  5
B8
  8
1
 10
66.999999999999986
 20
100.0
 30
0.0
 11
32.999999999999993
 21
100.0
 31
0.0
  0
LINE
  5
DB
  8
1
 10
97.0
 20
150.0
 30
0.0
 11
121.5
 21
150.0
 31
0.0
  0
ARC
  5
195
  8
0
 10
168.49999999999989
 20
100.0
 30
0.0
 40
7.25
 50
240.02566099094199
 51
299.9743390090577
  0
ARC
  5
196
  8
0
 10
168.49999999999989
 20
100.0
 30
0.0
 40
7.25
 50
168.02566099094099
 51
227.9743390090577
  0
ARC
  5
197
  8
0
 10
168.49999999999989
 20
100.0
 30
0.0
 40
7.25
 50
96.025660990940224
 51
155.97433900905679
  0
ARC
  5
198
  8
0
 10
168.49999999999989
 20
100.0
 30
0.0
 40
7.25
 50
24.025660990940981
 51
83.974339009055896
  0
ARC
  5
199
  8
0
 10
168.49999999999989
 20
100.0
 30
0.0
 40
7.25
 50
312.02566099094201
 51
11.974339009057079
  0
LINE
  5
22B
  8
0
 10
101.5
 20
114.0
 30
0.0
 11
108.5
 21
114.0
 31
0.0
  0
LINE
  5
22C
  8
0
 10
101.5
 20
106.184658
 30
0.0
 11
101.5
 21
107.299976
 31
0.0
  0
LINE
  5
22E
  8
0
 10
106.5
 20
106.184658
 30
0.0
 11
101.5
 21
106.184658
 31
0.0
  0
LINE
  5
22F
  8
0
 10
106.5
 20
107.299976
 30
0.0
 11
101.5
 21
107.299976
 31
0.0
  0
LINE
  5
230
  8
0
 10
106.5
 20
106.184658
 30
0.0
 11
101.5
 21
106.184658
 31
0.0
  0
ARC
  5
231
  8
0
 10
105.805035
 20
110.39998799999999
 30
0.0
 40
5.3050350000000002
 50
144.24271800000011
 51
215.75728199999989
  0
LINE
  5
232
  8
0
 10
106.5
 20
114.0
 30
0.0
 11
106.5
 21
86.0
 31
0.0
  0
LINE
  5
233
  8
0
 10
101.5
 20
114.0
 30
0.0
 11
100.0
 21
112.5
 31
0.0
  0
LINE
  5
234
  8
0
 10
117.5
 20
109.3155
 30
0.0
 11
118.5
 21
109.3155
 31
0.0
  0
LINE
  5
236
  8
0
 10
109.5
 20
110.47750000000001
 30
0.0
 11
117.5
 21
110.47750000000001
 31
0.0
  0
LINE
  5
237
  8
3
 10
109.5
 20
109.3155
 30
0.0
 11
117.5
 21
109.3155
 31
0.0
  0
LINE
  5
238
  8
0
 10
101.5
 20
93.815341999999987
 30
0.0
 11
101.5
 21
92.700023999999999
 31
0.0
  0
LINE
  5
239
  8
0
 10
106.5
 20
93.815341999999987
 30
0.0
 11
101.5
 21
93.815341999999987
 31
0.0
  0
LINE
  5
23A
  8
0
 10
106.5
 20
92.700023999999999
 30
0.0
 11
101.5
 21
92.700023999999999
 31
0.0
  0
LINE
  5
23B
  8
0
 10
108.5
 20
87.699999999999989
 30
0.0
 11
109.5
 21
87.699999999999989
 31
0.0
  0
ARC
  5
23E
  8
0
 10
105.805035
 20
89.600012000000021
 30
0.0
 40
5.3050350000000002
 50
144.24271800000011
 51
215.75728199999989
  0
LINE
  5
240
  8
0
 10
117.5
 20
90.684500000000014
 30
0.0
 11
118.5
 21
90.684500000000014
 31
0.0
  0
LINE
  5
241
  8
0
 10
109.5
 20
89.522500000000008
 30
0.0
 11
117.5
 21
89.522500000000008
 31
0.0
  0
LINE
  5
242
  8
3
 10
109.5
 20
90.684500000000014
 30
0.0
 11
117.5
 21
90.684500000000014
 31
0.0
  0
LINE
  5
243
  8
0
 10
108.5
 20
85.999999999999972
 30
0.0
 11
108.5
 21
114.0
 31
0.0
  0
LINE
  5
244
  8
0
 10
117.5
 20
110.47750000000001
 30
0.0
 11
117.5
 21
89.522500000000008
 31
0.0
  0
LINE
  5
245
  8
0
 10
118.5
 20
109.3155
 30
0.0
 11
118.5
 21
90.684500000000014
 31
0.0
  0
LINE
  5
246
  8
0
 10
100.0
 20
112.5
 30
0.0
 11
100.0
 21
87.5
 31
0.0
  0
LINE
  5
247
  8
0
 10
109.5
 20
87.699999999999989
 30
0.0
 11
109.5
 21
112.3
 31
0.0
  0
ARC
  5
249
  8
0
 10
120.125
 20
100.0
 30
0.0
 40
19.625
 50
161.6306239999993
 51
198.36937600000061
  0
LINE
  5
2AC
  8
0
 10
38.643929
 20
107.2999759999999
 30
0.0
 11
49.356070999999972
 21
113.4846339999999
 31
0.0
  0
LINE
  5
2AD
  8
0
 10
50.643929
 20
113.4846339999999
 30
0.0
 11
61.356071
 21
107.2999759999999
 31
0.0
  0
LINE
  5
2AE
  8
0
 10
61.999999999999993
 20
106.184658
 30
0.0
 11
61.999999999999993
 21
93.815341999999944
 31
0.0
  0
LINE
  5
2AF
  8
0
 10
61.356071
 20
92.700023999999985
 30
0.0
 11
50.643929
 21
86.515365999999986
 31
0.0
  0
LINE
  5
2B0
  8
0
 10
49.356070999999972
 20
86.515365999999986
 30
0.0
 11
38.643929
 21
92.700023999999985
 31
0.0
  0
LINE
  5
2B1
  8
0
 10
37.999999999999993
 20
93.815341999999944
 30
0.0
 11
37.999999999999993
 21
106.184658
 31
0.0
  0
CIRCLE
  5
2B2
  8
3
 10
49.999999999999993
 20
100.0
 30
0.0
 40
0.8
  0
TEXT
  5
2B3
  8
3
 10
51.520572475895072
 20
98.534556810158733
 30
0.0
 40
0.9
  1
E
 50
220.00000000000011
 41
0.8
  7
SIM080
 72
     1
 11
51.349853999999972
 21
98.391307000000012
 31
0.0
  0
TEXT
  5
2B4
  8
3
 10
50.911550196275947
 20
98.097003429484147
 30
0.0
 40
0.9
  1
L
 50
200.00000000000011
 41
0.8
  7
SIM080
 72
     1
 11
50.718241999999989
 21
98.026645000000002
 31
0.0
  0
TEXT
  5
2B5
  8
3
 10
50.22285714285713
 20
97.900000000000006
 30
0.0
 40
0.9
  1
E
 50
180.0
 41
0.8
  7
SIM080
 72
     1
 11
49.999999999999993
 21
97.900000000000006
 31
0.0
  0
TEXT
  5
2B6
  8
3
 10
49.507284228988603
 20
97.944560165601843
 30
0.0
 40
0.9
  1
S
 50
159.99999999999989
 41
0.8
  7
SIM080
 72
     1
 11
49.281757999999982
 21
98.026645000000002
 31
0.0
  0
TEXT
  5
2B7
  8
3
 10
48.860261047255477
 20
98.214999541343133
 30
0.0
 40
0.9
  1
A
 50
139.99999999999989
 41
0.8
  7
SIM080
 72
     1
 11
48.650145999999992
 21
98.391307000000012
 31
0.0
  0
TEXT
  5
2B8
  8
3
 10
51.13973895274448
 20
101.7850004586568
 30
0.0
 40
0.9
  1
A
 50
319.99999999999989
 41
0.8
  7
SIM080
 72
     1
 11
51.349853999999972
 21
101.608693
 31
0.0
  0
TEXT
  5
2B9
  8
3
 10
50.492715771011369
 20
102.0554398343981
 30
0.0
 40
0.9
  1
S
 50
339.99999999999989
 41
0.8
  7
SIM080
 72
     1
 11
50.718241999999989
 21
101.973355
 31
0.0
  0
TEXT
  5
2BA
  8
3
 10
49.777142857142842
 20
102.09999999999999
 30
0.0
 40
0.9
  1
E
 41
0.8
  7
SIM080
 72
     1
 11
49.999999999999993
 21
102.09999999999999
 31
0.0
  0
TEXT
  5
2BB
  8
3
 10
49.088449803724032
 20
101.9029965705158
 30
0.0
 40
0.9
  1
L
 50
20.000000000000089
 41
0.8
  7
SIM080
 72
     1
 11
49.281757999999982
 21
101.973355
 31
0.0
  0
TEXT
  5
2BC
  8
3
 10
48.479427524104899
 20
101.4654431898412
 30
0.0
 40
0.9
  1
E
 50
40.000000000000092
 41
0.8
  7
SIM080
 72
     1
 11
48.650145999999992
 21
101.608693
 31
0.0
  0
LINE
  5
2BD
  8
3
 10
47.401923999999987
 20
101.4999999999999
 30
0.0
 11
48.181347000000002
 21
101.05
 31
0.0
  0
LINE
  5
2BE
  8
3
 10
47.102222999999988
 20
100.77645699999989
 30
0.0
 11
47.971555999999978
 21
100.5435199999999
 31
0.0
  0
LINE
  5
2BF
  8
3
 10
46.999999999999979
 20
99.999999999999986
 30
0.0
 11
47.899999999999991
 21
99.999999999999986
 31
0.0
  0
LINE
  5
2C0
  8
3
 10
47.102222999999988
 20
99.223542999999978
 30
0.0
 11
47.971555999999978
 21
99.456479999999985
 31
0.0
  0
LINE
  5
2C1
  8
3
 10
47.401923999999987
 20
98.499999999999972
 30
0.0
 11
48.181347000000002
 21
98.94999999999996
 31
0.0
  0
LINE
  5
2C2
  8
3
 10
52.598075999999978
 20
98.499999999999972
 30
0.0
 11
51.818652999999998
 21
98.94999999999996
 31
0.0
  0
LINE
  5
2C3
  8
3
 10
52.897777000000012
 20
99.223542999999978
 30
0.0
 11
52.028444000000022
 21
99.456479999999985
 31
0.0
  0
LINE
  5
2C4
  8
3
 10
52.999999999999979
 20
99.999999999999986
 30
0.0
 11
52.100000000000001
 21
99.999999999999986
 31
0.0
  0
LINE
  5
2C5
  8
3
 10
52.897777000000012
 20
100.77645699999989
 30
0.0
 11
52.028444000000022
 21
100.5435199999999
 31
0.0
  0
LINE
  5
2C6
  8
3
 10
52.598075999999978
 20
101.4999999999999
 30
0.0
 11
51.818652999999998
 21
101.05
 31
0.0
  0
ARC
  5
2C7
  8
0
 10
42.296441999999999
 20
97.496961999999996
 30
0.0
 40
4.0
 50
324.00000000000068
 51
71.999999999999488
  0
LINE
  5
2C8
  8
0
 10
45.146390399381787
 20
94.614373402770426
 30
0.0
 11
45.532509999999981
 21
95.145820999999984
 31
0.0
  0
LINE
  5
2C9
  8
0
 10
42.907755450216378
 20
101.5041832488313
 30
0.0
 11
43.532509999999988
 21
101.3011879999999
 31
0.0
  0
ARC
  5
2CA
  8
0
 10
45.238939000000002
 20
106.5530379999999
 30
0.0
 40
4.0
 50
251.99999999999949
 51
0.0
  0
LINE
  5
2CB
  8
0
 10
43.378116816095392
 20
102.95180675158809
 30
0.0
 11
44.002870999999992
 21
102.7488119999999
 31
0.0
  0
LINE
  5
2CC
  8
0
 10
49.238939000000009
 20
107.20994356110219
 30
0.0
 11
49.238939000000002
 21
106.5530379999999
 31
0.0
  0
ARC
  5
2CD
  8
0
 10
54.76106099999997
 20
106.5530379999999
 30
0.0
 40
4.0
 50
180.0
 51
288.00000000000051
  0
LINE
  5
2CE
  8
0
 10
50.761060999999962
 20
107.20994356110219
 30
0.0
 11
50.761060999999962
 21
106.5530379999999
 31
0.0
  0
LINE
  5
2CF
  8
0
 10
56.6218831839046
 20
102.95180675158809
 30
0.0
 11
55.997129000000008
 21
102.7488119999999
 31
0.0
  0
ARC
  5
2D0
  8
0
 10
57.703557999999973
 20
97.496961999999996
 30
0.0
 40
4.0
 50
108.0000000000005
 51
215.9999999999992
  0
LINE
  5
2D1
  8
0
 10
57.092244549783608
 20
101.5041832488313
 30
0.0
 11
56.467489999999977
 21
101.3011879999999
 31
0.0
  0
LINE
  5
2D2
  8
0
 10
54.853609600618199
 20
94.614373402770426
 30
0.0
 11
54.467489999999977
 21
95.145820999999984
 31
0.0
  0
LINE
  5
2D3
  8
0
 10
46.377812440515491
 20
93.719692898916833
 30
0.0
 11
46.76393199999999
 21
94.251140999999961
 31
0.0
  0
LINE
  5
2D4
  8
0
 10
53.622187559484509
 20
93.719692898916833
 30
0.0
 11
53.236068000000003
 21
94.251140999999961
 31
0.0
  0
ARC
  5
2D5
  8
0
 10
49.999999999999993
 20
91.900000000000006
 30
0.0
 40
4.0
 50
35.999999999999133
 51
144.00000000000071
  0
CIRCLE
  5
2D6
  8
0
 10
49.999999999999993
 20
100.0
 30
0.0
 40
9.3149999999999995
  0
CIRCLE
  5
2D7
  8
0
 10
49.999999999999993
 20
100.0
 30
0.0
 40
12.0
  0
CIRCLE
  5
2D9
  8
0
 10
49.999999999999993
 20
100.0
 30
0.0
 40
13.5
  0
LINE
  5
2DB
  8
0
 10
108.5
 20
112.3
 30
0.0
 11
109.5
 21
112.3
 31
0.0
  0
CIRCLE
  5
2E0
  8
0
 10
168.49999999999989
 20
100.0
 30
0.0
 40
12.300000000000111
  0
LINE
  5
311
  8
0
 10
108.5
 20
162.30000000000001
 30
0.0
 11
109.5
 21
162.30000000000001
 31
0.0
  0
LINE
  5
313
  8
0
 10
109.5
 20
137.69999999999999
 30
0.0
 11
109.5
 21
162.30000000000001
 31
0.0
  0
LINE
  5
314
  8
0
 10
100.0
 20
161.50000000000011
 30
0.0
 11
100.0
 21
138.5
 31
0.0
  0
LINE
  5
315
  8
0
 10
118.5
 20
159.31549999999999
 30
0.0
 11
118.5
 21
140.68450000000001
 31
0.0
  0
LINE
  5
316
  8
0
 10
117.5
 20
160.47749999999999
 30
0.0
 11
117.5
 21
139.52250000000001
 31
0.0
  0
LINE
  5
317
  8
0
 10
108.5
 20
136.0
 30
0.0
 11
108.5
 21
164.0
 31
0.0
  0
LINE
  5
318
  8
3
 10
109.5
 20
140.68450000000001
 30
0.0
 11
117.5
 21
140.68450000000001
 31
0.0
  0
LINE
  5
319
  8
0
 10
109.5
 20
139.52250000000001
 30
0.0
 11
117.5
 21
139.52250000000001
 31
0.0
  0
LINE
  5
31A
  8
0
 10
117.5
 20
140.68450000000001
 30
0.0
 11
118.5
 21
140.68450000000001
 31
0.0
  0
LINE
  5
31D
  8
0
 10
106.5
 20
136.0
 30
0.0
 11
108.5
 21
136.0
 31
0.0
  0
LINE
  5
31E
  8
0
 10
108.5
 20
137.69999999999999
 30
0.0
 11
109.5
 21
137.69999999999999
 31
0.0
  0
LINE
  5
322
  8
3
 10
109.5
 20
159.31549999999999
 30
0.0
 11
117.5
 21
159.31549999999999
 31
0.0
  0
LINE
  5
323
  8
0
 10
109.5
 20
160.47749999999999
 30
0.0
 11
117.5
 21
160.47749999999999
 31
0.0
  0
LINE
  5
324
  8
0
 10
117.5
 20
159.31549999999999
 30
0.0
 11
118.5
 21
159.31549999999999
 31
0.0
  0
LINE
  5
326
  8
0
 10
106.5
 20
164.0
 30
0.0
 11
106.5
 21
136.0
 31
0.0
  0
LINE
  5
32C
  8
0
 10
106.5
 20
164.0
 30
0.0
 11
108.5
 21
164.0
 31
0.0
  0
LINE
  5
32F
  8
0
 10
100.5
 20
162.00000000000011
 30
0.0
 11
106.5
 21
162.00000000000011
 31
0.0
  0
LINE
  5
330
  8
0
 10
101.5
 20
161.35607099999999
 30
0.0
 11
106.5
 21
161.35607099999999
 31
0.0
  0
LINE
  5
331
  8
0
 10
101.5
 20
150.6439290000001
 30
0.0
 11
106.5
 21
150.6439290000001
 31
0.0
  0
LINE
  5
332
  8
0
 10
101.5
 20
149.35607099999999
 30
0.0
 11
106.5
 21
149.35607099999999
 31
0.0
  0
ARC
  5
335
  8
0
 10
115.34374827852071
 20
156.00000000000011
 30
0.0
 40
14.84374827852066
 50
158.84881667284429
 51
201.15118332715579
  0
LINE
  5
336
  8
0
 10
101.5
 20
161.35607099999999
 30
0.0
 11
101.5
 21
162.00000000000011
 31
0.0
  0
LINE
  5
337
  8
0
 10
101.5
 20
150.64392900000001
 30
0.0
 11
101.5
 21
149.35607099999999
 31
0.0
  0
ARC
  5
338
  8
0
 10
115.34374827852071
 20
143.99999999999989
 30
0.0
 40
14.84374827852066
 50
158.84881667284421
 51
201.15118332715571
  0
LINE
  5
339
  8
0
 10
101.5
 20
138.64392900000001
 30
0.0
 11
106.5
 21
138.64392900000001
 31
0.0
  0
LINE
  5
33A
  8
0
 10
101.5
 20
138.64392900000001
 30
0.0
 11
101.5
 21
137.99999999999989
 31
0.0
  0
LINE
  5
33B
  8
0
 10
100.5
 20
138.0
 30
0.0
 11
106.5
 21
138.0
 31
0.0
  0
LINE
  5
33C
  8
0
 10
100.0
 20
138.5
 30
0.0
 11
100.5
 21
138.0
 31
0.0
  0
LINE
  5
33D
  8
0
 10
100.5
 20
162.00000000000011
 30
0.0
 11
100.0
 21
161.50000000000011
 31
0.0
  0
CIRCLE
  5
361
  8
0
 10
50.0
 20
100.0
 30
0.0
 40
7.25
  0
CIRCLE
  5
371
  8
0
 10
49.999999999999993
 20
100.0
 30
0.0
 40
14.0
  0
CIRCLE
  5
372
  8
0
 10
168.5
 20
100.0
 30
0.0
 40
14.0
  0
LINE
  5
374
  8
0
 10
101.5000005110463
 20
113.5
 30
0.0
 11
106.5
 21
113.5
 31
0.0
  0
LINE
  5
375
  8
0
 10
101.5000005814689
 20
113.500000097797
 30
0.0
 11
101.5
 21
114.0
 31
0.0
  0
LINE
  5
376
  8
0
 10
101.5000005814689
 20
86.499999902202987
 30
0.0
 11
101.5
 21
86.0
 31
0.0
  0
LINE
  5
377
  8
0
 10
101.5000005110463
 20
86.5
 30
0.0
 11
106.5
 21
86.5
 31
0.0
  0
LINE
  5
378
  8
0
 10
101.5
 20
85.999999999999972
 30
0.0
 11
108.5
 21
85.999999999999972
 31
0.0
  0
LINE
  5
379
  8
0
 10
101.5
 20
85.999999999999972
 30
0.0
 11
100.0
 21
87.499999999999986
 31
0.0
  0
LINE
  5
37A
  8
0
 10
100.5
 20
37.999999999999943
 30
0.0
 11
100.0
 21
38.499999999999943
 31
0.0
  0
LINE
  5
37B
  8
0
 10
100.0
 20
61.49999999999995
 30
0.0
 11
100.5
 21
61.99999999999995
 31
0.0
  0
LINE
  5
37C
  8
0
 10
100.5
 20
61.99999999999995
 30
0.0
 11
106.5
 21
61.999999999999957
 31
0.0
  0
LINE
  5
37D
  8
0
 10
101.5
 20
61.356071000000043
 30
0.0
 11
101.5
 21
62.00000000000005
 31
0.0
  0
LINE
  5
37E
  8
0
 10
101.5
 20
61.356071000000043
 30
0.0
 11
106.5
 21
61.356071000000043
 31
0.0
  0
ARC
  5
37F
  8
0
 10
115.34374827852071
 20
56.000000000000043
 30
0.0
 40
14.84374827852066
 50
158.84881667284421
 51
201.15118332715579
  0
LINE
  5
380
  8
0
 10
101.5
 20
49.356070999999979
 30
0.0
 11
101.5
 21
50.643928999999972
 31
0.0
  0
LINE
  5
381
  8
0
 10
101.5
 20
38.64392899999995
 30
0.0
 11
101.5
 21
37.999999999999943
 31
0.0
  0
ARC
  5
382
  8
0
 10
115.34374827852071
 20
43.999999999999943
 30
0.0
 40
14.84374827852066
 50
158.84881667284421
 51
201.15118332715571
  0
LINE
  5
383
  8
0
 10
101.5
 20
50.643928999999972
 30
0.0
 11
106.5
 21
50.643928999999972
 31
0.0
  0
LINE
  5
384
  8
0
 10
101.5
 20
49.35607099999995
 30
0.0
 11
106.5
 21
49.35607099999995
 31
0.0
  0
LINE
  5
385
  8
0
 10
101.5
 20
38.64392899999995
 30
0.0
 11
106.5
 21
38.64392899999995
 31
0.0
  0
LINE
  5
386
  8
0
 10
100.5
 20
37.999999999999943
 30
0.0
 11
106.5
 21
37.999999999999943
 31
0.0
  0
LINE
  5
387
  8
0
 10
106.5
 20
36.0
 30
0.0
 11
108.5
 21
36.0
 31
0.0
  0
LINE
  5
388
  8
0
 10
106.5
 20
36.0
 30
0.0
 11
106.5
 21
63.999999999999979
 31
0.0
  0
LINE
  5
389
  8
0
 10
117.5
 20
40.684500000000007
 30
0.0
 11
118.5
 21
40.684500000000007
 31
0.0
  0
LINE
  5
38A
  8
0
 10
109.5
 20
39.522500000000001
 30
0.0
 11
117.5
 21
39.522500000000001
 31
0.0
  0
LINE
  5
38B
  8
3
 10
109.5
 20
40.684500000000007
 30
0.0
 11
117.5
 21
40.684500000000007
 31
0.0
  0
LINE
  5
38C
  8
0
 10
108.5
 20
62.299999999999997
 30
0.0
 11
109.5
 21
62.299999999999997
 31
0.0
  0
LINE
  5
38D
  8
0
 10
106.5
 20
64.0
 30
0.0
 11
108.5
 21
63.999999999999993
 31
0.0
  0
LINE
  5
38E
  8
0
 10
117.5
 20
59.315499999999972
 30
0.0
 11
118.5
 21
59.315499999999972
 31
0.0
  0
LINE
  5
38F
  8
0
 10
109.5
 20
60.477499999999978
 30
0.0
 11
117.5
 21
60.477499999999978
 31
0.0
  0
LINE
  5
390
  8
3
 10
109.5
 20
59.315499999999972
 30
0.0
 11
117.5
 21
59.315499999999972
 31
0.0
  0
LINE
  5
391
  8
0
 10
108.5
 20
63.999999999999993
 30
0.0
 11
108.5
 21
36.0
 31
0.0
  0
LINE
  5
392
  8
0
 10
117.5
 20
39.522500000000001
 30
0.0
 11
117.5
 21
60.477499999999978
 31
0.0
  0
LINE
  5
393
  8
0
 10
118.5
 20
40.684500000000007
 30
0.0
 11
118.5
 21
59.315499999999972
 31
0.0
  0
LINE
  5
394
  8
0
 10
100.0
 20
38.499999999999943
 30
0.0
 11
100.0
 21
61.49999999999995
 31
0.0
  0
LINE
  5
395
  8
0
 10
109.5
 20
62.299999999999997
 30
0.0
 11
109.5
 21
37.699999999999982
 31
0.0
  0
LINE
  5
396
  8
0
 10
108.5
 20
37.699999999999982
 30
0.0
 11
109.5
 21
37.699999999999982
 31
0.0
  0
LINE
  5
397
  8
1
 10
97.0
 20
50.0
 30
0.0
 11
121.5
 21
50.0
 31
0.0
  0
TEXT
  5
88D
  8
0
 62
     3
 10
0.0
 20
0.0
 30
0.0
 40
10.0
  1
FG-13NN-ATEX
  7
STANDARD1
  0
ENDSEC
  0
EOF
